0
SECTION
2
HEADER
9
$INSUNITS
70
4
9
$ACADVER
1
AC1014
9
$HANDSEED
5
FFFF
0
ENDSEC
0
SECTION
2
TABLES
0
TABLE
2
VPORT
5
8
100
AcDbSymbolTable
0
ENDTAB
0
TABLE
2
LTYPE
5
5
100
AcDbSymbolTable
0
LTYPE
5
14
100
AcDbSymbolTableRecord
100
AcDbLinetypeTableRecord
2
BYBLOCK
70
0
0
LTYPE
5
15
100
AcDbSymbolTableRecord
100
AcDbLinetypeTableRecord
2
BYLAYER
70
0
0
ENDTAB
0
TABLE
2
LAYER
5
2
100
AcDbSymbolTable
70
2
0
LAYER
5
50
100
AcDbSymbolTableRecord
100
AcDbLayerTableRecord
2
0
70
0
6
CONTINUOUS
0
ENDTAB
0
TABLE
2
STYLE
5
3
100
AcDbSymbolTable
70
1
0
STYLE
5
11
100
AcDbSymbolTableRecord
100
AcDbTextStyleTableRecord
2
STANDARD
70
0
0
ENDTAB
0
TABLE
2
VIEW
5
6
100
AcDbSymbolTable
70
0
0
ENDTAB
0
TABLE
2
UCS
5
7
100
AcDbSymbolTable
70
0
0
ENDTAB
0
TABLE
2
APPID
5
9
100
AcDbSymbolTable
70
2
0
APPID
5
12
100
AcDbSymbolTableRecord
100
AcDbRegAppTableRecord
2
ACAD
70
0
0
ENDTAB
0
TABLE
2
DIMSTYLE
5
A
100
AcDbSymbolTable
70
1
0
ENDTAB
0
TABLE
2
BLOCK_RECORD
5
1
100
AcDbSymbolTable
70
1
0
BLOCK_RECORD
5
1F
100
AcDbSymbolTableRecord
100
AcDbBlockTableRecord
2
*MODEL_SPACE
0
BLOCK_RECORD
5
1B
100
AcDbSymbolTableRecord
100
AcDbBlockTableRecord
2
*PAPER_SPACE
0
ENDTAB
0
ENDSEC
0
SECTION
2
BLOCKS
0
BLOCK
5
20
100
AcDbEntity
100
AcDbBlockBegin
2
*MODEL_SPACE
0
ENDBLK
5
21
100
AcDbEntity
100
AcDbBlockEnd
0
BLOCK
5
1C
100
AcDbEntity
100
AcDbBlockBegin
2
*PAPER_SPACE
0
ENDBLK
5
1D
100
AcDbEntity
100
AcDbBlockEnd
0
ENDSEC
0
SECTION
2
ENTITIES
0
LWPOLYLINE
5
100
100
AcDbEntity
8
0
100
AcDbPolyline
90
4
70
1
43
0.0
10
0
20
0
10
944
20
0
10
944
20
80
10
-1.2325951644078309e-31
20
80
0
CIRCLE
5
101
100
AcDbEntity
8
0
100
AcDbCircle
10
7.5
20
74
30
0
40
2.6000000000000028
210
0
220
0
230
1
0
CIRCLE
5
102
100
AcDbEntity
8
0
100
AcDbCircle
10
7.5
20
6.0000000000000009
30
0
40
2.6000000000000028
210
0
220
0
230
1
0
CIRCLE
5
103
100
AcDbEntity
8
0
100
AcDbCircle
10
110.72222222222223
20
6.0000000000000009
30
0
40
2.6000000000000028
210
0
220
0
230
1
0
CIRCLE
5
104
100
AcDbEntity
8
0
100
AcDbCircle
10
110.72222222222223
20
74
30
0
40
2.6000000000000028
210
0
220
0
230
1
0
CIRCLE
5
105
100
AcDbEntity
8
0
100
AcDbCircle
10
317.16666666666669
20
74
30
0
40
2.6000000000000028
210
0
220
0
230
1
0
CIRCLE
5
106
100
AcDbEntity
8
0
100
AcDbCircle
10
213.94444444444446
20
74
30
0
40
2.6000000000000028
210
0
220
0
230
1
0
CIRCLE
5
107
100
AcDbEntity
8
0
100
AcDbCircle
10
213.94444444444446
20
6.0000000000000009
30
0
40
2.6000000000000028
210
0
220
0
230
1
0
CIRCLE
5
108
100
AcDbEntity
8
0
100
AcDbCircle
10
936.5
20
6.0000000000000009
30
0
40
2.6000000000000028
210
0
220
0
230
1
0
CIRCLE
5
109
100
AcDbEntity
8
0
100
AcDbCircle
10
730.05555555555566
20
74
30
0
40
2.6000000000000028
210
0
220
0
230
1
0
CIRCLE
5
110
100
AcDbEntity
8
0
100
AcDbCircle
10
730.05555555555566
20
6.0000000000000009
30
0
40
2.6000000000000028
210
0
220
0
230
1
0
CIRCLE
5
111
100
AcDbEntity
8
0
100
AcDbCircle
10
420.38888888888891
20
74
30
0
40
2.6000000000000028
210
0
220
0
230
1
0
CIRCLE
5
112
100
AcDbEntity
8
0
100
AcDbCircle
10
626.83333333333337
20
6.0000000000000009
30
0
40
2.6000000000000028
210
0
220
0
230
1
0
CIRCLE
5
113
100
AcDbEntity
8
0
100
AcDbCircle
10
523.61111111111109
20
6.0000000000000009
30
0
40
2.6000000000000028
210
0
220
0
230
1
0
CIRCLE
5
114
100
AcDbEntity
8
0
100
AcDbCircle
10
523.61111111111109
20
74
30
0
40
2.6000000000000028
210
0
220
0
230
1
0
CIRCLE
5
115
100
AcDbEntity
8
0
100
AcDbCircle
10
317.16666666666669
20
6.0000000000000009
30
0
40
2.6000000000000028
210
0
220
0
230
1
0
CIRCLE
5
116
100
AcDbEntity
8
0
100
AcDbCircle
10
420.38888888888891
20
6.0000000000000009
30
0
40
2.6000000000000028
210
0
220
0
230
1
0
CIRCLE
5
117
100
AcDbEntity
8
0
100
AcDbCircle
10
626.83333333333337
20
74
30
0
40
2.6000000000000028
210
0
220
0
230
1
0
CIRCLE
5
118
100
AcDbEntity
8
0
100
AcDbCircle
10
833.27777777777783
20
6.0000000000000009
30
0
40
2.6000000000000028
210
0
220
0
230
1
0
CIRCLE
5
119
100
AcDbEntity
8
0
100
AcDbCircle
10
833.27777777777783
20
74
30
0
40
2.6000000000000028
210
0
220
0
230
1
0
CIRCLE
5
120
100
AcDbEntity
8
0
100
AcDbCircle
10
936.5
20
74
30
0
40
2.6000000000000028
210
0
220
0
230
1
0
LWPOLYLINE
5
121
100
AcDbEntity
8
0
100
AcDbPolyline
90
1
70
1
43
0.0
10
391.91998701896659
20
21.721894061113698
0
SPLINE
5
122
100
AcDbEntity
8
0
100
AcDbSpline
70
0
71
1
72
4
73
2
74
0
42
0.000000001
43
0.0000000001
44
0.0000000001
40
0
40
0
40
0.039226699999999996
40
0.039226699999999996
10
391.86688701896662
20
21.572674061113695
30
0
10
391.83898701896658
20
21.499774061113698
30
0
0
SPLINE
5
123
100
AcDbEntity
8
0
100
AcDbSpline
70
0
71
2
72
6
73
3
74
0
42
0.000000001
43
0.0000000001
44
0.0000000001
40
0
40
0
40
0
40
1
40
1
40
1
10
502.23568701896625
20
19.329694061113678
30
0
10
500.26828701896636
20
19.329784061113671
30
0
10
498.69598701896632
20
19.580794061113671
30
0
0
SPLINE
5
124
100
AcDbEntity
8
0
100
AcDbSpline
70
0
71
1
72
4
73
2
74
0
42
0.000000001
43
0.0000000001
44
0.0000000001
40
0
40
0
40
0.036953399999999997
40
0.036953399999999997
10
626.02708701896609
20
19.344904061113652
30
0
10
625.95328701896619
20
19.339324061113654
30
0
0
LWPOLYLINE
5
125
100
AcDbEntity
8
0
100
AcDbPolyline
90
1
70
1
43
0.0
10
626.02708701896609
20
19.344904061113652
0
SPLINE
5
126
100
AcDbEntity
8
0
100
AcDbSpline
70
0
71
1
72
4
73
2
74
0
42
0.000000001
43
0.0000000001
44
0.0000000001
40
0
40
0
40
0.032213400000000003
40
0.032213400000000003
10
390.88138701896668
20
20.069044061113694
30
0
10
390.83188701896665
20
20.02755406111369
30
0
0
SPLINE
5
127
100
AcDbEntity
8
0
100
AcDbSpline
70
0
71
2
72
6
73
3
74
0
42
0.000000001
43
0.0000000001
44
0.0000000001
40
0
40
0
40
0
40
1
40
1
40
1
10
465.20518701896651
20
19.329694061113678
30
0
10
462.05968701896654
20
19.330054061113682
30
0
10
459.76288701896647
20
19.886974061113676
30
0
0
SPLINE
5
128
100
AcDbEntity
8
0
100
AcDbSpline
70
0
71
2
72
6
73
3
74
0
42
0.000000001
43
0.0000000001
44
0.0000000001
40
0
40
0
40
0
40
1
40
1
40
1
10
498.69598701896632
20
19.580794061113671
30
0
10
498.07858701896635
20
19.329784061113671
30
0
10
497.28928701896626
20
19.329694061113678
30
0
0
SPLINE
5
129
100
AcDbEntity
8
0
100
AcDbSpline
70
0
71
1
72
4
73
2
74
0
42
0.000000001
43
0.0000000001
44
0.0000000001
40
0
40
0
40
0.037624699999999997
40
0.037624699999999997
10
391.75078701896661
20
21.28854406111369
30
0
10
391.72018701896661
20
21.220504061113694
30
0
0
LWPOLYLINE
5
130
100
AcDbEntity
8
0
100
AcDbPolyline
90
1
70
1
43
0.0
10
391.86688701896662
20
21.572674061113695
0
SPLINE
5
131
100
AcDbEntity
8
0
100
AcDbSpline
70
0
71
1
72
4
73
2
74
0
42
0.000000001
43
0.0000000001
44
0.0000000001
40
0
40
0
40
0.038404800000000003
40
0.038404800000000003
10
391.8101870189667
20
21.428224061113696
30
0
10
391.7813870189666
20
21.357754061113692
30
0
0
LWPOLYLINE
5
132
100
AcDbEntity
8
0
100
AcDbPolyline
90
1
70
1
43
0.0
10
391.89388701896661
20
21.646654061113694
0
SPLINE
5
133
100
AcDbEntity
8
0
100
AcDbSpline
70
0
71
1
72
4
73
2
74
0
42
0.000000001
43
0.0000000001
44
0.0000000001
40
0
40
0
40
4.9725800000000007
40
4.9725800000000007
10
512.10958701896629
20
19.329694061113678
30
0
10
502.23568701896625
20
19.329694061113678
30
0
0
LWPOLYLINE
5
134
100
AcDbEntity
8
0
100
AcDbPolyline
90
1
70
1
43
0.0
10
391.94518701896669
20
21.79830406111369
0
SPLINE
5
135
100
AcDbEntity
8
0
100
AcDbSpline
70
0
71
1
72
4
73
2
74
0
42
0.000000001
43
0.0000000001
44
0.0000000001
40
0
40
0
40
0.039611500000000001
40
0.039611500000000001
10
391.89388701896661
20
21.646654061113694
30
0
10
391.86688701896662
20
21.572674061113695
30
0
0
SPLINE
5
136
100
AcDbEntity
8
0
100
AcDbSpline
70
0
71
1
72
4
73
2
74
0
42
0.000000001
43
0.0000000001
44
0.0000000001
40
0
40
0
40
0.032040899999999997
40
0.032040899999999997
10
627.59578701896623
20
19.872934061113654
30
0
10
627.54268701896603
20
19.837474061113653
30
0
0
SPLINE
5
137
100
AcDbEntity
8
0
100
AcDbSpline
70
0
71
1
72
4
73
2
74
0
42
0.000000001
43
0.0000000001
44
0.0000000001
40
0
40
0
40
0.032083600000000004
40
0.032083600000000004
10
390.57538701896658
20
19.837474061113692
30
0
10
390.52138701896661
20
19.80309406111369
30
0
0
SPLINE
5
138
100
AcDbEntity
8
0
100
AcDbSpline
70
0
71
1
72
4
73
2
74
0
42
0.000000001
43
0.0000000001
44
0.0000000001
40
0
40
0
40
9.0642999999999993e-05
40
9.0642999999999993e-05
10
627.99088701896596
20
20.201164061113648
30
0
10
627.98998701896596
20
20.201164061113648
30
0
0
LWPOLYLINE
5
139
100
AcDbEntity
8
0
100
AcDbPolyline
90
1
70
1
43
0.0
10
627.59578701896623
20
19.872934061113654
0
SPLINE
5
140
100
AcDbEntity
8
0
100
AcDbSpline
70
0
71
2
72
6
73
3
74
0
42
0.000000001
43
0.0000000001
44
0.0000000001
40
0
40
0
40
0
40
1
40
1
40
1
10
519.95398701896636
20
20.711554061113667
30
0
10
516.25318701896629
20
19.331674061113677
30
0
10
512.10958701896629
20
19.329694061113678
30
0
0
SPLINE
5
141
100
AcDbEntity
8
0
100
AcDbSpline
70
0
71
1
72
4
73
2
74
0
42
0.000000001
43
0.0000000001
44
0.0000000001
40
0
40
0
40
0.032627099999999999
40
0.032627099999999999
10
391.02268701896662
20
20.201164061113687
30
0
10
390.9767870189666
20
20.155984061113688
30
0
0
SPLINE
5
142
100
AcDbEntity
8
0
100
AcDbSpline
70
0
71
1
72
4
73
2
74
0
42
0.000000001
43
0.0000000001
44
0.0000000001
40
0
40
0
40
9.0642999999999993e-05
40
9.0642999999999993e-05
10
391.81108701896665
20
21.428224061113696
30
0
10
391.8101870189667
20
21.428224061113696
30
0
0
LWPOLYLINE
5
143
100
AcDbEntity
8
0
100
AcDbPolyline
90
1
70
1
43
0.0
10
390.83188701896665
20
20.02755406111369
0
SPLINE
5
144
100
AcDbEntity
8
0
100
AcDbSpline
70
0
71
1
72
4
73
2
74
0
42
0.000000001
43
0.0000000001
44
0.0000000001
40
0
40
0
40
0.0369091
40
0.0369091
10
391.68868701896656
20
21.153724061113696
30
0
10
391.65628701896657
20
21.088024061113689
30
0
0
LWPOLYLINE
5
145
100
AcDbEntity
8
0
100
AcDbPolyline
90
1
70
1
43
0.0
10
391.06858701896664
20
20.247604061113691
0
SPLINE
5
146
100
AcDbEntity
8
0
100
AcDbSpline
70
0
71
1
72
4
73
2
74
0
42
0.000000001
43
0.0000000001
44
0.0000000001
40
0
40
0
40
0.0344111
40
0.0344111
10
628.37158701896612
20
20.662234061113654
30
0
10
628.33288701896618
20
20.606164061113649
30
0
0
LWPOLYLINE
5
147
100
AcDbEntity
8
0
100
AcDbPolyline
90
1
70
1
43
0.0
10
391.7813870189666
20
21.357754061113692
0
SPLINE
5
148
100
AcDbEntity
8
0
100
AcDbSpline
70
0
71
1
72
4
73
2
74
0
42
0.000000001
43
0.0000000001
44
0.0000000001
40
0
40
0
40
0.00013596499999999999
40
0.00013596499999999999
10
391.65628701896657
20
21.088024061113689
30
0
10
391.65538701896662
20
21.088024061113689
30
0
0
LWPOLYLINE
5
149
100
AcDbEntity
8
0
100
AcDbPolyline
90
1
70
1
43
0.0
10
391.15768701896661
20
20.343904061113687
0
LWPOLYLINE
5
150
100
AcDbEntity
8
0
100
AcDbPolyline
90
1
70
1
43
0.0
10
391.83898701896658
20
21.499774061113698
0
LWPOLYLINE
5
151
100
AcDbEntity
8
0
100
AcDbPolyline
90
1
70
1
43
0.0
10
391.11358701896665
20
20.295214061113693
0
SPLINE
5
152
100
AcDbEntity
8
0
100
AcDbSpline
70
0
71
1
72
4
73
2
74
0
42
0.000000001
43
0.0000000001
44
0.0000000001
40
0
40
0
40
0.038755900000000003
40
0.038755900000000003
10
391.83898701896658
20
21.499774061113698
30
0
10
391.81108701896665
20
21.428224061113696
30
0
0
SPLINE
5
153
100
AcDbEntity
8
0
100
AcDbSpline
70
0
71
1
72
4
73
2
74
0
42
0.000000001
43
0.0000000001
44
0.0000000001
40
0
40
0
40
0.032516299999999998
40
0.032516299999999998
10
390.9767870189666
20
20.155984061113688
30
0
10
390.92908701896653
20
20.111974061113692
30
0
0
LWPOLYLINE
5
154
100
AcDbEntity
8
0
100
AcDbPolyline
90
1
70
1
43
0.0
10
390.29818701896659
20
19.677544061113686
0
LWPOLYLINE
5
155
100
AcDbEntity
8
0
100
AcDbPolyline
90
1
70
1
43
0.0
10
627.14938701896619
20
19.622104061113657
0
SPLINE
5
156
100
AcDbEntity
8
0
100
AcDbSpline
70
0
71
1
72
4
73
2
74
0
42
0.000000001
43
0.0000000001
44
0.0000000001
40
0
40
0
40
4.9726300000000005
40
4.9726300000000005
10
405.81328701896661
20
34.14180406111366
30
0
10
395.93938701896661
20
34.14180406111366
30
0
0
SPLINE
5
157
100
AcDbEntity
8
0
100
AcDbSpline
70
0
71
1
72
4
73
2
74
0
42
0.000000001
43
0.0000000001
44
0.0000000001
40
0
40
0
40
0.038569900000000004
40
0.038569900000000004
10
625.72828701896606
20
19.330324061113654
30
0
10
625.65178701896616
20
19.329694061113653
30
0
0
SPLINE
5
158
100
AcDbEntity
8
0
100
AcDbSpline
70
0
71
1
72
4
73
2
74
0
42
0.000000001
43
0.0000000001
44
0.0000000001
40
0
40
0
40
0.032834300000000004
40
0.032834300000000004
10
391.11358701896665
20
20.295214061113693
30
0
10
391.06858701896664
20
20.247604061113691
30
0
0
SPLINE
5
159
100
AcDbEntity
8
0
100
AcDbSpline
70
0
71
1
72
4
73
2
74
0
42
0.000000001
43
0.0000000001
44
0.0000000001
40
0
40
0
40
0.040074100000000001
40
0.040074100000000001
10
391.91998701896659
20
21.721894061113698
30
0
10
391.89388701896661
20
21.646654061113694
30
0
0
SPLINE
5
160
100
AcDbEntity
8
0
100
AcDbSpline
70
0
71
1
72
4
73
2
74
0
42
0.000000001
43
0.0000000001
44
0.0000000001
40
0
40
0
40
0.032927400000000003
40
0.032927400000000003
10
628.08088701896622
20
20.295214061113658
30
0
10
628.03588701896604
20
20.247604061113652
30
0
0
LWPOLYLINE
5
161
100
AcDbEntity
8
0
100
AcDbPolyline
90
1
70
1
43
0.0
10
391.51678701896662
20
20.837464061113693
0
SPLINE
5
162
100
AcDbEntity
8
0
100
AcDbSpline
70
0
71
1
72
4
73
2
74
0
42
0.000000001
43
0.0000000001
44
0.0000000001
40
0
40
0
40
0.033593100000000001
40
0.033593100000000001
10
391.28458701896659
20
20.49762406111369
30
0
10
391.24318701896664
20
20.445244061113684
30
0
0
SPLINE
5
163
100
AcDbEntity
8
0
100
AcDbSpline
70
0
71
1
72
4
73
2
74
0
42
0.000000001
43
0.0000000001
44
0.0000000001
40
0
40
0
40
0.036217800000000008
40
0.036217800000000008
10
391.62208701896657
20
21.023674061113695
30
0
10
391.58788701896663
20
20.960404061113692
30
0
0
SPLINE
5
164
100
AcDbEntity
8
0
100
AcDbSpline
70
0
71
1
72
4
73
2
74
0
42
0.000000001
43
0.0000000001
44
0.0000000001
40
0
40
0
40
0.035529999999999999
40
0.035529999999999999
10
391.55278701896663
20
20.898304061113691
30
0
10
391.51678701896662
20
20.837464061113693
30
0
0
LWPOLYLINE
5
165
100
AcDbEntity
8
0
100
AcDbPolyline
90
1
70
1
43
0.0
10
391.62208701896657
20
21.023674061113695
0
LWPOLYLINE
5
166
100
AcDbEntity
8
0
100
AcDbPolyline
90
1
70
1
43
0.0
10
391.72018701896661
20
21.220504061113694
0
SPLINE
5
167
100
AcDbEntity
8
0
100
AcDbSpline
70
0
71
1
72
4
73
2
74
0
42
0.000000001
43
0.0000000001
44
0.0000000001
40
0
40
0
40
0.0347055
40
0.0347055
10
391.44298701896662
20
20.719564061113694
30
0
10
391.40428701896661
20
20.662234061113693
30
0
0
SPLINE
5
168
100
AcDbEntity
8
0
100
AcDbSpline
70
0
71
1
72
4
73
2
74
0
42
0.000000001
43
0.0000000001
44
0.0000000001
40
0
40
0
40
0.037201400000000003
40
0.037201400000000003
10
391.72018701896661
20
21.220504061113694
30
0
10
391.68868701896656
20
21.153724061113696
30
0
0
SPLINE
5
169
100
AcDbEntity
8
0
100
AcDbSpline
70
0
71
1
72
4
73
2
74
0
42
0.000000001
43
0.0000000001
44
0.0000000001
40
0
40
0
40
0.037979600000000002
40
0.037979600000000002
10
391.7813870189666
20
21.357754061113692
30
0
10
391.75078701896661
20
21.28854406111369
30
0
0
SPLINE
5
170
100
AcDbEntity
8
0
100
AcDbSpline
70
0
71
1
72
4
73
2
74
0
42
0.000000001
43
0.0000000001
44
0.0000000001
40
0
40
0
40
0.033873599999999997
40
0.033873599999999997
10
391.3250870189666
20
20.551264061113692
30
0
10
391.28458701896659
20
20.49762406111369
30
0
0
LWPOLYLINE
5
171
100
AcDbEntity
8
0
100
AcDbPolyline
90
1
70
1
43
0.0
10
391.44298701896662
20
20.719564061113694
0
LWPOLYLINE
5
172
100
AcDbEntity
8
0
100
AcDbPolyline
90
1
70
1
43
0.0
10
391.55278701896663
20
20.898304061113691
0
SPLINE
5
173
100
AcDbEntity
8
0
100
AcDbSpline
70
0
71
1
72
4
73
2
74
0
42
0.000000001
43
0.0000000001
44
0.0000000001
40
0
40
0
40
0.033412800000000006
40
0.033412800000000006
10
391.24318701896664
20
20.445244061113684
30
0
10
391.20088701896663
20
20.39412406111369
30
0
0
SPLINE
5
174
100
AcDbEntity
8
0
100
AcDbSpline
70
0
71
1
72
4
73
2
74
0
42
0.000000001
43
0.0000000001
44
0.0000000001
40
0
40
0
40
0.032959599999999999
40
0.032959599999999999
10
391.15768701896661
20
20.343904061113687
30
0
10
391.11358701896665
20
20.295214061113693
30
0
0
SPLINE
5
175
100
AcDbEntity
8
0
100
AcDbSpline
70
0
71
1
72
4
73
2
74
0
42
0.000000001
43
0.0000000001
44
0.0000000001
40
0
40
0
40
0.0358768
40
0.0358768
10
391.58788701896663
20
20.960404061113692
30
0
10
391.55278701896663
20
20.898304061113691
30
0
0
SPLINE
5
176
100
AcDbEntity
8
0
100
AcDbSpline
70
0
71
1
72
4
73
2
74
0
42
0.000000001
43
0.0000000001
44
0.0000000001
40
0
40
0
40
0.035219599999999997
40
0.035219599999999997
10
391.51678701896662
20
20.837464061113693
30
0
10
391.48078701896657
20
20.777884061113696
30
0
0
SPLINE
5
177
100
AcDbEntity
8
0
100
AcDbSpline
70
0
71
1
72
4
73
2
74
0
42
0.000000001
43
0.0000000001
44
0.0000000001
40
0
40
0
40
0.034874800000000004
40
0.034874800000000004
10
391.48078701896657
20
20.777884061113696
30
0
10
391.44298701896662
20
20.719564061113694
30
0
0
SPLINE
5
178
100
AcDbEntity
8
0
100
AcDbSpline
70
0
71
1
72
4
73
2
74
0
42
0.000000001
43
0.0000000001
44
0.0000000001
40
0
40
0
40
9.0642999999999993e-05
40
9.0642999999999993e-05
10
391.75078701896661
20
21.28854406111369
30
0
10
391.75078701896661
20
21.28854406111369
30
0
0
SPLINE
5
179
100
AcDbEntity
8
0
100
AcDbSpline
70
0
71
1
72
4
73
2
74
0
42
0.000000001
43
0.0000000001
44
0.0000000001
40
0
40
0
40
0.0321433
40
0.0321433
10
627.64798701896621
20
19.909924061113653
30
0
10
627.59578701896623
20
19.872934061113654
30
0
0
SPLINE
5
180
100
AcDbEntity
8
0
100
AcDbSpline
70
0
71
1
72
4
73
2
74
0
42
0.000000001
43
0.0000000001
44
0.0000000001
40
0
40
0
40
0.034558199999999997
40
0.034558199999999997
10
626.58418701896619
20
19.431844061113654
30
0
10
626.5175870189662
20
19.416814061113659
30
0
0
SPLINE
5
181
100
AcDbEntity
8
0
100
AcDbSpline
70
0
71
1
72
4
73
2
74
0
42
0.000000001
43
0.0000000001
44
0.0000000001
40
0
40
0
40
0.034753800000000001
40
0.034753800000000001
10
626.5175870189662
20
19.416814061113659
30
0
10
626.45008701896597
20
19.402864061113654
30
0
0
SPLINE
5
182
100
AcDbEntity
8
0
100
AcDbSpline
70
0
71
1
72
4
73
2
74
0
42
0.000000001
43
0.0000000001
44
0.0000000001
40
0
40
0
40
0.032199700000000005
40
0.032199700000000005
10
627.43468701896597
20
19.76979406111365
30
0
10
627.37888701896611
20
19.737934061113656
30
0
0
SPLINE
5
183
100
AcDbEntity
8
0
100
AcDbSpline
70
0
71
1
72
4
73
2
74
0
42
0.000000001
43
0.0000000001
44
0.0000000001
40
0
40
0
40
0.032672399999999997
40
0.032672399999999997
10
627.14938701896619
20
19.622104061113657
30
0
10
627.08998701896599
20
19.59600406111365
30
0
0
SPLINE
5
184
100
AcDbEntity
8
0
100
AcDbSpline
70
0
71
1
72
4
73
2
74
0
42
0.000000001
43
0.0000000001
44
0.0000000001
40
0
40
0
40
0.032210000000000003
40
0.032210000000000003
10
390.41158701896666
20
19.737934061113695
30
0
10
390.35578701896662
20
19.707154061113688
30
0
0
SPLINE
5
185
100
AcDbEntity
8
0
100
AcDbSpline
70
0
71
1
72
4
73
2
74
0
42
0.000000001
43
0.0000000001
44
0.0000000001
40
0
40
0
40
0.032529700000000002
40
0.032529700000000002
10
627.98998701896596
20
20.201164061113648
30
0
10
627.944087018966
20
20.155984061113649
30
0
0
LWPOLYLINE
5
186
100
AcDbEntity
8
0
100
AcDbPolyline
90
1
70
1
43
0.0
10
390.24058701896661
20
19.649194061113686
0
SPLINE
5
187
100
AcDbEntity
8
0
100
AcDbSpline
70
0
71
1
72
4
73
2
74
0
42
0.000000001
43
0.0000000001
44
0.0000000001
40
0
40
0
40
0.0329425
40
0.0329425
10
390.06238701896655
20
19.571344061113685
30
0
10
390.00118701896662
20
19.547764061113693
30
0
0
SPLINE
5
188
100
AcDbEntity
8
0
100
AcDbSpline
70
0
71
3
72
8
73
4
74
0
42
0.000000001
43
0.0000000001
44
0.0000000001
40
0
40
0
40
0
40
0
40
1
40
1
40
1
40
1
10
695.78158701896598
20
26.73561406111363
30
0
10
697.43308701896603
20
26.73561406111363
30
0
10
697.98928701896614
20
25.910044061113631
30
0
10
697.46728701896586
20
24.267094061113632
30
0
0
SPLINE
5
189
100
AcDbEntity
8
0
100
AcDbSpline
70
0
71
1
72
4
73
2
74
0
42
0.000000001
43
0.0000000001
44
0.0000000001
40
0
40
0
40
0.035909799999999999
40
0.035909799999999999
10
389.27488701896664
20
19.36830406111369
30
0
10
389.20378701896658
20
19.35930406111369
30
0
0
SPLINE
5
190
100
AcDbEntity
8
0
100
AcDbSpline
70
0
71
1
72
4
73
2
74
0
42
0.000000001
43
0.0000000001
44
0.0000000001
40
0
40
0
40
1
40
1
10
580.28098701896624
20
31.673014061113637
30
0
10
575.71618701896614
20
31.673014061113637
30
0
0
LWPOLYLINE
5
191
100
AcDbEntity
8
0
100
AcDbPolyline
90
1
70
1
43
0.0
10
389.27488701896664
20
19.36830406111369
0
SPLINE
5
192
100
AcDbEntity
8
0
100
AcDbSpline
70
0
71
1
72
4
73
2
74
0
42
0.000000001
43
0.0000000001
44
0.0000000001
40
0
40
0
40
0.037201400000000003
40
0.037201400000000003
10
628.68748701896618
20
21.220504061113658
30
0
10
628.65598701896613
20
21.153724061113657
30
0
0
SPLINE
5
193
100
AcDbEntity
8
0
100
AcDbSpline
70
0
71
1
72
4
73
2
74
0
42
0.000000001
43
0.0000000001
44
0.0000000001
40
0
40
0
40
0.037315100000000004
40
0.037315100000000004
10
388.98598701896668
20
19.339324061113693
30
0
10
388.91218701896662
20
19.335094061113693
30
0
0
SPLINE
5
194
100
AcDbEntity
8
0
100
AcDbSpline
70
0
71
1
72
4
73
2
74
0
42
0.000000001
43
0.0000000001
44
0.0000000001
40
0
40
0
40
1.30569
40
1.30569
10
697.46728701896586
20
24.267094061113632
30
0
10
696.67438701896594
20
21.79821406111364
30
0
0
SPLINE
5
195
100
AcDbEntity
8
0
100
AcDbSpline
70
0
71
3
72
8
73
4
74
0
42
0.000000001
43
0.0000000001
44
0.0000000001
40
0
40
0
40
0
40
0
40
1
40
1
40
1
40
1
10
582.65698701896622
20
39.079114061113614
30
0
10
584.29948701896615
20
39.079114061113614
30
0
10
585.40378701896623
20
39.896314061113628
30
0
10
585.95998701896622
20
41.547724061113627
30
0
0
SPLINE
5
196
100
AcDbEntity
8
0
100
AcDbSpline
70
0
71
3
72
8
73
4
74
0
42
0.000000001
43
0.0000000001
44
0.0000000001
40
0
40
0
40
0
40
0
40
1
40
1
40
1
40
1
10
574.87738701896626
20
36.506104061113625
30
0
10
575.30128701896626
20
37.852414061113627
30
0
10
576.1058870189662
20
39.079114061113614
30
0
10
578.13268701896618
20
39.079114061113614
30
0
0
SPLINE
5
197
100
AcDbEntity
8
0
100
AcDbSpline
70
0
71
1
72
4
73
2
74
0
42
0.000000001
43
0.0000000001
44
0.0000000001
40
0
40
0
40
0.035547000000000002
40
0.035547000000000002
10
389.34418701896669
20
19.378564061113686
30
0
10
389.27488701896664
20
19.36830406111369
30
0
0
SPLINE
5
198
100
AcDbEntity
8
0
100
AcDbSpline
70
0
71
1
72
4
73
2
74
0
42
0.000000001
43
0.0000000001
44
0.0000000001
40
0
40
0
40
1
40
1
10
512.64958701896626
20
51.42234406111362
30
0
10
517.1774870189663
20
51.422344061113606
30
0
0
SPLINE
5
199
100
AcDbEntity
8
0
100
AcDbSpline
70
0
71
1
72
4
73
2
74
0
42
0.000000001
43
0.0000000001
44
0.0000000001
40
0
40
0
40
4.9725800000000007
40
4.9725800000000007
10
504.60358701896638
20
26.735614061113662
30
0
10
514.47748701896637
20
26.735614061113662
30
0
0
SPLINE
5
200
100
AcDbEntity
8
0
100
AcDbSpline
70
0
71
3
72
8
73
4
74
0
42
0.000000001
43
0.0000000001
44
0.0000000001
40
0
40
0
40
0
40
0
40
1
40
1
40
1
40
1
10
535.60858701896632
20
61.288581831913582
30
0
10
537.25198701896625
20
61.288581831913582
30
0
10
537.80008701896634
20
60.471383261113587
30
0
10
537.23488701896622
20
58.828345061113588
30
0
0
SPLINE
5
201
100
AcDbEntity
8
0
100
AcDbSpline
70
0
71
1
72
4
73
2
74
0
42
0.000000001
43
0.0000000001
44
0.0000000001
40
0
40
0
40
26.113800000000001
40
26.113800000000001
10
568.77988701896618
20
26.735614061113651
30
0
10
620.63698701896624
20
26.73561406111364
30
0
0
SPLINE
5
202
100
AcDbEntity
8
0
100
AcDbSpline
70
0
71
1
72
4
73
2
74
0
42
0.000000001
43
0.0000000001
44
0.0000000001
40
0
40
0
40
10.454000000000001
40
10.454000000000001
10
620.63698701896624
20
26.73561406111364
30
0
10
627.03418701896589
20
46.485124061113595
30
0
0
SPLINE
5
203
100
AcDbEntity
8
0
100
AcDbSpline
70
0
71
1
72
4
73
2
74
0
42
0.000000001
43
0.0000000001
44
0.0000000001
40
0
40
0
40
4.9725800000000007
40
4.9725800000000007
10
576.82678701896623
20
51.422344061113606
30
0
10
586.70068701896616
20
51.422344061113606
30
0
0
SPLINE
5
204
100
AcDbEntity
8
0
100
AcDbSpline
70
0
71
1
72
4
73
2
74
0
42
0.000000001
43
0.0000000001
44
0.0000000001
40
0
40
0
40
4.9725800000000007
40
4.9725800000000007
10
584.28328701896612
20
44.016334061113611
30
0
10
574.4084870189663
20
44.016334061113611
30
0
0
SPLINE
5
205
100
AcDbEntity
8
0
100
AcDbSpline
70
0
71
2
72
6
73
3
74
0
42
0.000000001
43
0.0000000001
44
0.0000000001
40
0
40
0
40
0
40
1
40
1
40
1
10
319.56988701896671
20
19.329694061113702
30
0
10
317.60428701896677
20
19.329874061113706
30
0
10
316.03288701896679
20
19.5806140611137
30
0
0
SPLINE
5
206
100
AcDbEntity
8
0
100
AcDbSpline
70
0
71
1
72
4
73
2
74
0
42
0.000000001
43
0.0000000001
44
0.0000000001
40
0
40
0
40
0.038789300000000006
40
0.038789300000000006
10
628.80718701896603
20
21.499774061113655
30
0
10
628.7783870189661
20
21.428224061113657
30
0
0
SPLINE
5
207
100
AcDbEntity
8
0
100
AcDbSpline
70
0
71
1
72
4
73
2
74
0
42
0.000000001
43
0.0000000001
44
0.0000000001
40
0
40
0
40
1
40
1
10
574.1285870189663
20
34.211374061113638
30
0
10
574.87738701896626
20
36.506104061113625
30
0
0
SPLINE
5
208
100
AcDbEntity
8
0
100
AcDbSpline
70
0
71
2
72
6
73
3
74
0
42
0.000000001
43
0.0000000001
44
0.0000000001
40
0
40
0
40
0
40
1
40
1
40
1
10
645.94048701896611
20
51.422344061113591
30
0
10
658.28578701896618
20
51.420184061113581
30
0
10
655.0736870189661
20
41.547724061113612
30
0
0
LWPOLYLINE
5
209
100
AcDbEntity
8
0
100
AcDbPolyline
90
1
70
1
43
0.0
10
628.65598701896613
20
21.153724061113657
0
SPLINE
5
210
100
AcDbEntity
8
0
100
AcDbSpline
70
0
71
1
72
4
73
2
74
0
42
0.000000001
43
0.0000000001
44
0.0000000001
40
0
40
0
40
5.2287699999999999
40
5.2287699999999999
10
641.9894870189662
20
31.673014061113626
30
0
10
645.19888701896605
20
41.547724061113612
30
0
0
SPLINE
5
211
100
AcDbEntity
8
0
100
AcDbSpline
70
0
71
3
72
8
73
4
74
0
42
0.000000001
43
0.0000000001
44
0.0000000001
40
0
40
0
40
0
40
0
40
1
40
1
40
1
40
1
10
567.1031870189662
20
29.204224061113653
30
0
10
566.57308701896625
20
27.561274061113657
30
0
10
567.13738701896625
20
26.735614061113651
30
0
10
568.77988701896618
20
26.735614061113651
30
0
0
SPLINE
5
212
100
AcDbEntity
8
0
100
AcDbSpline
70
0
71
2
72
6
73
3
74
0
42
0.000000001
43
0.0000000001
44
0.0000000001
40
0
40
0
40
0
40
1
40
1
40
1
10
492.48418701896634
20
26.735614061113665
30
0
10
492.62818701896629
20
27.881404061113667
30
0
10
493.05208701896629
20
29.204224061113663
30
0
0
SPLINE
5
213
100
AcDbEntity
8
0
100
AcDbSpline
70
0
71
2
72
6
73
3
74
0
42
0.000000001
43
0.0000000001
44
0.0000000001
40
0
40
0
40
0
40
1
40
1
40
1
10
347.1638870189667
20
20.812624061113706
30
0
10
344.25238701896666
20
19.331764061113709
30
0
10
339.31948701896681
20
19.329694061113702
30
0
0
SPLINE
5
214
100
AcDbEntity
8
0
100
AcDbSpline
70
0
71
1
72
4
73
2
74
0
42
0.000000001
43
0.0000000001
44
0.0000000001
40
0
40
0
40
9.0642999999999993e-05
40
9.0642999999999993e-05
10
389.68348701896667
20
19.448044061113691
30
0
10
389.68258701896667
20
19.448044061113691
30
0
0
SPLINE
5
215
100
AcDbEntity
8
0
100
AcDbSpline
70
0
71
1
72
4
73
2
74
0
42
0.000000001
43
0.0000000001
44
0.0000000001
40
0
40
0
40
2.4863400000000002
40
2.4863400000000002
10
388.68448701896659
20
19.329694061113692
30
0
10
383.74708701896668
20
19.329694061113699
30
0
0
LWPOLYLINE
5
216
100
AcDbEntity
8
0
100
AcDbPolyline
90
1
70
1
43
0.0
10
388.98598701896668
20
19.339324061113693
0
SPLINE
5
217
100
AcDbEntity
8
0
100
AcDbSpline
70
0
71
1
72
4
73
2
74
0
42
0.000000001
43
0.0000000001
44
0.0000000001
40
0
40
0
40
0.040103699999999999
40
0.040103699999999999
10
628.88728701896605
20
21.721894061113659
30
0
10
628.86118701896601
20
21.646654061113651
30
0
0
LWPOLYLINE
5
218
100
AcDbEntity
8
0
100
AcDbPolyline
90
1
70
1
43
0.0
10
389.13178701896663
20
19.351474061113692
0
SPLINE
5
219
100
AcDbEntity
8
0
100
AcDbSpline
70
0
71
2
72
6
73
3
74
0
42
0.000000001
43
0.0000000001
44
0.0000000001
40
0
40
0
40
0
40
1
40
1
40
1
10
651.86428701896602
20
31.673014061113619
30
0
10
650.23348701896623
20
26.733544061113633
30
0
10
655.17538701896592
20
26.735614061113637
30
0
0
SPLINE
5
220
100
AcDbEntity
8
0
100
AcDbSpline
70
0
71
2
72
6
73
3
74
0
42
0.000000001
43
0.0000000001
44
0.0000000001
40
0
40
0
40
0
40
1
40
1
40
1
10
556.66138701896625
20
26.735614061113647
30
0
10
556.80538701896626
20
27.881314061113645
30
0
10
557.22838701896626
20
29.204224061113649
30
0
0
SPLINE
5
221
100
AcDbEntity
8
0
100
AcDbSpline
70
0
71
1
72
4
73
2
74
0
42
0.000000001
43
0.0000000001
44
0.0000000001
40
0
40
0
40
2.4862500000000001
40
2.4862500000000001
10
530.67208701896629
20
61.288581831913582
30
0
10
535.60858701896632
20
61.288581831913582
30
0
0
SPLINE
5
222
100
AcDbEntity
8
0
100
AcDbSpline
70
0
71
1
72
4
73
2
74
0
42
0.000000001
43
0.0000000001
44
0.0000000001
40
0
40
0
40
5.2287600000000003
40
5.2287600000000003
10
531.6575870189663
20
41.547724061113627
30
0
10
528.44728701896634
20
31.673014061113648
30
0
0
SPLINE
5
223
100
AcDbEntity
8
0
100
AcDbSpline
70
0
71
3
72
8
73
4
74
0
42
0.000000001
43
0.0000000001
44
0.0000000001
40
0
40
0
40
0
40
0
40
1
40
1
40
1
40
1
10
627.03418701896589
20
46.485124061113595
30
0
10
628.12048701896617
20
49.770934061113593
30
0
10
631.12828701896592
20
51.422344061113591
30
0
10
636.06658701896595
20
51.422344061113591
30
0
0
SPLINE
5
224
100
AcDbEntity
8
0
100
AcDbSpline
70
0
71
1
72
4
73
2
74
0
42
0.000000001
43
0.0000000001
44
0.0000000001
40
0
40
0
40
0.034469800000000002
40
0.034469800000000002
10
389.61688701896662
20
19.43184406111369
30
0
10
389.55028701896657
20
19.416814061113694
30
0
0
SPLINE
5
225
100
AcDbEntity
8
0
100
AcDbSpline
70
0
71
1
72
4
73
2
74
0
42
0.000000001
43
0.0000000001
44
0.0000000001
40
0
40
0
40
0.034753800000000001
40
0.034753800000000001
10
389.55028701896657
20
19.416814061113694
30
0
10
389.48278701896663
20
19.402864061113693
30
0
0
SPLINE
5
226
100
AcDbEntity
8
0
100
AcDbSpline
70
0
71
1
72
4
73
2
74
0
42
0.000000001
43
0.0000000001
44
0.0000000001
40
0
40
0
40
0.10538299999999999
40
0.10538299999999999
10
567.17068701896619
20
29.40249406111365
30
0
10
567.1031870189662
20
29.204224061113653
30
0
0
SPLINE
5
227
100
AcDbEntity
8
0
100
AcDbSpline
70
0
71
1
72
4
73
2
74
0
42
0.000000001
43
0.0000000001
44
0.0000000001
40
0
40
0
40
11.761799999999999
40
11.761799999999999
10
636.11698701896603
20
44.016334061113596
30
0
10
628.91248701896609
20
21.798304061113647
30
0
0
SPLINE
5
228
100
AcDbEntity
8
0
100
AcDbSpline
70
0
71
1
72
4
73
2
74
0
42
0.000000001
43
0.0000000001
44
0.0000000001
40
0
40
0
40
1.24312
40
1.24312
10
339.31948701896681
20
19.329694061113702
30
0
10
336.85078701896668
20
19.329694061113702
30
0
0
LWPOLYLINE
5
229
100
AcDbEntity
8
0
100
AcDbPolyline
90
1
70
1
43
0.0
10
388.91218701896662
20
19.335094061113693
0
SPLINE
5
230
100
AcDbEntity
8
0
100
AcDbSpline
70
0
71
2
72
6
73
3
74
0
42
0.000000001
43
0.0000000001
44
0.0000000001
40
0
40
0
40
0
40
1
40
1
40
1
10
586.70068701896616
20
51.422344061113606
30
0
10
599.04688701896612
20
51.420094061113595
30
0
10
595.83388701896615
20
41.547724061113612
30
0
0
SPLINE
5
231
100
AcDbEntity
8
0
100
AcDbSpline
70
0
71
1
72
4
73
2
74
0
42
0.000000001
43
0.0000000001
44
0.0000000001
40
0
40
0
40
5.8848099999999999
40
5.8848099999999999
10
570.78058701896623
20
40.509754061113625
30
0
10
567.15358701896628
20
29.400784061113651
30
0
0
SPLINE
5
232
100
AcDbEntity
8
0
100
AcDbSpline
70
0
71
1
72
4
73
2
74
0
42
0.000000001
43
0.0000000001
44
0.0000000001
40
0
40
0
40
5.22879
40
5.22879
10
655.0736870189661
20
41.547724061113612
30
0
10
651.86428701896602
20
31.673014061113619
30
0
0
SPLINE
5
233
100
AcDbEntity
8
0
100
AcDbSpline
70
0
71
1
72
4
73
2
74
0
42
0.000000001
43
0.0000000001
44
0.0000000001
40
0
40
0
40
0.038615199999999995
40
0.038615199999999995
10
388.7609870189666
20
19.330324061113693
30
0
10
388.68448701896659
20
19.329694061113692
30
0
0
SPLINE
5
234
100
AcDbEntity
8
0
100
AcDbSpline
70
0
71
3
72
8
73
4
74
0
42
0.000000001
43
0.0000000001
44
0.0000000001
40
0
40
0
40
0
40
0
40
1
40
1
40
1
40
1
10
497.09578701896635
20
41.547724061113627
30
0
10
499.23598701896628
20
48.127894061113622
30
0
10
504.42628701896632
20
51.422344061113606
30
0
10
512.64958701896626
20
51.42234406111362
30
0
0
SPLINE
5
235
100
AcDbEntity
8
0
100
AcDbSpline
70
0
71
1
72
4
73
2
74
0
42
0.000000001
43
0.0000000001
44
0.0000000001
40
0
40
0
40
0.00013596499999999999
40
0.00013596499999999999
10
389.34508701896664
20
19.378564061113686
30
0
10
389.34418701896669
20
19.378564061113686
30
0
0
SPLINE
5
236
100
AcDbEntity
8
0
100
AcDbSpline
70
0
71
3
72
8
73
4
74
0
42
0.000000001
43
0.0000000001
44
0.0000000001
40
0
40
0
40
0
40
0
40
1
40
1
40
1
40
1
10
585.95998701896622
20
41.547724061113627
30
0
10
586.49008701896628
20
43.190674061113619
30
0
10
585.92578701896616
20
44.016334061113611
30
0
10
584.28328701896612
20
44.016334061113611
30
0
0
SPLINE
5
237
100
AcDbEntity
8
0
100
AcDbSpline
70
0
71
1
72
4
73
2
74
0
42
0.000000001
43
0.0000000001
44
0.0000000001
40
0
40
0
40
0.0380338
40
0.0380338
10
628.74868701896605
20
21.357754061113656
30
0
10
628.71898701896612
20
21.288544061113654
30
0
0
SPLINE
5
238
100
AcDbEntity
8
0
100
AcDbSpline
70
0
71
1
72
4
73
2
74
0
42
0.000000001
43
0.0000000001
44
0.0000000001
40
0
40
0
40
0.040530800000000006
40
0.040530800000000006
10
628.91248701896609
20
21.798304061113647
30
0
10
628.88728701896605
20
21.721894061113659
30
0
0
LWPOLYLINE
5
239
100
AcDbEntity
8
0
100
AcDbPolyline
90
1
70
1
43
0.0
10
389.20378701896658
20
19.35930406111369
0
SPLINE
5
240
100
AcDbEntity
8
0
100
AcDbSpline
70
0
71
1
72
4
73
2
74
0
42
0.000000001
43
0.0000000001
44
0.0000000001
40
0
40
0
40
0.033950099999999997
40
0.033950099999999997
10
389.74828701896661
20
19.465684061113691
30
0
10
389.68348701896667
20
19.448044061113691
30
0
0
SPLINE
5
241
100
AcDbEntity
8
0
100
AcDbSpline
70
0
71
1
72
4
73
2
74
0
42
0.000000001
43
0.0000000001
44
0.0000000001
40
0
40
0
40
20.448499999999999
40
20.448499999999999
10
693.41458701896613
20
19.329604061113635
30
0
10
652.80748701896619
20
19.329604061113642
30
0
0
LWPOLYLINE
5
242
100
AcDbEntity
8
0
100
AcDbPolyline
90
1
70
1
43
0.0
10
524.99308701896621
20
51.422344061113606
0
SPLINE
5
243
100
AcDbEntity
8
0
100
AcDbSpline
70
0
71
2
72
6
73
3
74
0
42
0.000000001
43
0.0000000001
44
0.0000000001
40
0
40
0
40
0
40
1
40
1
40
1
10
574.4084870189663
20
44.016334061113611
30
0
10
571.94428701896618
20
44.014174061113621
30
0
10
571.14778701896614
20
41.547724061113627
30
0
0
SPLINE
5
244
100
AcDbEntity
8
0
100
AcDbSpline
70
0
71
1
72
4
73
2
74
0
42
0.000000001
43
0.0000000001
44
0.0000000001
40
0
40
0
40
0.033050599999999999
40
0.033050599999999999
10
628.12498701896618
20
20.343904061113651
30
0
10
628.08088701896622
20
20.295214061113658
30
0
0
SPLINE
5
245
100
AcDbEntity
8
0
100
AcDbSpline
70
0
71
1
72
4
73
2
74
0
42
0.000000001
43
0.0000000001
44
0.0000000001
40
0
40
0
40
0.036196199999999998
40
0.036196199999999998
10
628.58938701896614
20
21.023674061113656
30
0
10
628.55608701896608
20
20.960404061113653
30
0
0
SPLINE
5
246
100
AcDbEntity
8
0
100
AcDbSpline
70
0
71
1
72
4
73
2
74
0
42
0.000000001
43
0.0000000001
44
0.0000000001
40
0
40
0
40
0.038456999999999998
40
0.038456999999999998
10
628.7783870189661
20
21.428224061113657
30
0
10
628.74868701896605
20
21.357754061113656
30
0
0
LWPOLYLINE
5
247
100
AcDbEntity
8
0
100
AcDbPolyline
90
1
70
1
43
0.0
10
627.944087018966
20
20.155984061113649
0
SPLINE
5
248
100
AcDbEntity
8
0
100
AcDbSpline
70
0
71
1
72
4
73
2
74
0
42
0.000000001
43
0.0000000001
44
0.0000000001
40
0
40
0
40
0.033649300000000007
40
0.033649300000000007
10
628.25188701896604
20
20.497624061113655
30
0
10
628.21048701896621
20
20.445244061113648
30
0
0
SPLINE
5
249
100
AcDbEntity
8
0
100
AcDbSpline
70
0
71
1
72
4
73
2
74
0
42
0.000000001
43
0.0000000001
44
0.0000000001
40
0
40
0
40
3.7295099999999999
40
3.7295099999999999
10
643.52308701896618
20
44.016334061113596
30
0
10
636.11698701896603
20
44.016334061113596
30
0
0
SPLINE
5
250
100
AcDbEntity
8
0
100
AcDbSpline
70
0
71
1
72
4
73
2
74
0
42
0.000000001
43
0.0000000001
44
0.0000000001
40
0
40
0
40
0.0323694
40
0.0323694
10
390.29818701896659
20
19.677544061113686
30
0
10
390.24058701896661
20
19.649194061113686
30
0
0
SPLINE
5
251
100
AcDbEntity
8
0
100
AcDbSpline
70
0
71
1
72
4
73
2
74
0
42
0.000000001
43
0.0000000001
44
0.0000000001
40
0
40
0
40
0.032305900000000005
40
0.032305900000000005
10
627.800087018966
20
20.027554061113655
30
0
10
627.74968701896614
20
19.986964061113657
30
0
0
SPLINE
5
252
100
AcDbEntity
8
0
100
AcDbSpline
70
0
71
1
72
4
73
2
74
0
42
0.000000001
43
0.0000000001
44
0.0000000001
40
0
40
0
40
0.035195799999999999
40
0.035195799999999999
10
628.48498701896597
20
20.837464061113657
30
0
10
628.44808701896613
20
20.77788406111366
30
0
0
SPLINE
5
253
100
AcDbEntity
8
0
100
AcDbSpline
70
0
71
1
72
4
73
2
74
0
42
0.000000001
43
0.0000000001
44
0.0000000001
40
0
40
0
40
0.033541599999999998
40
0.033541599999999998
10
389.8760870189667
20
19.504384061113686
30
0
10
389.8121870189666
20
19.484404061113693
30
0
0
SPLINE
5
254
100
AcDbEntity
8
0
100
AcDbSpline
70
0
71
1
72
4
73
2
74
0
42
0.000000001
43
0.0000000001
44
0.0000000001
40
0
40
0
40
0.0321211
40
0.0321211
10
390.46738701896658
20
19.769794061113686
30
0
10
390.41158701896666
20
19.737934061113695
30
0
0
SPLINE
5
255
100
AcDbEntity
8
0
100
AcDbSpline
70
0
71
1
72
4
73
2
74
0
42
0.000000001
43
0.0000000001
44
0.0000000001
40
0
40
0
40
0.0347055
40
0.0347055
10
628.41028701896607
20
20.719564061113658
30
0
10
628.37248701896613
20
20.662234061113654
30
0
0
SPLINE
5
256
100
AcDbEntity
8
0
100
AcDbSpline
70
0
71
1
72
4
73
2
74
0
42
0.000000001
43
0.0000000001
44
0.0000000001
40
0
40
0
40
0.032672399999999997
40
0.032672399999999997
10
390.18208701896663
20
19.622104061113692
30
0
10
390.12268701896664
20
19.596004061113685
30
0
0
SPLINE
5
257
100
AcDbEntity
8
0
100
AcDbSpline
70
0
71
1
72
4
73
2
74
0
42
0.000000001
43
0.0000000001
44
0.0000000001
40
0
40
0
40
0.032764599999999998
40
0.032764599999999998
10
390.12178701896664
20
19.596004061113685
30
0
10
390.06238701896655
20
19.571344061113685
30
0
0
LWPOLYLINE
5
258
100
AcDbEntity
8
0
100
AcDbPolyline
90
1
70
1
43
0.0
10
390.00118701896662
20
19.547764061113693
0
SPLINE
5
259
100
AcDbEntity
8
0
100
AcDbSpline
70
0
71
1
72
4
73
2
74
0
42
0.000000001
43
0.0000000001
44
0.0000000001
40
0
40
0
40
0.032152199999999999
40
0.032152199999999999
10
627.69928701896606
20
19.947814061113647
30
0
10
627.64798701896621
20
19.909924061113653
30
0
0
SPLINE
5
260
100
AcDbEntity
8
0
100
AcDbSpline
70
0
71
1
72
4
73
2
74
0
42
0.000000001
43
0.0000000001
44
0.0000000001
40
0
40
0
40
0.034874800000000004
40
0.034874800000000004
10
628.44808701896613
20
20.77788406111366
30
0
10
628.41028701896607
20
20.719564061113658
30
0
0
LWPOLYLINE
5
261
100
AcDbEntity
8
0
100
AcDbPolyline
90
1
70
1
43
0.0
10
389.8760870189667
20
19.504384061113686
0
SPLINE
5
262
100
AcDbEntity
8
0
100
AcDbSpline
70
0
71
1
72
4
73
2
74
0
42
0.000000001
43
0.0000000001
44
0.0000000001
40
0
40
0
40
0.0322092
40
0.0322092
10
627.74968701896614
20
19.986964061113657
30
0
10
627.69928701896606
20
19.947814061113647
30
0
0
LWPOLYLINE
5
263
100
AcDbEntity
8
0
100
AcDbPolyline
90
1
70
1
43
0.0
10
389.61688701896662
20
19.43184406111369
0
SPLINE
5
264
100
AcDbEntity
8
0
100
AcDbSpline
70
0
71
1
72
4
73
2
74
0
42
0.000000001
43
0.0000000001
44
0.0000000001
40
0
40
0
40
9.0642999999999993e-05
40
9.0642999999999993e-05
10
628.37248701896613
20
20.662234061113654
30
0
10
628.37158701896612
20
20.662234061113654
30
0
0
SPLINE
5
265
100
AcDbEntity
8
0
100
AcDbSpline
70
0
71
1
72
4
73
2
74
0
42
0.000000001
43
0.0000000001
44
0.0000000001
40
0
40
0
40
0.0369091
40
0.0369091
10
628.65598701896613
20
21.153724061113657
30
0
10
628.62358701896608
20
21.08802406111365
30
0
0
SPLINE
5
266
100
AcDbEntity
8
0
100
AcDbSpline
70
0
71
1
72
4
73
2
74
0
42
0.000000001
43
0.0000000001
44
0.0000000001
40
0
40
0
40
0.032316999999999999
40
0.032316999999999999
10
627.84868701896607
20
20.069044061113654
30
0
10
627.800087018966
20
20.027554061113655
30
0
0
SPLINE
5
267
100
AcDbEntity
8
0
100
AcDbSpline
70
0
71
1
72
4
73
2
74
0
42
0.000000001
43
0.0000000001
44
0.0000000001
40
0
40
0
40
0.033329199999999996
40
0.033329199999999996
10
628.16818701896602
20
20.394124061113654
30
0
10
628.12498701896618
20
20.343904061113651
30
0
0
SPLINE
5
268
100
AcDbEntity
8
0
100
AcDbSpline
70
0
71
1
72
4
73
2
74
0
42
0.000000001
43
0.0000000001
44
0.0000000001
40
0
40
0
40
0.034167400000000001
40
0.034167400000000001
10
628.33288701896618
20
20.606164061113649
30
0
10
628.29328701896611
20
20.551264061113649
30
0
0
SPLINE
5
269
100
AcDbEntity
8
0
100
AcDbSpline
70
0
71
1
72
4
73
2
74
0
42
0.000000001
43
0.0000000001
44
0.0000000001
40
0
40
0
40
0.032516299999999998
40
0.032516299999999998
10
627.944087018966
20
20.155984061113649
30
0
10
627.89638701896615
20
20.111974061113649
30
0
0
SPLINE
5
270
100
AcDbEntity
8
0
100
AcDbSpline
70
0
71
1
72
4
73
2
74
0
42
0.000000001
43
0.0000000001
44
0.0000000001
40
0
40
0
40
0.032491399999999997
40
0.032491399999999997
10
627.26548701896627
20
19.67754406111365
30
0
10
627.20788701896606
20
19.649194061113651
30
0
0
SPLINE
5
271
100
AcDbEntity
8
0
100
AcDbSpline
70
0
71
1
72
4
73
2
74
0
42
0.000000001
43
0.0000000001
44
0.0000000001
40
0
40
0
40
0.00013596499999999999
40
0.00013596499999999999
10
390.41158701896666
20
19.737934061113695
30
0
10
390.41158701896666
20
19.737934061113695
30
0
0
SPLINE
5
272
100
AcDbEntity
8
0
100
AcDbSpline
70
0
71
1
72
4
73
2
74
0
42
0.000000001
43
0.0000000001
44
0.0000000001
40
0
40
0
40
0.038171499999999997
40
0.038171499999999997
10
388.83748701896661
20
19.332124061113689
30
0
10
388.7609870189666
20
19.330324061113693
30
0
0
SPLINE
5
273
100
AcDbEntity
8
0
100
AcDbSpline
70
0
71
1
72
4
73
2
74
0
42
0.000000001
43
0.0000000001
44
0.0000000001
40
0
40
0
40
3.9232499999999999
40
3.9232499999999999
10
431.19148701896665
20
51.422344061113627
30
0
10
428.77318701896655
20
44.016334061113639
30
0
0
SPLINE
5
274
100
AcDbEntity
8
0
100
AcDbSpline
70
0
71
1
72
4
73
2
74
0
42
0.000000001
43
0.0000000001
44
0.0000000001
40
0
40
0
40
1
40
1
10
518.75068701896635
20
48.85608406111362
30
0
10
518.00278701896627
20
46.565854061113619
30
0
0
SPLINE
5
275
100
AcDbEntity
8
0
100
AcDbSpline
70
0
71
1
72
4
73
2
74
0
42
0.000000001
43
0.0000000001
44
0.0000000001
40
0
40
0
40
0.036633499999999999
40
0.036633499999999999
10
389.13178701896663
20
19.351474061113692
30
0
10
389.05978701896657
20
19.344904061113688
30
0
0
SPLINE
5
276
100
AcDbEntity
8
0
100
AcDbSpline
70
0
71
1
72
4
73
2
74
0
42
0.000000001
43
0.0000000001
44
0.0000000001
40
0
40
0
40
0.55080899999999999
40
0.55080899999999999
10
571.14778701896614
20
41.547724061113627
30
0
10
570.79768701896614
20
40.511464061113628
30
0
0
SPLINE
5
277
100
AcDbEntity
8
0
100
AcDbSpline
70
0
71
2
72
6
73
3
74
0
42
0.000000001
43
0.0000000001
44
0.0000000001
40
0
40
0
40
0
40
1
40
1
40
1
10
510.23128701896633
20
44.016334061113618
30
0
10
507.76708701896638
20
44.014264061113622
30
0
10
506.9705870189664
20
41.547724061113627
30
0
0
SPLINE
5
278
100
AcDbEntity
8
0
100
AcDbSpline
70
0
71
1
72
4
73
2
74
0
42
0.000000001
43
0.0000000001
44
0.0000000001
40
0
40
0
40
0.014748799999999999
40
0.014748799999999999
10
524.99308701896621
20
51.422344061113606
30
0
10
525.00208701896634
20
51.450244061113608
30
0
0
SPLINE
5
279
100
AcDbEntity
8
0
100
AcDbSpline
70
0
71
2
72
6
73
3
74
0
42
0.000000001
43
0.0000000001
44
0.0000000001
40
0
40
0
40
0
40
1
40
1
40
1
10
527.60308701896633
20
59.417755061113581
30
0
10
528.52198701896623
20
61.289999204113592
30
0
10
530.67208701896629
20
61.288581831913582
30
0
0
SPLINE
5
280
100
AcDbEntity
8
0
100
AcDbSpline
70
0
71
2
72
6
73
3
74
0
42
0.000000001
43
0.0000000001
44
0.0000000001
40
0
40
0
40
0
40
1
40
1
40
1
10
514.47748701896637
20
26.735614061113662
30
0
10
516.94258701896638
20
26.737774061113662
30
0
10
517.7381870189663
20
29.204224061113656
30
0
0
SPLINE
5
281
100
AcDbEntity
8
0
100
AcDbSpline
70
0
71
2
72
6
73
3
74
0
42
0.000000001
43
0.0000000001
44
0.0000000001
40
0
40
0
40
0
40
1
40
1
40
1
10
356.5913870189666
20
19.329694061113699
30
0
10
349.18618701896668
20
19.331764061113699
30
0
10
347.1638870189667
20
20.812624061113706
30
0
0
SPLINE
5
282
100
AcDbEntity
8
0
100
AcDbSpline
70
0
71
2
72
6
73
3
74
0
42
0.000000001
43
0.0000000001
44
0.0000000001
40
0
40
0
40
0
40
1
40
1
40
1
10
502.92598701896634
20
29.204224061113656
30
0
10
502.13488701896631
20
26.737684061113658
30
0
10
504.60358701896638
20
26.735614061113662
30
0
0
SPLINE
5
283
100
AcDbEntity
8
0
100
AcDbSpline
70
0
71
1
72
4
73
2
74
0
42
0.000000001
43
0.0000000001
44
0.0000000001
40
0
40
0
40
3.9232099999999996
40
3.9232099999999996
10
418.89838701896656
20
44.016334061113639
30
0
10
421.31668701896649
20
51.422344061113627
30
0
0
SPLINE
5
284
100
AcDbEntity
8
0
100
AcDbSpline
70
0
71
2
72
6
73
3
74
0
42
0.000000001
43
0.0000000001
44
0.0000000001
40
0
40
0
40
0
40
1
40
1
40
1
10
336.85078701896668
20
19.329694061113702
30
0
10
331.91158701896677
20
19.331764061113709
30
0
10
329.84068701896666
20
20.610484061113709
30
0
0
SPLINE
5
285
100
AcDbEntity
8
0
100
AcDbSpline
70
0
71
1
72
4
73
2
74
0
42
0.000000001
43
0.0000000001
44
0.0000000001
40
0
40
0
40
8.7020900000000001
40
8.7020900000000001
10
398.3576870189666
20
41.547724061113641
30
0
10
415.63768701896663
20
41.547724061113641
30
0
0
SPLINE
5
286
100
AcDbEntity
8
0
100
AcDbSpline
70
0
71
1
72
4
73
2
74
0
42
0.000000001
43
0.0000000001
44
0.0000000001
40
0
40
0
40
10.457599999999999
40
10.457599999999999
10
310.38628701896675
20
29.204224061113692
30
0
10
316.80688701896679
20
48.953734061113643
30
0
0
SPLINE
5
287
100
AcDbEntity
8
0
100
AcDbSpline
70
0
71
1
72
4
73
2
74
0
42
0.000000001
43
0.0000000001
44
0.0000000001
40
0
40
0
40
16.552800000000001
40
16.552800000000001
10
420.67678701896654
20
26.735614061113679
30
0
10
453.54748701896648
20
26.735614061113672
30
0
0
SPLINE
5
288
100
AcDbEntity
8
0
100
AcDbSpline
70
0
71
1
72
4
73
2
74
0
42
0.000000001
43
0.0000000001
44
0.0000000001
40
0
40
0
40
14.3729
40
14.3729
10
187.81180221896705
20
31.673104061113708
30
0
10
196.599647018967
20
58.828453061113642
30
0
0
SPLINE
5
289
100
AcDbEntity
8
0
100
AcDbSpline
70
0
71
3
72
8
73
4
74
0
42
0.000000001
43
0.0000000001
44
0.0000000001
40
0
40
0
40
0
40
0
40
1
40
1
40
1
40
1
10
575.71618701896614
20
31.673014061113637
30
0
10
574.61908701896618
20
31.673014061113637
30
0
10
573.4355870189662
20
32.092414061113644
30
0
10
574.1285870189663
20
34.211374061113638
30
0
0
SPLINE
5
290
100
AcDbEntity
8
0
100
AcDbSpline
70
0
71
1
72
4
73
2
74
0
42
0.000000001
43
0.0000000001
44
0.0000000001
40
0
40
0
40
12.4316
40
12.4316
10
397.3712870189666
20
61.288606257013605
30
0
10
422.05828701896655
20
61.288606257013605
30
0
0
SPLINE
5
291
100
AcDbEntity
8
0
100
AcDbSpline
70
0
71
1
72
4
73
2
74
0
42
0.000000001
43
0.0000000001
44
0.0000000001
40
0
40
0
40
2.4749300000000001
40
2.4749300000000001
10
399.87328701896666
20
46.22286406111364
30
0
10
398.3576870189666
20
41.547724061113641
30
0
0
SPLINE
5
292
100
AcDbEntity
8
0
100
AcDbSpline
70
0
71
1
72
4
73
2
74
0
42
0.000000001
43
0.0000000001
44
0.0000000001
40
0
40
0
40
6.5409699999999997
40
6.5409699999999997
10
493.05208701896629
20
29.204224061113663
30
0
10
497.09578701896635
20
41.547724061113627
30
0
0
SPLINE
5
293
100
AcDbEntity
8
0
100
AcDbSpline
70
0
71
3
72
8
73
4
74
0
42
0.000000001
43
0.0000000001
44
0.0000000001
40
0
40
0
40
0
40
0
40
1
40
1
40
1
40
1
10
464.26198701896652
20
31.673014061113662
30
0
10
463.18378701896648
20
28.378654061113664
30
0
10
464.27818701896638
20
26.735614061113676
30
0
10
467.57308701896642
20
26.735614061113672
30
0
0
SPLINE
5
294
100
AcDbEntity
8
0
100
AcDbSpline
70
0
71
1
72
4
73
2
74
0
42
0.000000001
43
0.0000000001
44
0.0000000001
40
0
40
0
40
0.037737099999999996
40
0.037737099999999996
10
388.91218701896662
20
19.335094061113693
30
0
10
388.83748701896661
20
19.332124061113689
30
0
0
SPLINE
5
295
100
AcDbEntity
8
0
100
AcDbSpline
70
0
71
2
72
6
73
3
74
0
42
0.000000001
43
0.0000000001
44
0.0000000001
40
0
40
0
40
0
40
1
40
1
40
1
10
251.8553270189669
20
19.580614061113714
30
0
10
251.23990701896687
20
19.329874061113721
30
0
10
250.45564701896691
20
19.32969406111372
30
0
0
SPLINE
5
296
100
AcDbEntity
8
0
100
AcDbSpline
70
0
71
1
72
4
73
2
74
0
42
0.000000001
43
0.0000000001
44
0.0000000001
40
0
40
0
40
2.4863400000000002
40
2.4863400000000002
10
354.67078701896668
20
51.422344061113641
30
0
10
359.60818701896665
20
51.422344061113641
30
0
0
SPLINE
5
297
100
AcDbEntity
8
0
100
AcDbSpline
70
0
71
3
72
8
73
4
74
0
42
0.000000001
43
0.0000000001
44
0.0000000001
40
0
40
0
40
0
40
0
40
1
40
1
40
1
40
1
10
561.27298701896621
20
41.547724061113627
30
0
10
563.41318701896614
20
48.127894061113608
30
0
10
568.60348701896623
20
51.422344061113606
30
0
10
576.82678701896623
20
51.422344061113606
30
0
0
SPLINE
5
298
100
AcDbEntity
8
0
100
AcDbSpline
70
0
71
3
72
8
73
4
74
0
42
0.000000001
43
0.0000000001
44
0.0000000001
40
0
40
0
40
0
40
0
40
1
40
1
40
1
40
1
10
395.32918701896665
20
53.890963061113624
30
0
10
393.37798701896668
20
53.890963061113624
30
0
10
392.87848701896667
20
55.15411306111362
30
0
10
393.16378701896662
20
56.035582061113629
30
0
0
SPLINE
5
299
100
AcDbEntity
8
0
100
AcDbSpline
70
0
71
3
72
8
73
4
74
0
42
0.000000001
43
0.0000000001
44
0.0000000001
40
0
40
0
40
0
40
0
40
1
40
1
40
1
40
1
10
273.45721701896684
20
21.208624061113717
30
0
10
270.89590701896685
20
19.953124061113712
30
0
10
268.15756701896686
20
19.32969406111372
30
0
10
265.26775701896685
20
19.32969406111372
30
0
0
SPLINE
5
300
100
AcDbEntity
8
0
100
AcDbSpline
70
0
71
1
72
4
73
2
74
0
42
0.000000001
43
0.0000000001
44
0.0000000001
40
0
40
0
40
0.036953399999999997
40
0.036953399999999997
10
389.05978701896657
20
19.344904061113688
30
0
10
388.98598701896668
20
19.339324061113693
30
0
0
SPLINE
5
301
100
AcDbEntity
8
0
100
AcDbSpline
70
0
71
1
72
4
73
2
74
0
42
0.000000001
43
0.0000000001
44
0.0000000001
40
0
40
0
40
13.674799999999999
40
13.674799999999999
10
383.74708701896668
20
19.329694061113699
30
0
10
356.5913870189666
20
19.329694061113699
30
0
0
SPLINE
5
302
100
AcDbEntity
8
0
100
AcDbSpline
70
0
71
1
72
4
73
2
74
0
42
0.000000001
43
0.0000000001
44
0.0000000001
40
0
40
0
40
3.9232300000000002
40
3.9232300000000002
10
522.57478701896639
20
44.016334061113625
30
0
10
524.99308701896621
20
51.422344061113606
30
0
0
SPLINE
5
303
100
AcDbEntity
8
0
100
AcDbSpline
70
0
71
2
72
6
73
3
74
0
42
0.000000001
43
0.0000000001
44
0.0000000001
40
0
40
0
40
0
40
1
40
1
40
1
10
468.21388701896637
20
51.42234406111362
30
0
10
470.68618701896639
20
51.420364061113617
30
0
10
469.8482870189664
20
48.953734061113622
30
0
0
SPLINE
5
304
100
AcDbEntity
8
0
100
AcDbSpline
70
0
71
1
72
4
73
2
74
0
42
0.000000001
43
0.0000000001
44
0.0000000001
40
0
40
0
40
12.5403
40
12.5403
10
531.75838701896623
20
26.735614061113658
30
0
10
556.66138701896625
20
26.735614061113647
30
0
0
SPLINE
5
305
100
AcDbEntity
8
0
100
AcDbSpline
70
0
71
2
72
6
73
3
74
0
42
0.000000001
43
0.0000000001
44
0.0000000001
40
0
40
0
40
0
40
1
40
1
40
1
10
528.44728701896634
20
31.673014061113648
30
0
10
526.81738701896631
20
26.733544061113662
30
0
10
531.75838701896623
20
26.735614061113658
30
0
0
SPLINE
5
306
100
AcDbEntity
8
0
100
AcDbSpline
70
0
71
1
72
4
73
2
74
0
42
0.000000001
43
0.0000000001
44
0.0000000001
40
0
40
0
40
2.2784499999999999
40
2.2784499999999999
10
578.13268701896618
20
39.079114061113614
30
0
10
582.65698701896622
20
39.079114061113614
30
0
0
SPLINE
5
307
100
AcDbEntity
8
0
100
AcDbSpline
70
0
71
3
72
8
73
4
74
0
42
0.000000001
43
0.0000000001
44
0.0000000001
40
0
40
0
40
0
40
0
40
1
40
1
40
1
40
1
10
282.54838701896682
20
19.329694061113713
30
0
10
278.79088701896683
20
19.329694061113713
30
0
10
275.76580701896683
20
19.953124061113712
30
0
10
273.45721701896684
20
21.208624061113717
30
0
0
SPLINE
5
308
100
AcDbEntity
8
0
100
AcDbSpline
70
0
71
1
72
4
73
2
74
0
42
0.000000001
43
0.0000000001
44
0.0000000001
40
0
40
0
40
9.1441600000000012
40
9.1441600000000012
10
361.23448701896666
20
48.953734061113643
30
0
10
355.65718701896662
20
31.673104061113676
30
0
0
SPLINE
5
309
100
AcDbEntity
8
0
100
AcDbSpline
70
0
71
3
72
8
73
4
74
0
42
0.000000001
43
0.0000000001
44
0.0000000001
40
0
40
0
40
0
40
0
40
1
40
1
40
1
40
1
10
422.05828701896655
20
61.288606257013605
30
0
10
430.28158701896655
20
61.288606257013605
30
0
10
433.33168701896653
20
58.002802061113613
30
0
10
431.19148701896665
20
51.422344061113627
30
0
0
SPLINE
5
310
100
AcDbEntity
8
0
100
AcDbSpline
70
0
71
2
72
6
73
3
74
0
42
0.000000001
43
0.0000000001
44
0.0000000001
40
0
40
0
40
0
40
1
40
1
40
1
10
394.06918701896666
20
58.828363061113613
30
0
10
394.90528701896659
20
61.290764339113608
30
0
10
397.3712870189666
20
61.288606257013605
30
0
0
SPLINE
5
311
100
AcDbEntity
8
0
100
AcDbSpline
70
0
71
2
72
6
73
3
74
0
42
0.000000001
43
0.0000000001
44
0.0000000001
40
0
40
0
40
0
40
1
40
1
40
1
10
316.03288701896679
20
19.5806140611137
30
0
10
315.41728701896682
20
19.329874061113706
30
0
10
314.6324870189668
20
19.329694061113702
30
0
0
SPLINE
5
312
100
AcDbEntity
8
0
100
AcDbSpline
70
0
71
2
72
6
73
3
74
0
42
0.000000001
43
0.0000000001
44
0.0000000001
40
0
40
0
40
0
40
1
40
1
40
1
10
329.84068701896666
20
20.610484061113709
30
0
10
326.97418701896675
20
19.331764061113709
30
0
10
319.56988701896671
20
19.329694061113702
30
0
0
SPLINE
5
313
100
AcDbEntity
8
0
100
AcDbSpline
70
0
71
2
72
6
73
3
74
0
42
0.000000001
43
0.0000000001
44
0.0000000001
40
0
40
0
40
0
40
1
40
1
40
1
10
359.60818701896665
20
51.422344061113641
30
0
10
362.07688701896666
20
51.420364061113645
30
0
10
361.23448701896666
20
48.953734061113643
30
0
0
SPLINE
5
314
100
AcDbEntity
8
0
100
AcDbSpline
70
0
71
3
72
8
73
4
74
0
42
0.000000001
43
0.0000000001
44
0.0000000001
40
0
40
0
40
0
40
0
40
1
40
1
40
1
40
1
10
518.00278701896627
20
46.565854061113619
30
0
10
517.16398701896628
20
43.995994061113635
30
0
10
516.21988701896635
20
44.016334061113625
30
0
10
514.79608701896632
20
44.016334061113625
30
0
0
SPLINE
5
315
100
AcDbEntity
8
0
100
AcDbSpline
70
0
71
1
72
4
73
2
74
0
42
0.000000001
43
0.0000000001
44
0.0000000001
40
0
40
0
40
7.8464600000000004
40
7.8464600000000004
10
517.7381870189663
20
29.204224061113656
30
0
10
522.57478701896639
20
44.016334061113625
30
0
0
SPLINE
5
316
100
AcDbEntity
8
0
100
AcDbSpline
70
0
71
1
72
4
73
2
74
0
42
0.000000001
43
0.0000000001
44
0.0000000001
40
0
40
0
40
9.1441100000000013
40
9.1441100000000013
10
537.23488701896622
20
58.828345061113588
30
0
10
531.6575870189663
20
41.547724061113627
30
0
0
SPLINE
5
317
100
AcDbEntity
8
0
100
AcDbSpline
70
0
71
1
72
4
73
2
74
0
42
0.000000001
43
0.0000000001
44
0.0000000001
40
0
40
0
40
10.456300000000001
40
10.456300000000001
10
344.9480870189667
20
29.204224061113688
30
0
10
351.35968701896667
20
48.953734061113643
30
0
0
SPLINE
5
318
100
AcDbEntity
8
0
100
AcDbSpline
70
0
71
1
72
4
73
2
74
0
42
0.000000001
43
0.0000000001
44
0.0000000001
40
0
40
0
40
9.1441600000000012
40
9.1441600000000012
10
454.39528701896648
20
31.673014061113655
30
0
10
459.97348701896647
20
48.953734061113622
30
0
0
SPLINE
5
319
100
AcDbEntity
8
0
100
AcDbSpline
70
0
71
2
72
6
73
3
74
0
42
0.000000001
43
0.0000000001
44
0.0000000001
40
0
40
0
40
0
40
1
40
1
40
1
10
324.4064870189668
20
26.735704061113694
30
0
10
326.87068701896669
20
26.737774061113697
30
0
10
327.66718701896673
20
29.204224061113692
30
0
0
SPLINE
5
320
100
AcDbEntity
8
0
100
AcDbSpline
70
0
71
1
72
4
73
2
74
0
42
0.000000001
43
0.0000000001
44
0.0000000001
40
0
40
0
40
2.4863400000000002
40
2.4863400000000002
10
463.27648701896646
20
51.42234406111362
30
0
10
468.21388701896637
20
51.42234406111362
30
0
0
SPLINE
5
321
100
AcDbEntity
8
0
100
AcDbSpline
70
0
71
1
72
4
73
2
74
0
42
0.000000001
43
0.0000000001
44
0.0000000001
40
0
40
0
40
2.2985700000000002
40
2.2985700000000002
10
514.79608701896632
20
44.016334061113625
30
0
10
510.23128701896633
20
44.016334061113618
30
0
0
SPLINE
5
322
100
AcDbEntity
8
0
100
AcDbSpline
70
0
71
1
72
4
73
2
74
0
42
0.000000001
43
0.0000000001
44
0.0000000001
40
0
40
0
40
4.2206800000000007
40
4.2206800000000007
10
525.00208701896634
20
51.450244061113608
30
0
10
527.60308701896633
20
59.417755061113581
30
0
0
SPLINE
5
323
100
AcDbEntity
8
0
100
AcDbSpline
70
0
71
2
72
6
73
3
74
0
42
0.000000001
43
0.0000000001
44
0.0000000001
40
0
40
0
40
0
40
1
40
1
40
1
10
428.77318701896655
20
44.016334061113639
30
0
10
425.56108701896653
20
34.137574061113661
30
0
10
415.6889870189666
20
34.14171406111366
30
0
0
SPLINE
5
324
100
AcDbEntity
8
0
100
AcDbSpline
70
0
71
1
72
4
73
2
74
0
42
0.000000001
43
0.0000000001
44
0.0000000001
40
0
40
0
40
6.5409699999999997
40
6.5409699999999997
10
506.9705870189664
20
41.547724061113627
30
0
10
502.92598701896634
20
29.204224061113656
30
0
0
SPLINE
5
325
100
AcDbEntity
8
0
100
AcDbSpline
70
0
71
1
72
4
73
2
74
0
42
0.000000001
43
0.0000000001
44
0.0000000001
40
0
40
0
40
6.5409699999999997
40
6.5409699999999997
10
557.22838701896626
20
29.204224061113649
30
0
10
561.27298701896621
20
41.547724061113627
30
0
0
SPLINE
5
326
100
AcDbEntity
8
0
100
AcDbSpline
70
0
71
2
72
6
73
3
74
0
42
0.000000001
43
0.0000000001
44
0.0000000001
40
0
40
0
40
0
40
1
40
1
40
1
10
196.599647018967
20
58.828453061113642
30
0
10
197.43574701896702
20
61.290853934113649
30
0
10
199.902467018967
20
61.288695852823651
30
0
0
SPLINE
5
327
100
AcDbEntity
8
0
100
AcDbSpline
70
0
71
3
72
8
73
4
74
0
42
0.000000001
43
0.0000000001
44
0.0000000001
40
0
40
0
40
0
40
0
40
1
40
1
40
1
40
1
10
595.83388701896615
20
41.547724061113612
30
0
10
593.69458701896622
20
34.958914061113624
30
0
10
588.51238701896614
20
31.673014061113637
30
0
10
580.28098701896624
20
31.673014061113637
30
0
0
SPLINE
5
328
100
AcDbEntity
8
0
100
AcDbSpline
70
0
71
1
72
4
73
2
74
0
42
0.000000001
43
0.0000000001
44
0.0000000001
40
0
40
0
40
0.035854699999999996
40
0.035854699999999996
10
628.55518701896608
20
20.960404061113653
30
0
10
628.52098701896625
20
20.898304061113649
30
0
0
SPLINE
5
329
100
AcDbEntity
8
0
100
AcDbSpline
70
0
71
1
72
4
73
2
74
0
42
0.000000001
43
0.0000000001
44
0.0000000001
40
0
40
0
40
0.036528400000000003
40
0.036528400000000003
10
628.62358701896608
20
21.08802406111365
30
0
10
628.58938701896614
20
21.023674061113656
30
0
0
SPLINE
5
330
100
AcDbEntity
8
0
100
AcDbSpline
70
0
71
1
72
4
73
2
74
0
42
0.000000001
43
0.0000000001
44
0.0000000001
40
0
40
0
40
0.033748199999999999
40
0.033748199999999999
10
389.8121870189666
20
19.484404061113693
30
0
10
389.74828701896661
20
19.465684061113691
30
0
0
LWPOLYLINE
5
331
100
AcDbEntity
8
0
100
AcDbPolyline
90
1
70
1
43
0.0
10
628.16818701896602
20
20.394124061113654
0
SPLINE
5
332
100
AcDbEntity
8
0
100
AcDbSpline
70
0
71
1
72
4
73
2
74
0
42
0.000000001
43
0.0000000001
44
0.0000000001
40
0
40
0
40
0.033900900000000005
40
0.033900900000000005
10
628.29328701896611
20
20.551264061113649
30
0
10
628.25188701896604
20
20.497624061113655
30
0
0
SPLINE
5
333
100
AcDbEntity
8
0
100
AcDbSpline
70
0
71
1
72
4
73
2
74
0
42
0.000000001
43
0.0000000001
44
0.0000000001
40
0
40
0
40
0.033129800000000001
40
0.033129800000000001
10
390.00118701896662
20
19.547764061113693
30
0
10
389.93908701896657
20
19.525534061113685
30
0
0
SPLINE
5
334
100
AcDbEntity
8
0
100
AcDbSpline
70
0
71
1
72
4
73
2
74
0
42
0.000000001
43
0.0000000001
44
0.0000000001
40
0
40
0
40
0.033293300000000005
40
0.033293300000000005
10
389.93908701896657
20
19.525534061113685
30
0
10
389.8760870189667
20
19.504384061113686
30
0
0
SPLINE
5
335
100
AcDbEntity
8
0
100
AcDbSpline
70
0
71
2
72
6
73
3
74
0
42
0.000000001
43
0.0000000001
44
0.0000000001
40
0
40
0
40
0
40
1
40
1
40
1
10
652.80748701896619
20
19.329604061113642
30
0
10
637.99528701896611
20
19.327534061113649
30
0
10
641.9894870189662
20
31.673014061113626
30
0
0
SPLINE
5
336
100
AcDbEntity
8
0
100
AcDbSpline
70
0
71
1
72
4
73
2
74
0
42
0.000000001
43
0.0000000001
44
0.0000000001
40
0
40
0
40
0.00013596499999999999
40
0.00013596499999999999
10
628.55608701896608
20
20.960404061113653
30
0
10
628.55518701896608
20
20.960404061113653
30
0
0
SPLINE
5
337
100
AcDbEntity
8
0
100
AcDbSpline
70
0
71
1
72
4
73
2
74
0
42
0.000000001
43
0.0000000001
44
0.0000000001
40
0
40
0
40
0.0085187500000000003
40
0.0085187500000000003
10
570.79768701896614
20
40.511464061113628
30
0
10
570.78058701896623
20
40.509754061113625
30
0
0
SPLINE
5
338
100
AcDbEntity
8
0
100
AcDbSpline
70
0
71
1
72
4
73
2
74
0
42
0.000000001
43
0.0000000001
44
0.0000000001
40
0
40
0
40
20.448399999999999
40
20.448399999999999
10
655.17538701896592
20
26.735614061113637
30
0
10
695.78158701896598
20
26.73561406111363
30
0
0
SPLINE
5
339
100
AcDbEntity
8
0
100
AcDbSpline
70
0
71
1
72
4
73
2
74
0
42
0.000000001
43
0.0000000001
44
0.0000000001
40
0
40
0
40
0.032785500000000002
40
0.032785500000000002
10
628.03588701896604
20
20.247604061113652
30
0
10
627.99088701896596
20
20.201164061113648
30
0
0
SPLINE
5
340
100
AcDbEntity
8
0
100
AcDbSpline
70
0
71
1
72
4
73
2
74
0
42
0.000000001
43
0.0000000001
44
0.0000000001
40
0
40
0
40
0.037662199999999993
40
0.037662199999999993
10
628.71898701896612
20
21.288544061113654
30
0
10
628.68748701896618
20
21.220504061113658
30
0
0
SPLINE
5
341
100
AcDbEntity
8
0
100
AcDbSpline
70
0
71
1
72
4
73
2
74
0
42
0.000000001
43
0.0000000001
44
0.0000000001
40
0
40
0
40
9.0642999999999993e-05
40
9.0642999999999993e-05
10
628.29328701896611
20
20.551264061113649
30
0
10
628.29328701896611
20
20.551264061113649
30
0
0
SPLINE
5
342
100
AcDbEntity
8
0
100
AcDbSpline
70
0
71
1
72
4
73
2
74
0
42
0.000000001
43
0.0000000001
44
0.0000000001
40
0
40
0
40
0.0341196
40
0.0341196
10
389.68258701896667
20
19.448044061113691
30
0
10
389.61688701896662
20
19.43184406111369
30
0
0
SPLINE
5
343
100
AcDbEntity
8
0
100
AcDbSpline
70
0
71
1
72
4
73
2
74
0
42
0.000000001
43
0.0000000001
44
0.0000000001
40
0
40
0
40
0.035339200000000001
40
0.035339200000000001
10
389.41438701896658
20
19.39017406111369
30
0
10
389.34508701896664
20
19.378564061113686
30
0
0
SPLINE
5
344
100
AcDbEntity
8
0
100
AcDbSpline
70
0
71
1
72
4
73
2
74
0
42
0.000000001
43
0.0000000001
44
0.0000000001
40
0
40
0
40
0.033441699999999998
40
0.033441699999999998
10
628.21048701896621
20
20.445244061113648
30
0
10
628.16818701896602
20
20.394124061113654
30
0
0
SPLINE
5
345
100
AcDbEntity
8
0
100
AcDbSpline
70
0
71
3
72
8
73
4
74
0
42
0.000000001
43
0.0000000001
44
0.0000000001
40
0
40
0
40
0
40
0
40
1
40
1
40
1
40
1
10
645.19888701896605
20
41.547724061113612
30
0
10
645.72988701896611
20
43.190674061113597
30
0
10
645.16558701896633
20
44.016334061113596
30
0
10
643.52308701896618
20
44.016334061113596
30
0
0
SPLINE
5
346
100
AcDbEntity
8
0
100
AcDbSpline
70
0
71
1
72
4
73
2
74
0
42
0.000000001
43
0.0000000001
44
0.0000000001
40
0
40
0
40
0.039274800000000006
40
0.039274800000000006
10
628.83418701896619
20
21.572674061113656
30
0
10
628.80718701896603
20
21.499774061113655
30
0
0
SPLINE
5
347
100
AcDbEntity
8
0
100
AcDbSpline
70
0
71
1
72
4
73
2
74
0
42
0.000000001
43
0.0000000001
44
0.0000000001
40
0
40
0
40
0.039642299999999998
40
0.039642299999999998
10
628.86118701896601
20
21.646654061113651
30
0
10
628.83418701896619
20
21.572674061113656
30
0
0
SPLINE
5
348
100
AcDbEntity
8
0
100
AcDbSpline
70
0
71
1
72
4
73
2
74
0
42
0.000000001
43
0.0000000001
44
0.0000000001
40
0
40
0
40
0.035598999999999999
40
0.035598999999999999
10
628.52098701896625
20
20.898304061113649
30
0
10
628.48498701896597
20
20.837464061113657
30
0
0
SPLINE
5
349
100
AcDbEntity
8
0
100
AcDbSpline
70
0
71
1
72
4
73
2
74
0
42
0.000000001
43
0.0000000001
44
0.0000000001
40
0
40
0
40
9.0642999999999993e-05
40
9.0642999999999993e-05
10
390.12268701896664
20
19.596004061113685
30
0
10
390.12178701896664
20
19.596004061113685
30
0
0
SPLINE
5
350
100
AcDbEntity
8
0
100
AcDbSpline
70
0
71
1
72
4
73
2
74
0
42
0.000000001
43
0.0000000001
44
0.0000000001
40
0
40
0
40
0.00013596499999999999
40
0.00013596499999999999
10
628.44808701896613
20
20.77788406111366
30
0
10
628.44808701896613
20
20.77788406111366
30
0
0
SPLINE
5
351
100
AcDbEntity
8
0
100
AcDbSpline
70
0
71
1
72
4
73
2
74
0
42
0.000000001
43
0.0000000001
44
0.0000000001
40
0
40
0
40
0.036245699999999999
40
0.036245699999999999
10
389.20378701896658
20
19.35930406111369
30
0
10
389.13178701896663
20
19.351474061113692
30
0
0
SPLINE
5
352
100
AcDbEntity
8
0
100
AcDbSpline
70
0
71
2
72
6
73
3
74
0
42
0.000000001
43
0.0000000001
44
0.0000000001
40
0
40
0
40
0
40
1
40
1
40
1
10
696.67438701896594
20
21.79821406111364
30
0
10
695.87878701896614
20
19.331674061113645
30
0
10
693.41458701896613
20
19.329604061113635
30
0
0
SPLINE
5
353
100
AcDbEntity
8
0
100
AcDbSpline
70
0
71
1
72
4
73
2
74
0
42
0.000000001
43
0.0000000001
44
0.0000000001
40
0
40
0
40
0.0085187500000000003
40
0.0085187500000000003
10
567.15358701896628
20
29.400784061113651
30
0
10
567.17068701896619
20
29.40249406111365
30
0
0
SPLINE
5
354
100
AcDbEntity
8
0
100
AcDbSpline
70
0
71
1
72
4
73
2
74
0
42
0.000000001
43
0.0000000001
44
0.0000000001
40
0
40
0
40
4.9725800000000007
40
4.9725800000000007
10
636.06658701896595
20
51.422344061113591
30
0
10
645.94048701896611
20
51.422344061113591
30
0
0
SPLINE
5
355
100
AcDbEntity
8
0
100
AcDbSpline
70
0
71
1
72
4
73
2
74
0
42
0.000000001
43
0.0000000001
44
0.0000000001
40
0
40
0
40
0.035076700000000002
40
0.035076700000000002
10
389.48278701896663
20
19.402864061113693
30
0
10
389.41438701896658
20
19.39017406111369
30
0
0
SPLINE
5
356
100
AcDbEntity
8
0
100
AcDbSpline
70
0
71
1
72
4
73
2
74
0
42
0.000000001
43
0.0000000001
44
0.0000000001
40
0
40
0
40
12.417999999999999
40
12.417999999999999
10
716.41048701896602
20
53.853550061113566
30
0
10
741.0695870189661
20
53.853550061113566
30
0
0
SPLINE
5
357
100
AcDbEntity
8
0
100
AcDbSpline
70
0
71
2
72
6
73
3
74
0
42
0.000000001
43
0.0000000001
44
0.0000000001
40
0
40
0
40
0
40
1
40
1
40
1
10
747.18058701896575
20
40.235974061113602
30
0
10
749.84818701896586
20
42.998614061113585
30
0
10
750.97588701896575
20
46.354534061113583
30
0
0
SPLINE
5
358
100
AcDbEntity
8
0
100
AcDbSpline
70
0
71
1
72
4
73
2
74
0
42
0.000000001
43
0.0000000001
44
0.0000000001
40
0
40
0
40
12.417999999999999
40
12.417999999999999
10
743.4851870189658
20
61.243069991113543
30
0
10
718.82608701896606
20
61.243069991113543
30
0
0
SPLINE
5
359
100
AcDbEntity
8
0
100
AcDbSpline
70
0
71
1
72
4
73
2
74
0
42
0.000000001
43
0.0000000001
44
0.0000000001
40
0
40
0
40
8.1398299999999999
40
8.1398299999999999
10
732.24148701896581
20
26.727604061113617
30
0
10
716.07748701896583
20
26.72760406111362
30
0
0
SPLINE
5
360
100
AcDbEntity
8
0
100
AcDbSpline
70
0
71
2
72
6
73
3
74
0
42
0.000000001
43
0.0000000001
44
0.0000000001
40
0
40
0
40
0
40
1
40
1
40
1
10
466.53628701896645
20
53.891053061113617
30
0
10
464.46268701896634
20
53.893303061113613
30
0
10
463.37638701896645
20
54.96961306111362
30
0
0
SPLINE
5
361
100
AcDbEntity
8
0
100
AcDbSpline
70
0
71
1
72
4
73
2
74
0
42
0.000000001
43
0.0000000001
44
0.0000000001
40
0
40
0
40
2.6645400000000001
40
2.6645400000000001
10
750.97588701896575
20
46.354534061113583
30
0
10
752.60938701896612
20
51.387604061113564
30
0
0
SPLINE
5
362
100
AcDbEntity
8
0
100
AcDbSpline
70
0
71
1
72
4
73
2
74
0
42
0.000000001
43
0.0000000001
44
0.0000000001
40
0
40
0
40
9.9344699999999992
40
9.9344699999999992
10
737.86378701896615
20
43.989694061113589
30
0
10
718.13578701896608
20
43.989694061113589
30
0
0
SPLINE
5
363
100
AcDbEntity
8
0
100
AcDbSpline
70
0
71
2
72
6
73
3
74
0
42
0.000000001
43
0.0000000001
44
0.0000000001
40
0
40
0
40
0
40
1
40
1
40
1
10
472.6607870189664
20
57.589873061113607
30
0
10
472.1684870189664
20
56.058613061113611
30
0
10
470.36128701896638
20
54.969613061113606
30
0
0
SPLINE
5
364
100
AcDbEntity
8
0
100
AcDbSpline
70
0
71
1
72
4
73
2
74
0
42
0.000000001
43
0.0000000001
44
0.0000000001
40
0
40
0
40
5.46922
40
5.46922
10
705.21628701896611
20
19.329694061113642
30
0
10
716.07748701896583
20
19.329694061113631
30
0
0
SPLINE
5
365
100
AcDbEntity
8
0
100
AcDbSpline
70
0
71
2
72
6
73
3
74
0
42
0.000000001
43
0.0000000001
44
0.0000000001
40
0
40
0
40
0
40
1
40
1
40
1
10
741.12088701896596
20
46.455784061113583
30
0
10
740.32528701896581
20
43.985464061113589
30
0
10
737.86378701896615
20
43.989694061113589
30
0
0
SPLINE
5
366
100
AcDbEntity
8
0
100
AcDbSpline
70
0
71
1
72
4
73
2
74
0
42
0.000000001
43
0.0000000001
44
0.0000000001
40
0
40
0
40
1.3042
40
1.3042
10
704.33248701896616
20
24.261694061113634
30
0
10
703.54138701896602
20
21.79569406111364
30
0
0
SPLINE
5
367
100
AcDbEntity
8
0
100
AcDbSpline
70
0
71
3
72
8
73
4
74
0
42
0.000000001
43
0.0000000001
44
0.0000000001
40
0
40
0
40
0
40
0
40
1
40
1
40
1
40
1
10
735.49858701896596
20
29.193694061113618
30
0
10
734.96668701896567
20
27.577114061113623
30
0
10
733.89298701896587
20
26.807974061113619
30
0
10
732.24148701896581
20
26.72769406111362
30
0
0
SPLINE
5
368
100
AcDbEntity
8
0
100
AcDbSpline
70
0
71
3
72
8
73
4
74
0
42
0.000000001
43
0.0000000001
44
0.0000000001
40
0
40
0
40
0
40
0
40
1
40
1
40
1
40
1
10
714.04528701896595
20
39.057784061113594
30
0
10
713.51518701896589
20
37.408174061113606
30
0
10
714.078587018966
20
36.591694061113607
30
0
10
715.72018701896582
20
36.591694061113607
30
0
0
SPLINE
5
369
100
AcDbEntity
8
0
100
AcDbSpline
70
0
71
2
72
6
73
3
74
0
42
0.000000001
43
0.0000000001
44
0.0000000001
40
0
40
0
40
0
40
1
40
1
40
1
10
468.95368701896643
20
61.288688032732594
30
0
10
470.97598701896635
20
61.292895467113588
30
0
10
472.06318701896635
20
60.185113061113597
30
0
0
SPLINE
5
370
100
AcDbEntity
8
0
100
AcDbSpline
70
0
71
3
72
8
73
4
74
0
42
0.000000001
43
0.0000000001
44
0.0000000001
40
0
40
0
40
0
40
0
40
1
40
1
40
1
40
1
10
714.73558701896593
20
56.319631061113569
30
0
10
714.20548701896587
20
54.670021061113573
30
0
10
714.76888701896598
20
53.853550061113573
30
0
10
716.41048701896602
20
53.853550061113566
30
0
0
SPLINE
5
371
100
AcDbEntity
8
0
100
AcDbSpline
70
0
71
1
72
4
73
2
74
0
42
0.000000001
43
0.0000000001
44
0.0000000001
40
2.1142699999999999e-16
40
2.1142699999999999e-16
40
1.3041700000000001
40
1.3041700000000001
10
715.52668701896607
20
58.785631061113563
30
0
10
714.73558701896593
20
56.319631061113569
30
0
0
SPLINE
5
372
100
AcDbEntity
8
0
100
AcDbSpline
70
0
71
3
72
8
73
4
74
0
42
0.000000001
43
0.0000000001
44
0.0000000001
40
0
40
0
40
0
40
0
40
1
40
1
40
1
40
1
10
746.98708701896578
20
34.125694061113599
30
0
10
747.89338701896577
20
36.878524061113595
30
0
10
747.93748701896584
20
38.922874061113589
30
0
10
747.18058701896575
20
40.235974061113602
30
0
0
SPLINE
5
373
100
AcDbEntity
8
0
100
AcDbSpline
70
0
71
3
72
8
73
4
74
0
42
0.000000001
43
0.0000000001
44
0.0000000001
40
0
40
0
40
0
40
0
40
1
40
1
40
1
40
1
10
733.2080870189659
20
19.329694061113631
30
0
10
740.69068701896617
20
19.329694061113631
30
0
10
742.66438701896618
20
21.040144061113637
30
0
10
745.03138701896603
20
28.204144061113624
30
0
0
SPLINE
5
374
100
AcDbEntity
8
0
100
AcDbSpline
70
0
71
1
72
4
73
2
74
0
42
0.000000001
43
0.0000000001
44
0.0000000001
40
0
40
0
40
9.9344300000000008
40
9.9344300000000008
10
715.72018701896582
20
36.591694061113607
30
0
10
735.44818701896588
20
36.5916940611136
30
0
0
LWPOLYLINE
5
375
100
AcDbEntity
8
0
100
AcDbPolyline
90
1
70
1
43
0.0
10
462.78688701896647
20
57.589873061113607
0
SPLINE
5
376
100
AcDbEntity
8
0
100
AcDbSpline
70
0
71
2
72
6
73
3
74
0
42
0.000000001
43
0.0000000001
44
0.0000000001
40
0
40
0
40
0
40
1
40
1
40
1
10
472.06318701896635
20
60.185113061113597
30
0
10
473.1521870189664
20
59.0706880611136
30
0
10
472.6607870189664
20
57.589873061113607
30
0
0
SPLINE
5
377
100
AcDbEntity
8
0
100
AcDbSpline
70
0
71
1
72
4
73
2
74
0
42
0.000000001
43
0.0000000001
44
0.0000000001
40
0
40
0
40
0.034194000000000002
40
0.034194000000000002
10
391.36558701896661
20
20.606164061113688
30
0
10
391.3250870189666
20
20.551264061113692
30
0
0
LWPOLYLINE
5
378
100
AcDbEntity
8
0
100
AcDbPolyline
90
1
70
1
43
0.0
10
391.36558701896661
20
20.606164061113688
0
SPLINE
5
379
100
AcDbEntity
8
0
100
AcDbSpline
70
0
71
1
72
4
73
2
74
0
42
0.000000001
43
0.0000000001
44
0.0000000001
40
0
40
0
40
9.0642999999999993e-05
40
9.0642999999999993e-05
10
391.24318701896664
20
20.445244061113684
30
0
10
391.24318701896664
20
20.445244061113684
30
0
0
SPLINE
5
380
100
AcDbEntity
8
0
100
AcDbSpline
70
0
71
2
72
6
73
3
74
0
42
0.000000001
43
0.0000000001
44
0.0000000001
40
0
40
0
40
0
40
1
40
1
40
1
10
463.37638701896645
20
54.96961306111362
30
0
10
462.29188701896652
20
56.058613061113611
30
0
10
462.78688701896647
20
57.589873061113607
30
0
0
SPLINE
5
381
100
AcDbEntity
8
0
100
AcDbSpline
70
0
71
3
72
8
73
4
74
0
42
0.000000001
43
0.0000000001
44
0.0000000001
40
0
40
0
40
0
40
0
40
1
40
1
40
1
40
1
10
465.07828701896636
20
60.185113061113597
30
0
10
466.28338701896644
20
60.926438561113585
30
0
10
467.57218701896642
20
61.288688032732594
30
0
10
468.95368701896643
20
61.288688032732594
30
0
0
SPLINE
5
382
100
AcDbEntity
8
0
100
AcDbSpline
70
0
71
1
72
4
73
2
74
0
42
0.000000001
43
0.0000000001
44
0.0000000001
40
0
40
0
40
0.0344111
40
0.0344111
10
391.40428701896661
20
20.662234061113693
30
0
10
391.36558701896661
20
20.606164061113688
30
0
0
SPLINE
5
383
100
AcDbEntity
8
0
100
AcDbSpline
70
0
71
2
72
6
73
3
74
0
42
0.000000001
43
0.0000000001
44
0.0000000001
40
0
40
0
40
0
40
1
40
1
40
1
10
462.78688701896647
20
57.589873061113607
30
0
10
463.28188701896647
20
59.0706880611136
30
0
10
465.07828701896636
20
60.185113061113597
30
0
0
SPLINE
5
384
100
AcDbEntity
8
0
100
AcDbSpline
70
0
71
3
72
8
73
4
74
0
42
0.000000001
43
0.0000000001
44
0.0000000001
40
0
40
0
40
0
40
0
40
1
40
1
40
1
40
1
10
470.36128701896638
20
54.969613061113606
30
0
10
469.16428701896632
20
54.253573061113613
30
0
10
467.88358701896635
20
53.891053061113617
30
0
10
466.53628701896645
20
53.891053061113617
30
0
0
SPLINE
5
385
100
AcDbEntity
8
0
100
AcDbSpline
70
0
71
1
72
4
73
2
74
0
42
0.000000001
43
0.0000000001
44
0.0000000001
40
0
40
0
40
0.00013596499999999999
40
0.00013596499999999999
10
391.28458701896659
20
20.49762406111369
30
0
10
391.28458701896659
20
20.49762406111369
30
0
0
SPLINE
5
386
100
AcDbEntity
8
0
100
AcDbSpline
70
0
71
3
72
8
73
4
74
0
42
0.000000001
43
0.0000000001
44
0.0000000001
40
0
40
0
40
0
40
0
40
1
40
1
40
1
40
1
10
248.56609701896687
20
36.396664061113682
30
0
10
248.96020701896688
20
37.609504061113689
30
0
10
249.93193701896686
20
38.879134061113675
30
0
10
251.89420701896691
20
38.879134061113675
30
0
0
SPLINE
5
387
100
AcDbEntity
8
0
100
AcDbSpline
70
0
71
2
72
6
73
3
74
0
42
0.000000001
43
0.0000000001
44
0.0000000001
40
0
40
0
40
0
40
1
40
1
40
1
10
316.80688701896679
20
48.953734061113643
30
0
10
317.64298701896678
20
51.420364061113645
30
0
10
320.10988701896673
20
51.422344061113648
30
0
0
SPLINE
5
388
100
AcDbEntity
8
0
100
AcDbSpline
70
0
71
3
72
8
73
4
74
0
42
0.000000001
43
0.0000000001
44
0.0000000001
40
0
40
0
40
0
40
0
40
1
40
1
40
1
40
1
10
255.32329701896688
20
44.016334061113668
30
0
10
253.2071270189669
20
44.016334061113668
30
0
10
251.79556701896689
20
45.141964061113669
30
0
10
252.88132701896689
20
46.437964061113668
30
0
0
SPLINE
5
389
100
AcDbEntity
8
0
100
AcDbSpline
70
0
71
2
72
6
73
3
74
0
42
0.000000001
43
0.0000000001
44
0.0000000001
40
0
40
0
40
0
40
1
40
1
40
1
10
355.65718701896662
20
31.673104061113676
30
0
10
354.02638701896672
20
26.733634061113687
30
0
10
358.96828701896658
20
26.735704061113683
30
0
0
SPLINE
5
390
100
AcDbEntity
8
0
100
AcDbSpline
70
0
71
1
72
4
73
2
74
0
42
0.000000001
43
0.0000000001
44
0.0000000001
40
0
40
0
40
4.0617599999999996
40
4.0617599999999996
10
263.38918701896682
20
44.016334061113668
30
0
10
255.32329701896688
20
44.016334061113668
30
0
0
SPLINE
5
391
100
AcDbEntity
8
0
100
AcDbSpline
70
0
71
3
72
8
73
4
74
0
42
0.000000001
43
0.0000000001
44
0.0000000001
40
0
40
0
40
0
40
0
40
1
40
1
40
1
40
1
10
258.41839701896686
20
36.328444061113679
30
0
10
257.57518701896686
20
33.976114061113691
30
0
10
256.86220701896684
20
31.578964061113691
30
0
10
256.08415701896683
20
29.204224061113703
30
0
0
SPLINE
5
392
100
AcDbEntity
8
0
100
AcDbSpline
70
0
71
1
72
4
73
2
74
0
42
0.000000001
43
0.0000000001
44
0.0000000001
40
0
40
0
40
4.9725800000000007
40
4.9725800000000007
10
265.80721701896687
20
51.422344061113648
30
0
10
275.6818370189668
20
51.422344061113648
30
0
0
SPLINE
5
393
100
AcDbEntity
8
0
100
AcDbSpline
70
0
71
2
72
6
73
3
74
0
42
0.000000001
43
0.0000000001
44
0.0000000001
40
0
40
0
40
0
40
1
40
1
40
1
10
275.6818370189668
20
51.422344061113648
30
0
10
288.02758701896676
20
51.420184061113652
30
0
10
284.81548701896685
20
41.547724061113662
30
0
0
SPLINE
5
394
100
AcDbEntity
8
0
100
AcDbSpline
70
0
71
3
72
8
73
4
74
0
42
0.000000001
43
0.0000000001
44
0.0000000001
40
0
40
0
40
0
40
0
40
1
40
1
40
1
40
1
10
197.67838701896699
20
31.673104061113705
30
0
10
196.60009701896706
20
28.378744061113711
30
0
10
197.69530701896699
20
26.735704061113715
30
0
10
200.989667018967
20
26.735704061113715
30
0
0
SPLINE
5
395
100
AcDbEntity
8
0
100
AcDbSpline
70
0
71
2
72
6
73
3
74
0
42
0.000000001
43
0.0000000001
44
0.0000000001
40
0
40
0
40
0
40
1
40
1
40
1
10
309.81928701896669
20
26.735704061113694
30
0
10
309.96328701896681
20
27.881404061113699
30
0
10
310.38628701896675
20
29.204224061113692
30
0
0
SPLINE
5
396
100
AcDbEntity
8
0
100
AcDbSpline
70
0
71
1
72
4
73
2
74
0
42
0.000000001
43
0.0000000001
44
0.0000000001
40
2.11258e-16
40
2.11258e-16
40
14.3729
40
14.3729
10
206.46634701896701
20
58.828444061113643
30
0
10
197.67838701896699
20
31.673104061113705
30
0
0
SPLINE
5
397
100
AcDbEntity
8
0
100
AcDbSpline
70
0
71
1
72
4
73
2
74
0
42
0.000000001
43
0.0000000001
44
0.0000000001
40
0
40
0
40
1.24312
40
1.24312
10
321.93778701896679
20
26.735704061113694
30
0
10
324.4064870189668
20
26.735704061113694
30
0
0
SPLINE
5
398
100
AcDbEntity
8
0
100
AcDbSpline
70
0
71
1
72
4
73
2
74
0
42
0.000000001
43
0.0000000001
44
0.0000000001
40
0
40
0
40
10.456300000000001
40
10.456300000000001
10
343.95358701896674
20
48.953734061113643
30
0
10
337.54198701896678
20
29.204224061113692
30
0
0
SPLINE
5
399
100
AcDbEntity
8
0
100
AcDbSpline
70
0
71
2
72
6
73
3
74
0
42
0.000000001
43
0.0000000001
44
0.0000000001
40
0
40
0
40
0
40
1
40
1
40
1
10
325.04728701896676
20
51.422344061113648
30
0
10
327.51958701896677
20
51.420364061113652
30
0
10
326.68168701896684
20
48.95373406111365
30
0
0
SPLINE
5
400
100
AcDbEntity
8
0
100
AcDbSpline
70
0
71
1
72
4
73
2
74
0
42
0.000000001
43
0.0000000001
44
0.0000000001
40
0
40
0
40
1
40
1
10
251.89420701896691
20
38.879134061113675
30
0
10
256.83916701896686
20
38.879134061113675
30
0
0
SPLINE
5
401
100
AcDbEntity
8
0
100
AcDbSpline
70
0
71
1
72
4
73
2
74
0
42
0.000000001
43
0.0000000001
44
0.0000000001
40
0
40
0
40
0.073647399999999988
40
0.073647399999999988
10
273.41005701896682
20
44.016334061113668
30
0
10
273.26380701896687
20
44.016334061113668
30
0
0
SPLINE
5
402
100
AcDbEntity
8
0
100
AcDbSpline
70
0
71
3
72
8
73
4
74
0
42
0.000000001
43
0.0000000001
44
0.0000000001
40
0
40
0
40
0
40
0
40
1
40
1
40
1
40
1
10
256.83916701896686
20
38.879134061113675
30
0
10
258.54007701896688
20
38.879134061113675
30
0
10
259.05145701896691
20
38.094604061113685
30
0
10
258.41839701896686
20
36.328444061113679
30
0
0
SPLINE
5
403
100
AcDbEntity
8
0
100
AcDbSpline
70
0
71
2
72
6
73
3
74
0
42
0.000000001
43
0.0000000001
44
0.0000000001
40
0
40
0
40
0
40
1
40
1
40
1
10
256.08415701896683
20
29.204224061113703
30
0
10
255.29224701896686
20
26.737774061113704
30
0
10
257.76094701896687
20
26.735614061113708
30
0
0
SPLINE
5
404
100
AcDbEntity
8
0
100
AcDbSpline
70
0
71
1
72
4
73
2
74
0
42
0.000000001
43
0.0000000001
44
0.0000000001
40
0
40
0
40
1
40
1
10
383.67058701896661
20
26.735704061113683
30
0
10
390.01288701896664
20
46.311154061113641
30
0
0
SPLINE
5
405
100
AcDbEntity
8
0
100
AcDbSpline
70
0
71
3
72
8
73
4
74
0
42
0.000000001
43
0.0000000001
44
0.0000000001
40
0
40
0
40
0
40
0
40
1
40
1
40
1
40
1
10
390.01288701896664
20
46.311154061113641
30
0
10
390.45568701896656
20
47.676364061113645
30
0
10
391.56538701896659
20
48.765544061113637
30
0
10
393.40498701896661
20
48.753844061113647
30
0
0
SPLINE
5
406
100
AcDbEntity
8
0
100
AcDbSpline
70
0
71
3
72
8
73
4
74
0
42
0.000000001
43
0.0000000001
44
0.0000000001
40
0
40
0
40
0
40
0
40
1
40
1
40
1
40
1
10
393.40498701896661
20
48.753844061113647
30
0
10
395.03668701896657
20
48.743404061113644
30
0
10
396.6701870189666
20
48.72756406111364
30
0
10
398.30188701896668
20
48.750424061113634
30
0
0
SPLINE
5
407
100
AcDbEntity
8
0
100
AcDbSpline
70
0
71
1
72
4
73
2
74
0
42
0.000000001
43
0.0000000001
44
0.0000000001
40
0
40
0
40
22.485600000000002
40
22.485600000000002
10
200.989667018967
20
26.735704061113715
30
0
10
245.64181701896695
20
26.735704061113704
30
0
0
SPLINE
5
408
100
AcDbEntity
8
0
100
AcDbSpline
70
0
71
1
72
4
73
2
74
0
42
0.000000001
43
0.0000000001
44
0.0000000001
40
0
40
0
40
1
40
1
10
246.20953701896693
20
29.204314061113706
30
0
10
248.56609701896687
20
36.396664061113682
30
0
0
SPLINE
5
409
100
AcDbEntity
8
0
100
AcDbSpline
70
0
71
1
72
4
73
2
74
0
42
0.000000001
43
0.0000000001
44
0.0000000001
40
0
40
0
40
0.0013452200000000001
40
0.0013452200000000001
10
273.40861701896688
20
44.014084061113664
30
0
10
273.41005701896682
20
44.016334061113668
30
0
0
SPLINE
5
410
100
AcDbEntity
8
0
100
AcDbSpline
70
0
71
1
72
4
73
2
74
0
42
0.000000001
43
0.0000000001
44
0.0000000001
40
0
40
0
40
1
40
1
10
416.43958701896656
20
53.890963061113624
30
0
10
402.3590870189667
20
53.890963061113624
30
0
0
SPLINE
5
411
100
AcDbEntity
8
0
100
AcDbSpline
70
0
71
1
72
4
73
2
74
0
42
0.000000001
43
0.0000000001
44
0.0000000001
40
0
40
0
40
10.457599999999999
40
10.457599999999999
10
326.68168701896684
20
48.95373406111365
30
0
10
320.2610870189668
20
29.204224061113692
30
0
0
SPLINE
5
412
100
AcDbEntity
8
0
100
AcDbSpline
70
0
71
2
72
6
73
3
74
0
42
0.000000001
43
0.0000000001
44
0.0000000001
40
0
40
0
40
0
40
1
40
1
40
1
10
415.6889870189666
20
34.14171406111366
30
0
10
415.73668701896656
20
26.735614061113679
30
0
10
420.67678701896654
20
26.735614061113679
30
0
0
SPLINE
5
413
100
AcDbEntity
8
0
100
AcDbSpline
70
0
71
1
72
4
73
2
74
0
42
0.000000001
43
0.0000000001
44
0.0000000001
40
0
40
0
40
12.544499999999999
40
12.544499999999999
10
467.57308701896642
20
26.735614061113672
30
0
10
492.48418701896634
20
26.735614061113665
30
0
0
SPLINE
5
414
100
AcDbEntity
8
0
100
AcDbSpline
70
0
71
3
72
8
73
4
74
0
42
0.000000001
43
0.0000000001
44
0.0000000001
40
0
40
0
40
0
40
0
40
1
40
1
40
1
40
1
10
252.88132701896689
20
46.437964061113668
30
0
10
255.66052701896689
20
49.75536406111366
30
0
10
259.96594701896686
20
51.422344061113648
30
0
10
265.80721701896687
20
51.422344061113648
30
0
0
SPLINE
5
415
100
AcDbEntity
8
0
100
AcDbSpline
70
0
71
2
72
6
73
3
74
0
42
0.000000001
43
0.0000000001
44
0.0000000001
40
0
40
0
40
0
40
1
40
1
40
1
10
459.97348701896647
20
48.953734061113622
30
0
10
460.80958701896657
20
51.420364061113624
30
0
10
463.27648701896646
20
51.42234406111362
30
0
0
SPLINE
5
416
100
AcDbEntity
8
0
100
AcDbSpline
70
0
71
1
72
4
73
2
74
0
42
0.000000001
43
0.0000000001
44
0.0000000001
40
0
40
0
40
2.4862500000000001
40
2.4862500000000001
10
199.902917018967
20
61.288684061113649
30
0
10
204.84013701896703
20
61.288684061113649
30
0
0
SPLINE
5
417
100
AcDbEntity
8
0
100
AcDbSpline
70
0
71
2
72
6
73
3
74
0
42
0.000000001
43
0.0000000001
44
0.0000000001
40
0
40
0
40
0
40
1
40
1
40
1
10
421.31668701896649
20
51.422344061113627
30
0
10
422.10238701896651
20
53.888947061113626
30
0
10
419.63998701896656
20
53.890963061113624
30
0
0
SPLINE
5
418
100
AcDbEntity
8
0
100
AcDbSpline
70
0
71
2
72
6
73
3
74
0
42
0.000000001
43
0.0000000001
44
0.0000000001
40
0
40
0
40
0
40
1
40
1
40
1
10
342.32728701896667
20
51.422344061113641
30
0
10
344.79598701896668
20
51.420364061113645
30
0
10
343.95358701896674
20
48.953734061113643
30
0
0
SPLINE
5
419
100
AcDbEntity
8
0
100
AcDbSpline
70
0
71
2
72
6
73
3
74
0
42
0.000000001
43
0.0000000001
44
0.0000000001
40
0
40
0
40
0
40
1
40
1
40
1
10
415.63768701896663
20
41.547724061113641
30
0
10
418.10278701896658
20
41.543494061113648
30
0
10
418.89838701896656
20
44.016334061113639
30
0
0
SPLINE
5
420
100
AcDbEntity
8
0
100
AcDbSpline
70
0
71
1
72
4
73
2
74
0
42
0.000000001
43
0.0000000001
44
0.0000000001
40
0
40
0
40
1.61181
40
1.61181
10
419.63998701896656
20
53.890963061113624
30
0
10
416.43958701896656
20
53.890963061113624
30
0
0
SPLINE
5
421
100
AcDbEntity
8
0
100
AcDbSpline
70
0
71
3
72
8
73
4
74
0
42
0.000000001
43
0.0000000001
44
0.0000000001
40
0
40
0
40
0
40
0
40
1
40
1
40
1
40
1
10
398.30188701896668
20
48.750424061113634
30
0
10
399.37828701896655
20
48.76554406111363
30
0
10
400.6400870189666
20
48.523624061113637
30
0
10
399.87328701896666
20
46.22286406111364
30
0
0
SPLINE
5
422
100
AcDbEntity
8
0
100
AcDbSpline
70
0
71
1
72
4
73
2
74
0
42
0.000000001
43
0.0000000001
44
0.0000000001
40
0
40
0
40
9.1454599999999999
40
9.1454599999999999
10
469.8482870189664
20
48.953734061113622
30
0
10
464.26198701896652
20
31.673014061113662
30
0
0
SPLINE
5
423
100
AcDbEntity
8
0
100
AcDbSpline
70
0
71
2
72
6
73
3
74
0
42
0.000000001
43
0.0000000001
44
0.0000000001
40
0
40
0
40
0
40
1
40
1
40
1
10
341.68738701896666
20
26.735704061113687
30
0
10
344.15158701896667
20
26.737774061113694
30
0
10
344.9480870189667
20
29.204224061113688
30
0
0
SPLINE
5
424
100
AcDbEntity
8
0
100
AcDbSpline
70
0
71
1
72
4
73
2
74
0
42
0.000000001
43
0.0000000001
44
0.0000000001
40
0
40
0
40
1
40
1
10
393.16378701896662
20
56.035582061113629
30
0
10
394.06918701896666
20
58.828363061113613
30
0
0
SPLINE
5
425
100
AcDbEntity
8
0
100
AcDbSpline
70
0
71
2
72
6
73
3
74
0
42
0.000000001
43
0.0000000001
44
0.0000000001
40
0
40
0
40
0
40
1
40
1
40
1
10
453.54748701896648
20
26.735614061113672
30
0
10
453.4934870189665
20
28.890574061113661
30
0
10
454.39528701896648
20
31.673014061113655
30
0
0
SPLINE
5
426
100
AcDbEntity
8
0
100
AcDbSpline
70
0
71
1
72
4
73
2
74
0
42
0.000000001
43
0.0000000001
44
0.0000000001
40
0
40
0
40
4.9725800000000007
40
4.9725800000000007
10
257.76094701896687
20
26.735614061113708
30
0
10
267.63556701896687
20
26.735614061113708
30
0
0
SPLINE
5
427
100
AcDbEntity
8
0
100
AcDbSpline
70
0
71
1
72
4
73
2
74
0
42
0.000000001
43
0.0000000001
44
0.0000000001
40
0
40
0
40
4.9726300000000005
40
4.9726300000000005
10
265.26775701896685
20
19.32969406111372
30
0
10
255.39304701896685
20
19.32969406111372
30
0
0
SPLINE
5
428
100
AcDbEntity
8
0
100
AcDbSpline
70
0
71
1
72
4
73
2
74
0
42
0.000000001
43
0.0000000001
44
0.0000000001
40
0
40
0
40
16.1568
40
16.1568
10
314.6324870189668
20
19.329694061113702
30
0
10
282.54838701896682
20
19.329694061113713
30
0
0
SPLINE
5
429
100
AcDbEntity
8
0
100
AcDbSpline
70
0
71
1
72
4
73
2
74
0
42
0.000000001
43
0.0000000001
44
0.0000000001
40
0
40
0
40
2.4863400000000002
40
2.4863400000000002
10
337.38988701896682
20
51.422344061113641
30
0
10
342.32728701896667
20
51.422344061113641
30
0
0
SPLINE
5
430
100
AcDbEntity
8
0
100
AcDbSpline
70
0
71
1
72
4
73
2
74
0
42
0.000000001
43
0.0000000001
44
0.0000000001
40
0
40
0
40
2.48638
40
2.48638
10
320.10988701896673
20
51.422344061113648
30
0
10
325.04728701896676
20
51.422344061113648
30
0
0
SPLINE
5
431
100
AcDbEntity
8
0
100
AcDbSpline
70
0
71
2
72
6
73
3
74
0
42
0.000000001
43
0.0000000001
44
0.0000000001
40
0
40
0
40
0
40
1
40
1
40
1
10
255.39304701896685
20
19.32969406111372
30
0
10
253.42735701896689
20
19.329874061113721
30
0
10
251.8553270189669
20
19.580614061113714
30
0
0
SPLINE
5
432
100
AcDbEntity
8
0
100
AcDbSpline
70
0
71
1
72
4
73
2
74
0
42
0.000000001
43
0.0000000001
44
0.0000000001
40
0
40
0
40
12.439500000000001
40
12.439500000000001
10
358.96828701896658
20
26.735704061113683
30
0
10
383.67058701896661
20
26.735704061113683
30
0
0
SPLINE
5
433
100
AcDbEntity
8
0
100
AcDbSpline
70
0
71
2
72
6
73
3
74
0
42
0.000000001
43
0.0000000001
44
0.0000000001
40
0
40
0
40
0
40
1
40
1
40
1
10
351.35968701896667
20
48.953734061113643
30
0
10
352.20658701896673
20
51.420364061113645
30
0
10
354.67078701896668
20
51.422344061113641
30
0
0
SPLINE
5
434
100
AcDbEntity
8
0
100
AcDbSpline
70
0
71
2
72
6
73
3
74
0
42
0.000000001
43
0.0000000001
44
0.0000000001
40
0
40
0
40
0
40
1
40
1
40
1
10
204.84013701896703
20
61.288684061113649
30
0
10
207.30883701896701
20
61.290845123113641
30
0
10
206.46634701896701
20
58.828444061113643
30
0
0
SPLINE
5
435
100
AcDbEntity
8
0
100
AcDbSpline
70
0
71
1
72
4
73
2
74
0
42
0.000000001
43
0.0000000001
44
0.0000000001
40
0
40
0
40
5.2287600000000003
40
5.2287600000000003
10
284.81548701896685
20
41.547724061113662
30
0
10
281.60518701896683
20
31.673104061113694
30
0
0
SPLINE
5
436
100
AcDbEntity
8
0
100
AcDbSpline
70
0
71
2
72
6
73
3
74
0
42
0.000000001
43
0.0000000001
44
0.0000000001
40
0
40
0
40
0
40
1
40
1
40
1
10
274.94050701896685
20
41.547724061113662
30
0
10
275.70892701896685
20
43.940194061113672
30
0
10
273.40861701896688
20
44.014084061113664
30
0
0
SPLINE
5
437
100
AcDbEntity
8
0
100
AcDbSpline
70
0
71
3
72
8
73
4
74
0
42
0.000000001
43
0.0000000001
44
0.0000000001
40
0
40
0
40
0
40
0
40
1
40
1
40
1
40
1
10
337.54198701896678
20
29.204224061113692
30
0
10
337.01098701896677
20
27.561274061113696
30
0
10
337.57528701896666
20
26.735704061113694
30
0
10
339.21868701896676
20
26.735704061113694
30
0
0
SPLINE
5
438
100
AcDbEntity
8
0
100
AcDbSpline
70
0
71
1
72
4
73
2
74
0
42
0.000000001
43
0.0000000001
44
0.0000000001
40
0
40
0
40
6.5409699999999997
40
6.5409699999999997
10
270.89626701896685
20
29.204224061113699
30
0
10
274.94050701896685
20
41.547724061113662
30
0
0
SPLINE
5
439
100
AcDbEntity
8
0
100
AcDbSpline
70
0
71
3
72
8
73
4
74
0
42
0.000000001
43
0.0000000001
44
0.0000000001
40
0
40
0
40
0
40
0
40
1
40
1
40
1
40
1
10
517.1774870189663
20
51.422344061113606
30
0
10
518.26198701896635
20
51.422344061113606
30
0
10
519.51028701896632
20
51.179434061113618
30
0
10
518.75068701896635
20
48.85608406111362
30
0
0
SPLINE
5
440
100
AcDbEntity
8
0
100
AcDbSpline
70
0
71
2
72
6
73
3
74
0
42
0.000000001
43
0.0000000001
44
0.0000000001
40
0
40
0
40
0
40
1
40
1
40
1
10
245.64181701896695
20
26.735704061113704
30
0
10
245.7863570189669
20
27.88140406111371
30
0
10
246.20953701896693
20
29.204314061113706
30
0
0
SPLINE
5
441
100
AcDbEntity
8
0
100
AcDbSpline
70
0
71
2
72
6
73
3
74
0
42
0.000000001
43
0.0000000001
44
0.0000000001
40
0
40
0
40
0
40
1
40
1
40
1
10
267.63556701896687
20
26.735614061113708
30
0
10
270.10012701896687
20
26.737774061113701
30
0
10
270.89626701896685
20
29.204224061113699
30
0
0
SPLINE
5
442
100
AcDbEntity
8
0
100
AcDbSpline
70
0
71
1
72
4
73
2
74
0
42
0.000000001
43
0.0000000001
44
0.0000000001
40
0
40
0
40
26.1021
40
26.1021
10
250.45564701896691
20
19.32969406111372
30
0
10
198.62176701896701
20
19.329694061113727
30
0
0
SPLINE
5
443
100
AcDbEntity
8
0
100
AcDbSpline
70
0
71
1
72
4
73
2
74
0
42
0.000000001
43
0.0000000001
44
0.0000000001
40
0
40
0
40
0.00020701400000000002
40
0.00020701400000000002
10
199.902467018967
20
61.288695852823651
30
0
10
199.902917018967
20
61.288684061113649
30
0
0
SPLINE
5
444
100
AcDbEntity
8
0
100
AcDbSpline
70
0
71
1
72
4
73
2
74
0
42
0.000000001
43
0.0000000001
44
0.0000000001
40
0
40
0
40
1
40
1
10
402.3590870189667
20
53.890963061113624
30
0
10
395.32918701896665
20
53.890963061113624
30
0
0
SPLINE
5
445
100
AcDbEntity
8
0
100
AcDbSpline
70
0
71
3
72
8
73
4
74
0
42
0.000000001
43
0.0000000001
44
0.0000000001
40
0
40
0
40
0
40
0
40
1
40
1
40
1
40
1
10
320.2610870189668
20
29.204224061113692
30
0
10
319.73008701896674
20
27.5612740611137
30
0
10
320.29528701896675
20
26.735704061113694
30
0
10
321.93778701896679
20
26.735704061113694
30
0
0
SPLINE
5
446
100
AcDbEntity
8
0
100
AcDbSpline
70
0
71
1
72
4
73
2
74
0
42
0.000000001
43
0.0000000001
44
0.0000000001
40
0
40
0
40
4.9725800000000007
40
4.9725800000000007
10
273.26380701896687
20
44.016334061113668
30
0
10
263.38918701896682
20
44.016334061113668
30
0
0
SPLINE
5
447
100
AcDbEntity
8
0
100
AcDbSpline
70
0
71
1
72
4
73
2
74
0
42
0.000000001
43
0.0000000001
44
0.0000000001
40
0
40
0
40
1.24312
40
1.24312
10
339.21868701896676
20
26.735704061113694
30
0
10
341.68738701896666
20
26.735704061113687
30
0
0
SPLINE
5
448
100
AcDbEntity
8
0
100
AcDbSpline
70
0
71
1
72
4
73
2
74
0
42
0.000000001
43
0.0000000001
44
0.0000000001
40
0
40
0
40
10.457599999999999
40
10.457599999999999
10
327.66718701896673
20
29.204224061113692
30
0
10
334.08778701896671
20
48.95373406111365
30
0
0
SPLINE
5
449
100
AcDbEntity
8
0
100
AcDbSpline
70
0
71
2
72
6
73
3
74
0
42
0.000000001
43
0.0000000001
44
0.0000000001
40
0
40
0
40
0
40
1
40
1
40
1
10
198.62176701896701
20
19.329694061113727
30
0
10
183.80764101896702
20
19.327534061113731
30
0
10
187.81180221896705
20
31.673104061113708
30
0
0
SPLINE
5
450
100
AcDbEntity
8
0
100
AcDbSpline
70
0
71
2
72
6
73
3
74
0
42
0.000000001
43
0.0000000001
44
0.0000000001
40
0
40
0
40
0
40
1
40
1
40
1
10
281.60518701896683
20
31.673104061113694
30
0
10
279.97438701896681
20
26.733634061113705
30
0
10
284.91628701896684
20
26.735704061113701
30
0
0
SPLINE
5
451
100
AcDbEntity
8
0
100
AcDbSpline
70
0
71
1
72
4
73
2
74
0
42
0.000000001
43
0.0000000001
44
0.0000000001
40
0
40
0
40
12.5403
40
12.5403
10
284.91628701896684
20
26.735704061113701
30
0
10
309.81928701896669
20
26.735704061113694
30
0
0
SPLINE
5
452
100
AcDbEntity
8
0
100
AcDbSpline
70
0
71
2
72
6
73
3
74
0
42
0.000000001
43
0.0000000001
44
0.0000000001
40
0
40
0
40
0
40
1
40
1
40
1
10
334.08778701896671
20
48.95373406111365
30
0
10
334.92388701896681
20
51.420364061113652
30
0
10
337.38988701896682
20
51.422344061113641
30
0
0
SPLINE
5
453
100
AcDbEntity
8
0
100
AcDbSpline
70
0
71
1
72
4
73
2
74
0
42
0.000000001
43
0.0000000001
44
0.0000000001
40
0
40
0
40
0.036678599999999999
40
0.036678599999999999
10
626.0999870189662
20
19.351474061113652
30
0
10
626.02708701896609
20
19.344904061113652
30
0
0
SPLINE
5
454
100
AcDbEntity
8
0
100
AcDbSpline
70
0
71
1
72
4
73
2
74
0
42
0.000000001
43
0.0000000001
44
0.0000000001
40
0
40
0
40
0.032464299999999995
40
0.032464299999999995
10
390.24058701896661
20
19.649194061113686
30
0
10
390.18208701896663
20
19.622104061113692
30
0
0
SPLINE
5
455
100
AcDbEntity
8
0
100
AcDbSpline
70
0
71
1
72
4
73
2
74
0
42
0.000000001
43
0.0000000001
44
0.0000000001
40
0
40
0
40
0.035636599999999997
40
0.035636599999999997
10
626.31238701896609
20
19.37856406111365
30
0
10
626.24218701896598
20
19.368304061113655
30
0
0
LWPOLYLINE
5
456
100
AcDbEntity
8
0
100
AcDbPolyline
90
1
70
1
43
0.0
10
627.32308701896613
20
19.707154061113648
0
SPLINE
5
457
100
AcDbEntity
8
0
100
AcDbSpline
70
0
71
1
72
4
73
2
74
0
42
0.000000001
43
0.0000000001
44
0.0000000001
40
0
40
0
40
0.035339200000000001
40
0.035339200000000001
10
626.38168701896598
20
19.390174061113655
30
0
10
626.31238701896609
20
19.37856406111365
30
0
0
SPLINE
5
458
100
AcDbEntity
8
0
100
AcDbSpline
70
0
71
1
72
4
73
2
74
0
42
0.000000001
43
0.0000000001
44
0.0000000001
40
0
40
0
40
16.1568
40
16.1568
10
497.28928701896626
20
19.329694061113678
30
0
10
465.20518701896651
20
19.329694061113678
30
0
0
SPLINE
5
459
100
AcDbEntity
8
0
100
AcDbSpline
70
0
71
1
72
4
73
2
74
0
42
0.000000001
43
0.0000000001
44
0.0000000001
40
0
40
0
40
2.48638
40
2.48638
10
625.65178701896616
20
19.329694061113653
30
0
10
620.71438701896614
20
19.329694061113653
30
0
0
SPLINE
5
460
100
AcDbEntity
8
0
100
AcDbSpline
70
0
71
1
72
4
73
2
74
0
42
0.000000001
43
0.0000000001
44
0.0000000001
40
0
40
0
40
6.53308
40
6.53308
10
395.93938701896661
20
34.14180406111366
30
0
10
391.94518701896669
20
21.79830406111369
30
0
0
SPLINE
5
461
100
AcDbEntity
8
0
100
AcDbSpline
70
0
71
1
72
4
73
2
74
0
42
0.000000001
43
0.0000000001
44
0.0000000001
40
0
40
0
40
0.032249699999999999
40
0.032249699999999999
10
627.37888701896611
20
19.737934061113656
30
0
10
627.32308701896613
20
19.707154061113648
30
0
0
LWPOLYLINE
5
462
100
AcDbEntity
8
0
100
AcDbPolyline
90
1
70
1
43
0.0
10
390.46738701896658
20
19.769794061113686
0
LWPOLYLINE
5
463
100
AcDbEntity
8
0
100
AcDbPolyline
90
1
70
1
43
0.0
10
626.78038701896594
20
19.484404061113658
0
SPLINE
5
464
100
AcDbEntity
8
0
100
AcDbSpline
70
0
71
1
72
4
73
2
74
0
42
0.000000001
43
0.0000000001
44
0.0000000001
40
0
40
0
40
27.345099999999999
40
27.345099999999999
10
620.71438701896614
20
19.329694061113653
30
0
10
566.41198701896633
20
19.329694061113656
30
0
0
LWPOLYLINE
5
465
100
AcDbEntity
8
0
100
AcDbPolyline
90
1
70
1
43
0.0
10
390.78238701896657
20
19.986964061113692
0
LWPOLYLINE
5
466
100
AcDbEntity
8
0
100
AcDbPolyline
90
1
70
1
43
0.0
10
627.54268701896603
20
19.837474061113653
0
SPLINE
5
467
100
AcDbEntity
8
0
100
AcDbSpline
70
0
71
2
72
6
73
3
74
0
42
0.000000001
43
0.0000000001
44
0.0000000001
40
0
40
0
40
0
40
1
40
1
40
1
10
562.87498701896629
20
19.580614061113664
30
0
10
562.25938701896621
20
19.329874061113664
30
0
10
561.4745870189663
20
19.329694061113667
30
0
0
SPLINE
5
468
100
AcDbEntity
8
0
100
AcDbSpline
70
0
71
1
72
4
73
2
74
0
42
0.000000001
43
0.0000000001
44
0.0000000001
40
0
40
0
40
0.035076700000000002
40
0.035076700000000002
10
626.45008701896597
20
19.402864061113654
30
0
10
626.38168701896598
20
19.390174061113655
30
0
0
SPLINE
5
469
100
AcDbEntity
8
0
100
AcDbSpline
70
0
71
1
72
4
73
2
74
0
42
0.000000001
43
0.0000000001
44
0.0000000001
40
0
40
0
40
0.032451199999999999
40
0.032451199999999999
10
627.89638701896615
20
20.111974061113649
30
0
10
627.84868701896607
20
20.069044061113654
30
0
0
SPLINE
5
470
100
AcDbEntity
8
0
100
AcDbSpline
70
0
71
1
72
4
73
2
74
0
42
0.000000001
43
0.0000000001
44
0.0000000001
40
0
40
0
40
0.032785500000000002
40
0.032785500000000002
10
391.06858701896664
20
20.247604061113691
30
0
10
391.02268701896662
20
20.201164061113687
30
0
0
SPLINE
5
471
100
AcDbEntity
8
0
100
AcDbSpline
70
0
71
2
72
6
73
3
74
0
42
0.000000001
43
0.0000000001
44
0.0000000001
40
0
40
0
40
0
40
1
40
1
40
1
10
418.30888701896652
20
19.329694061113692
30
0
10
403.49848701896661
20
19.329784061113688
30
0
10
405.81328701896661
20
34.14180406111366
30
0
0
SPLINE
5
472
100
AcDbEntity
8
0
100
AcDbSpline
70
0
71
1
72
4
73
2
74
0
42
0.000000001
43
0.0000000001
44
0.0000000001
40
0
40
0
40
19.886299999999999
40
19.886299999999999
10
457.79908701896653
20
19.329694061113678
30
0
10
418.30888701896652
20
19.329694061113692
30
0
0
SPLINE
5
473
100
AcDbEntity
8
0
100
AcDbSpline
70
0
71
1
72
4
73
2
74
0
42
0.000000001
43
0.0000000001
44
0.0000000001
40
0
40
0
40
0.040488300000000005
40
0.040488300000000005
10
391.94518701896669
20
21.79830406111369
30
0
10
391.91998701896659
20
21.721894061113698
30
0
0
SPLINE
5
474
100
AcDbEntity
8
0
100
AcDbSpline
70
0
71
1
72
4
73
2
74
0
42
0.000000001
43
0.0000000001
44
0.0000000001
40
0
40
0
40
0.038216800000000002
40
0.038216800000000002
10
625.80478701896607
20
19.332124061113653
30
0
10
625.72828701896606
20
19.330324061113654
30
0
0
SPLINE
5
475
100
AcDbEntity
8
0
100
AcDbSpline
70
0
71
1
72
4
73
2
74
0
42
0.000000001
43
0.0000000001
44
0.0000000001
40
0
40
0
40
0.032485
40
0.032485
10
390.92908701896653
20
20.111974061113692
30
0
10
390.88138701896668
20
20.069044061113694
30
0
0
SPLINE
5
476
100
AcDbEntity
8
0
100
AcDbSpline
70
0
71
1
72
4
73
2
74
0
42
0.000000001
43
0.0000000001
44
0.0000000001
40
0
40
0
40
0.034207700000000001
40
0.034207700000000001
10
626.65078701896607
20
19.448044061113649
30
0
10
626.58418701896619
20
19.431844061113654
30
0
0
SPLINE
5
477
100
AcDbEntity
8
0
100
AcDbSpline
70
0
71
1
72
4
73
2
74
0
42
0.000000001
43
0.0000000001
44
0.0000000001
40
0
40
0
40
0.033498400000000005
40
0.033498400000000005
10
626.84338701896604
20
19.504384061113651
30
0
10
626.78038701896594
20
19.484404061113658
30
0
0
SPLINE
5
478
100
AcDbEntity
8
0
100
AcDbSpline
70
0
71
1
72
4
73
2
74
0
42
0.000000001
43
0.0000000001
44
0.0000000001
40
0
40
0
40
0.032140800000000004
40
0.032140800000000004
10
390.52138701896661
20
19.80309406111369
30
0
10
390.46738701896658
20
19.769794061113686
30
0
0
SPLINE
5
479
100
AcDbEntity
8
0
100
AcDbSpline
70
0
71
1
72
4
73
2
74
0
42
0.000000001
43
0.0000000001
44
0.0000000001
40
0
40
0
40
16.1568
40
16.1568
10
561.4745870189663
20
19.329694061113667
30
0
10
529.39048701896627
20
19.329694061113667
30
0
0
SPLINE
5
480
100
AcDbEntity
8
0
100
AcDbSpline
70
0
71
1
72
4
73
2
74
0
42
0.000000001
43
0.0000000001
44
0.0000000001
40
0
40
0
40
0.033993900000000001
40
0.033993900000000001
10
626.71558701896618
20
19.465684061113649
30
0
10
626.65078701896607
20
19.448044061113649
30
0
0
SPLINE
5
481
100
AcDbEntity
8
0
100
AcDbSpline
70
0
71
1
72
4
73
2
74
0
42
0.000000001
43
0.0000000001
44
0.0000000001
40
0
40
0
40
0.037782400000000001
40
0.037782400000000001
10
625.87948701896596
20
19.335094061113658
30
0
10
625.80478701896607
20
19.332124061113653
30
0
0
SPLINE
5
482
100
AcDbEntity
8
0
100
AcDbSpline
70
0
71
1
72
4
73
2
74
0
42
0.000000001
43
0.0000000001
44
0.0000000001
40
0
40
0
40
0.032152199999999999
40
0.032152199999999999
10
390.73198701896666
20
19.947814061113686
30
0
10
390.68068701896664
20
19.909924061113689
30
0
0
SPLINE
5
483
100
AcDbEntity
8
0
100
AcDbSpline
70
0
71
1
72
4
73
2
74
0
42
0.000000001
43
0.0000000001
44
0.0000000001
40
0
40
0
40
0.032256900000000005
40
0.032256900000000005
10
627.48958701896595
20
19.803094061113651
30
0
10
627.43468701896597
20
19.76979406111365
30
0
0
SPLINE
5
484
100
AcDbEntity
8
0
100
AcDbSpline
70
0
71
1
72
4
73
2
74
0
42
0.000000001
43
0.0000000001
44
0.0000000001
40
0
40
0
40
0.032116200000000004
40
0.032116200000000004
10
390.62848701896661
20
19.872934061113693
30
0
10
390.57538701896658
20
19.837474061113692
30
0
0
SPLINE
5
485
100
AcDbEntity
8
0
100
AcDbSpline
70
0
71
1
72
4
73
2
74
0
42
0.000000001
43
0.0000000001
44
0.0000000001
40
0
40
0
40
0.032045499999999998
40
0.032045499999999998
10
627.54268701896603
20
19.837474061113653
30
0
10
627.48958701896595
20
19.803094061113651
30
0
0
SPLINE
5
486
100
AcDbEntity
8
0
100
AcDbSpline
70
0
71
1
72
4
73
2
74
0
42
0.000000001
43
0.0000000001
44
0.0000000001
40
0
40
0
40
0.033748199999999999
40
0.033748199999999999
10
626.78038701896594
20
19.484404061113658
30
0
10
626.71558701896618
20
19.465684061113649
30
0
0
SPLINE
5
487
100
AcDbEntity
8
0
100
AcDbSpline
70
0
71
1
72
4
73
2
74
0
42
0.000000001
43
0.0000000001
44
0.0000000001
40
0
40
0
40
9.0642999999999993e-05
40
9.0642999999999993e-05
10
390.52138701896661
20
19.80309406111369
30
0
10
390.52138701896661
20
19.80309406111369
30
0
0
SPLINE
5
488
100
AcDbEntity
8
0
100
AcDbSpline
70
0
71
1
72
4
73
2
74
0
42
0.000000001
43
0.0000000001
44
0.0000000001
40
0
40
0
40
0.032217200000000001
40
0.032217200000000001
10
390.68068701896664
20
19.909924061113689
30
0
10
390.62848701896661
20
19.872934061113693
30
0
0
SPLINE
5
489
100
AcDbEntity
8
0
100
AcDbSpline
70
0
71
1
72
4
73
2
74
0
42
0.000000001
43
0.0000000001
44
0.0000000001
40
0
40
0
40
0.033172399999999998
40
0.033172399999999998
10
626.96848701896613
20
19.547764061113657
30
0
10
626.90638701896614
20
19.52553406111365
30
0
0
SPLINE
5
490
100
AcDbEntity
8
0
100
AcDbSpline
70
0
71
1
72
4
73
2
74
0
42
0.000000001
43
0.0000000001
44
0.0000000001
40
0
40
0
40
0.032291900000000005
40
0.032291900000000005
10
390.35578701896662
20
19.707154061113688
30
0
10
390.29818701896659
20
19.677544061113686
30
0
0
SPLINE
5
491
100
AcDbEntity
8
0
100
AcDbSpline
70
0
71
1
72
4
73
2
74
0
42
0.000000001
43
0.0000000001
44
0.0000000001
40
0
40
0
40
0.037405599999999997
40
0.037405599999999997
10
625.95328701896619
20
19.339324061113654
30
0
10
625.87948701896596
20
19.335094061113658
30
0
0
SPLINE
5
492
100
AcDbEntity
8
0
100
AcDbSpline
70
0
71
1
72
4
73
2
74
0
42
0.000000001
43
0.0000000001
44
0.0000000001
40
0
40
0
40
0.035999699999999996
40
0.035999699999999996
10
626.24218701896598
20
19.368304061113655
30
0
10
626.17108701896632
20
19.359304061113647
30
0
0
SPLINE
5
493
100
AcDbEntity
8
0
100
AcDbSpline
70
0
71
1
72
4
73
2
74
0
42
0.000000001
43
0.0000000001
44
0.0000000001
40
0
40
0
40
0.0329425
40
0.0329425
10
627.02968701896611
20
19.571344061113649
30
0
10
626.96848701896613
20
19.547764061113657
30
0
0
SPLINE
5
494
100
AcDbEntity
8
0
100
AcDbSpline
70
0
71
1
72
4
73
2
74
0
42
0.000000001
43
0.0000000001
44
0.0000000001
40
0
40
0
40
0.0321018
40
0.0321018
10
390.78238701896657
20
19.986964061113692
30
0
10
390.73198701896666
20
19.947814061113686
30
0
0
SPLINE
5
495
100
AcDbEntity
8
0
100
AcDbSpline
70
0
71
1
72
4
73
2
74
0
42
0.000000001
43
0.0000000001
44
0.0000000001
40
0
40
0
40
0.032505400000000004
40
0.032505400000000004
10
627.20788701896606
20
19.649194061113651
30
0
10
627.14938701896619
20
19.622104061113657
30
0
0
SPLINE
5
496
100
AcDbEntity
8
0
100
AcDbSpline
70
0
71
1
72
4
73
2
74
0
42
0.000000001
43
0.0000000001
44
0.0000000001
40
0
40
0
40
0.033336300000000006
40
0.033336300000000006
10
626.90638701896614
20
19.52553406111365
30
0
10
626.84338701896604
20
19.504384061113651
30
0
0
SPLINE
5
497
100
AcDbEntity
8
0
100
AcDbSpline
70
0
71
1
72
4
73
2
74
0
42
0.000000001
43
0.0000000001
44
0.0000000001
40
0
40
0
40
0.036335800000000001
40
0.036335800000000001
10
626.17108701896632
20
19.359304061113647
30
0
10
626.0999870189662
20
19.351474061113652
30
0
0
SPLINE
5
498
100
AcDbEntity
8
0
100
AcDbSpline
70
0
71
2
72
6
73
3
74
0
42
0.000000001
43
0.0000000001
44
0.0000000001
40
0
40
0
40
0
40
1
40
1
40
1
10
566.41198701896633
20
19.329694061113656
30
0
10
564.44728701896622
20
19.329874061113664
30
0
10
562.87498701896629
20
19.580614061113664
30
0
0
SPLINE
5
499
100
AcDbEntity
8
0
100
AcDbSpline
70
0
71
2
72
6
73
3
74
0
42
0.000000001
43
0.0000000001
44
0.0000000001
40
0
40
0
40
0
40
1
40
1
40
1
10
459.76288701896647
20
19.886974061113676
30
0
10
458.96908701896649
20
19.330054061113682
30
0
10
457.79908701896653
20
19.329694061113678
30
0
0
SPLINE
5
500
100
AcDbEntity
8
0
100
AcDbSpline
70
0
71
2
72
6
73
3
74
0
42
0.000000001
43
0.0000000001
44
0.0000000001
40
0
40
0
40
0
40
1
40
1
40
1
10
529.39048701896627
20
19.329694061113667
30
0
10
522.56848701896638
20
19.331674061113677
30
0
10
519.95398701896636
20
20.711554061113667
30
0
0
SPLINE
5
501
100
AcDbEntity
8
0
100
AcDbSpline
70
0
71
1
72
4
73
2
74
0
42
0.000000001
43
0.0000000001
44
0.0000000001
40
0
40
0
40
0.032270699999999999
40
0.032270699999999999
10
390.83188701896665
20
20.02755406111369
30
0
10
390.78238701896657
20
19.986964061113692
30
0
0
SPLINE
5
502
100
AcDbEntity
8
0
100
AcDbSpline
70
0
71
1
72
4
73
2
74
0
42
0.000000001
43
0.0000000001
44
0.0000000001
40
0
40
0
40
9.0642999999999993e-05
40
9.0642999999999993e-05
10
390.88138701896668
20
20.069044061113694
30
0
10
390.88138701896668
20
20.069044061113694
30
0
0
SPLINE
5
503
100
AcDbEntity
8
0
100
AcDbSpline
70
0
71
1
72
4
73
2
74
0
42
0.000000001
43
0.0000000001
44
0.0000000001
40
0
40
0
40
0.032332099999999996
40
0.032332099999999996
10
627.32308701896613
20
19.707154061113648
30
0
10
627.26548701896627
20
19.67754406111365
30
0
0
SPLINE
5
504
100
AcDbEntity
8
0
100
AcDbSpline
70
0
71
1
72
4
73
2
74
0
42
0.000000001
43
0.0000000001
44
0.0000000001
40
0
40
0
40
0.032848400000000007
40
0.032848400000000007
10
627.08998701896599
20
19.59600406111365
30
0
10
627.02968701896611
20
19.571344061113649
30
0
0
SPLINE
5
505
100
AcDbEntity
8
0
100
AcDbSpline
70
0
71
2
72
6
73
3
74
0
42
0.000000001
43
0.0000000001
44
0.0000000001
40
0
40
0
40
0
40
1
40
1
40
1
10
718.13578701896608
20
43.989694061113589
30
0
10
715.67338701896597
20
43.987624061113586
30
0
10
714.87868701896616
20
41.523694061113602
30
0
0
SPLINE
5
506
100
AcDbEntity
8
0
100
AcDbSpline
70
0
71
1
72
4
73
2
74
0
42
0.000000001
43
0.0000000001
44
0.0000000001
40
0
40
0
40
3.1403799999999999
40
3.1403799999999999
10
745.03138701896603
20
28.204144061113624
30
0
10
746.98708701896578
20
34.125694061113599
30
0
0
SPLINE
5
507
100
AcDbEntity
8
0
100
AcDbSpline
70
0
71
1
72
4
73
2
74
0
42
0.000000001
43
0.0000000001
44
0.0000000001
40
0
40
0
40
1.3107200000000001
40
1.3107200000000001
10
714.87868701896616
20
41.523694061113602
30
0
10
714.04528701896595
20
39.057784061113594
30
0
0
SPLINE
5
508
100
AcDbEntity
8
0
100
AcDbSpline
70
0
71
1
72
4
73
2
74
0
42
0.000000001
43
0.0000000001
44
0.0000000001
40
0
40
0
40
2.61483
40
2.61483
10
737.12308701896609
20
34.125694061113599
30
0
10
735.49858701896596
20
29.193694061113618
30
0
0
SPLINE
5
509
100
AcDbEntity
8
0
100
AcDbSpline
70
0
71
2
72
6
73
3
74
0
42
0.000000001
43
0.0000000001
44
0.0000000001
40
0
40
0
40
0
40
1
40
1
40
1
10
718.82608701896606
20
61.243069991113543
30
0
10
716.36188701896594
20
61.245205691113547
30
0
10
715.52668701896607
20
58.785631061113563
30
0
0
SPLINE
5
510
100
AcDbEntity
8
0
100
AcDbSpline
70
0
71
1
72
4
73
2
74
0
42
0.000000001
43
0.0000000001
44
0.0000000001
40
0
40
0
40
3.0215199999999998e-05
40
3.0215199999999998e-05
10
732.24148701896581
20
26.72769406111362
30
0
10
732.24148701896581
20
26.727604061113617
30
0
0
SPLINE
5
511
100
AcDbEntity
8
0
100
AcDbSpline
70
0
71
2
72
6
73
3
74
0
42
0.000000001
43
0.0000000001
44
0.0000000001
40
0
40
0
40
0
40
1
40
1
40
1
10
703.54138701896602
20
21.79569406111364
30
0
10
702.75028701896622
20
19.331764061113645
30
0
10
705.21628701896611
20
19.329694061113642
30
0
0
SPLINE
5
512
100
AcDbEntity
8
0
100
AcDbSpline
70
0
71
1
72
4
73
2
74
0
42
0.000000001
43
0.0000000001
44
0.0000000001
40
0
40
0
40
4.2782099999999996
40
4.2782099999999996
10
716.07748701896583
20
26.72760406111362
30
0
10
707.58148701896607
20
26.72760406111362
30
0
0
SPLINE
5
513
100
AcDbEntity
8
0
100
AcDbSpline
70
0
71
1
72
4
73
2
74
0
42
0.000000001
43
0.0000000001
44
0.0000000001
40
0
40
0
40
2.6147900000000002
40
2.6147900000000002
10
742.74448701896608
20
51.387694061113571
30
0
10
741.12088701896596
20
46.455784061113583
30
0
0
SPLINE
5
514
100
AcDbEntity
8
0
100
AcDbSpline
70
0
71
3
72
8
73
4
74
0
42
0.000000001
43
0.0000000001
44
0.0000000001
40
0
40
0
40
0
40
0
40
1
40
1
40
1
40
1
10
752.60938701896612
20
51.387604061113564
30
0
10
754.74688701896582
20
57.960862061113552
30
0
10
751.69948701896601
20
61.243069991113543
30
0
10
743.4851870189658
20
61.243069991113543
30
0
0
SPLINE
5
515
100
AcDbEntity
8
0
100
AcDbSpline
70
0
71
2
72
6
73
3
74
0
42
0.000000001
43
0.0000000001
44
0.0000000001
40
0
40
0
40
0
40
1
40
1
40
1
10
735.44818701896588
20
36.5916940611136
30
0
10
737.90788701896588
20
36.589624061113597
30
0
10
737.12308701896609
20
34.125694061113599
30
0
0
SPLINE
5
516
100
AcDbEntity
8
0
100
AcDbSpline
70
0
71
2
72
6
73
3
74
0
42
0.000000001
43
0.0000000001
44
0.0000000001
40
0
40
0
40
0
40
1
40
1
40
1
10
707.58148701896607
20
26.72760406111362
30
0
10
705.11728701896595
20
26.725624061113628
30
0
10
704.33248701896616
20
24.261694061113634
30
0
0
SPLINE
5
517
100
AcDbEntity
8
0
100
AcDbSpline
70
0
71
2
72
6
73
3
74
0
42
0.000000001
43
0.0000000001
44
0.0000000001
40
0
40
0
40
0
40
1
40
1
40
1
10
741.0695870189661
20
53.853550061113566
30
0
10
743.53018701896588
20
53.851453061113574
30
0
10
742.74448701896608
20
51.387694061113571
30
0
0
SPLINE
5
518
100
AcDbEntity
8
0
100
AcDbSpline
70
0
71
1
72
4
73
2
74
0
42
0.000000001
43
0.0000000001
44
0.0000000001
40
0
40
0
40
8.6265900000000002
40
8.6265900000000002
10
716.07748701896583
20
19.329694061113631
30
0
10
733.2080870189659
20
19.329694061113631
30
0
0
SPLINE
5
519
100
AcDbEntity
8
0
100
AcDbSpline
70
0
71
1
72
4
73
2
74
0
42
0.000000001
43
0.0000000001
44
0.0000000001
40
0
40
0
40
0.036486699999999997
40
0.036486699999999997
10
391.65538701896662
20
21.088024061113689
30
0
10
391.62208701896657
20
21.023674061113695
30
0
0
SPLINE
5
520
100
AcDbEntity
8
0
100
AcDbSpline
70
0
71
1
72
4
73
2
74
0
42
0.000000001
43
0.0000000001
44
0.0000000001
40
0
40
0
40
0.033358699999999998
40
0.033358699999999998
10
391.20088701896663
20
20.39412406111369
30
0
10
391.15768701896661
20
20.343904061113687
30
0
0
ENDSEC
0
SECTION
2
OBJECTS
0
DICTIONARY
5
C
100
AcDbDictionary
3
ACAD_GROUP
350
D
3
ACAD_MLINESTYLE
350
17
0
DICTIONARY
5
D
100
AcDbDictionary
0
DICTIONARY
5
1A
330
C
100
AcDbDictionary
0
DICTIONARY
5
17
100
AcDbDictionary
0
ENDSEC
0
EOF
