0
SECTION
2
HEADER
9
$INSUNITS
70
4
9
$ACADVER
1
AC1014
9
$HANDSEED
5
FFFF
0
ENDSEC
0
SECTION
2
TABLES
0
TABLE
2
VPORT
5
8
100
AcDbSymbolTable
0
ENDTAB
0
TABLE
2
LTYPE
5
5
100
AcDbSymbolTable
0
LTYPE
5
14
100
AcDbSymbolTableRecord
100
AcDbLinetypeTableRecord
2
BYBLOCK
70
0
0
LTYPE
5
15
100
AcDbSymbolTableRecord
100
AcDbLinetypeTableRecord
2
BYLAYER
70
0
0
ENDTAB
0
TABLE
2
LAYER
5
2
100
AcDbSymbolTable
70
2
0
LAYER
5
50
100
AcDbSymbolTableRecord
100
AcDbLayerTableRecord
2
0
70
0
6
CONTINUOUS
0
ENDTAB
0
TABLE
2
STYLE
5
3
100
AcDbSymbolTable
70
1
0
STYLE
5
11
100
AcDbSymbolTableRecord
100
AcDbTextStyleTableRecord
2
STANDARD
70
0
0
ENDTAB
0
TABLE
2
VIEW
5
6
100
AcDbSymbolTable
70
0
0
ENDTAB
0
TABLE
2
UCS
5
7
100
AcDbSymbolTable
70
0
0
ENDTAB
0
TABLE
2
APPID
5
9
100
AcDbSymbolTable
70
2
0
APPID
5
12
100
AcDbSymbolTableRecord
100
AcDbRegAppTableRecord
2
ACAD
70
0
0
ENDTAB
0
TABLE
2
DIMSTYLE
5
A
100
AcDbSymbolTable
70
1
0
ENDTAB
0
TABLE
2
BLOCK_RECORD
5
1
100
AcDbSymbolTable
70
1
0
BLOCK_RECORD
5
1F
100
AcDbSymbolTableRecord
100
AcDbBlockTableRecord
2
*MODEL_SPACE
0
BLOCK_RECORD
5
1B
100
AcDbSymbolTableRecord
100
AcDbBlockTableRecord
2
*PAPER_SPACE
0
ENDTAB
0
ENDSEC
0
SECTION
2
BLOCKS
0
BLOCK
5
20
100
AcDbEntity
100
AcDbBlockBegin
2
*MODEL_SPACE
0
ENDBLK
5
21
100
AcDbEntity
100
AcDbBlockEnd
0
BLOCK
5
1C
100
AcDbEntity
100
AcDbBlockBegin
2
*PAPER_SPACE
0
ENDBLK
5
1D
100
AcDbEntity
100
AcDbBlockEnd
0
ENDSEC
0
SECTION
2
ENTITIES
0
LINE
5
100
100
AcDbEntity
8
0
100
AcDbLine
10
75.098889159350932
20
61.999999999999993
30
0
11
146.50000000000006
21
61.999999999999993
31
0
0
LWPOLYLINE
5
101
100
AcDbEntity
8
0
100
AcDbPolyline
90
6
70
1
43
0.0
10
17.999999999999968
20
53.271549586606199
10
17.999999999999989
20
22
42
0.41421356237309698
10
22.000000000000028
20
18
10
91.901110840649096
20
18.000000000000004
42
0.80904569923171255
10
93.534575080882092
20
25.651273007579718
10
23.633464240232982
20
56.922822594185902
42
0.54353342718724662
0
LINE
5
102
100
AcDbEntity
8
0
100
AcDbLine
10
1079
20
80
30
0
11
0
21
80
31
0
0
LINE
5
103
100
AcDbEntity
8
0
100
AcDbLine
10
0
20
80
30
0
11
0
21
0
31
0
0
LINE
5
104
100
AcDbEntity
8
0
100
AcDbLine
10
770.04999999999995
20
0
30
0
11
916.95000000000005
21
0
31
0
0
LINE
5
105
100
AcDbEntity
8
0
100
AcDbLine
10
1079
20
6.1629758220391547e-30
30
0
11
1079
21
80
31
0
0
LWPOLYLINE
5
106
100
AcDbEntity
8
0
100
AcDbPolyline
90
4
70
1
43
0.0
10
4.9500000000000099
20
74.000000000000014
42
-0.99999999999999989
10
10.050000000000008
20
74.000000000000014
10
10.050000000000011
20
64.713445739534336
42
-3.5837042115820914
10
4.9500000000000117
20
64.713445739534336
0
LINE
5
107
100
AcDbEntity
8
0
100
AcDbLine
10
618.05000000000007
20
74.000000000000014
30
0
11
618.05000000000007
21
64.713445739534322
31
0
0
ARC
5
108
100
AcDbEntity
8
0
100
AcDbCircle
10
615.5
20
60.500000000000007
30
0
40
4.9250000000000025
210
0
220
0
230
1
100
AcDbArc
50
-238.81744853933645
51
58.81744853933651
0
LINE
5
109
100
AcDbEntity
8
0
100
AcDbLine
10
612.95000000000005
20
64.713445739534322
30
0
11
612.95000000000005
21
74.000000000000014
31
0
0
ARC
5
110
100
AcDbEntity
8
0
100
AcDbCircle
10
615.5
20
74.000000000000014
30
0
40
2.5500000000000256
210
0
220
0
230
1
100
AcDbArc
50
0
51
180
0
LINE
5
111
100
AcDbEntity
8
0
100
AcDbLine
10
314.05000000000001
20
74.000000000000014
30
0
11
314.05000000000001
21
64.713445739534336
31
0
0
ARC
5
112
100
AcDbEntity
8
0
100
AcDbCircle
10
311.5
20
60.500000000000007
30
0
40
4.9249999999999998
210
0
220
0
230
1
100
AcDbArc
50
-238.81744853933657
51
58.817448539336027
0
LINE
5
113
100
AcDbEntity
8
0
100
AcDbLine
10
308.95000000000005
20
64.713445739534336
30
0
11
308.95000000000005
21
74.000000000000014
31
0
0
ARC
5
114
100
AcDbEntity
8
0
100
AcDbCircle
10
311.5
20
74.000000000000014
30
0
40
2.5499999999999901
210
0
220
0
230
1
100
AcDbArc
50
0
51
180
0
LINE
5
115
100
AcDbEntity
8
0
100
AcDbLine
10
162.05000000000001
20
74.000000000000014
30
0
11
162.05000000000001
21
64.713445739534336
31
0
0
ARC
5
116
100
AcDbEntity
8
0
100
AcDbCircle
10
159.5
20
60.500000000000007
30
0
40
4.9249999999999998
210
0
220
0
230
1
100
AcDbArc
50
-238.81744853933631
51
58.817448539336027
0
LINE
5
117
100
AcDbEntity
8
0
100
AcDbLine
10
156.95000000000002
20
64.713445739534336
30
0
11
156.95000000000002
21
74.000000000000014
31
0
0
ARC
5
118
100
AcDbEntity
8
0
100
AcDbCircle
10
159.50000000000003
20
74.000000000000014
30
0
40
2.5499999999999901
210
0
220
0
230
1
100
AcDbArc
50
0
51
180
0
LINE
5
119
100
AcDbEntity
8
0
100
AcDbLine
10
770.04999999999995
20
74.000000000000014
30
0
11
770.04999999999995
21
64.71344573953435
31
0
0
ARC
5
120
100
AcDbEntity
8
0
100
AcDbCircle
10
767.5
20
60.500000000000007
30
0
40
4.9250000000000096
210
0
220
0
230
1
100
AcDbArc
50
-238.8174485393352
51
58.817448539337896
0
LINE
5
121
100
AcDbEntity
8
0
100
AcDbLine
10
764.94999999999993
20
64.713445739534293
30
0
11
764.95000000000005
21
74.000000000000014
31
0
0
ARC
5
122
100
AcDbEntity
8
0
100
AcDbCircle
10
767.5
20
74.000000000000014
30
0
40
2.5499999999999545
210
0
220
0
230
1
100
AcDbArc
50
0
51
180
0
LINE
5
123
100
AcDbEntity
8
0
100
AcDbLine
10
466.05000000000007
20
74.000000000000014
30
0
11
466.05000000000007
21
64.713445739534322
31
0
0
ARC
5
124
100
AcDbEntity
8
0
100
AcDbCircle
10
463.5
20
60.500000000000007
30
0
40
4.9250000000000025
210
0
220
0
230
1
100
AcDbArc
50
-238.81744853933594
51
58.81744853933651
0
LINE
5
125
100
AcDbEntity
8
0
100
AcDbLine
10
460.94999999999999
20
64.713445739534322
30
0
11
460.94999999999999
21
74.000000000000014
31
0
0
ARC
5
126
100
AcDbEntity
8
0
100
AcDbCircle
10
463.5
20
74.000000000000014
30
0
40
2.5500000000000256
210
0
220
0
230
1
100
AcDbArc
50
0
51
180
0
LINE
5
127
100
AcDbEntity
8
0
100
AcDbLine
10
764.95000000000005
20
0
30
0
11
764.95000000000005
21
5.9999999999999876
31
0
0
ARC
5
128
100
AcDbEntity
8
0
100
AcDbCircle
10
767.5
20
6.000000000000032
30
0
40
2.5499999999999545
210
0
220
0
230
1
100
AcDbArc
50
0
51
180
0
LINE
5
129
100
AcDbEntity
8
0
100
AcDbLine
10
770.04999999999995
20
5.9999999999999876
30
0
11
770.04999999999995
21
0
31
0
0
LINE
5
130
100
AcDbEntity
8
0
100
AcDbLine
10
0
20
0
30
0
11
4.9500000000000091
21
0
31
0
0
LINE
5
131
100
AcDbEntity
8
0
100
AcDbLine
10
4.9500000000000091
20
0
30
0
11
4.9500000000000099
21
5.9999999999999876
31
0
0
ARC
5
132
100
AcDbEntity
8
0
100
AcDbCircle
10
7.5000000000000089
20
5.9999999999999876
30
0
40
2.5499999999999989
210
0
220
0
230
1
100
AcDbArc
50
0
51
180
0
LINE
5
133
100
AcDbEntity
8
0
100
AcDbLine
10
10.050000000000008
20
5.9999999999999876
30
0
11
10.050000000000008
21
0
31
0
0
LINE
5
134
100
AcDbEntity
8
0
100
AcDbLine
10
10.050000000000008
20
0
30
0
11
156.95000000000002
21
0
31
0
0
LINE
5
135
100
AcDbEntity
8
0
100
AcDbLine
10
156.95000000000002
20
0
30
0
11
156.95000000000005
21
5.9999999999999876
31
0
0
ARC
5
136
100
AcDbEntity
8
0
100
AcDbCircle
10
159.50000000000003
20
6.0000000000000053
30
0
40
2.5499999999999901
210
-0
220
0
230
1
100
AcDbArc
50
0
51
180
0
LINE
5
137
100
AcDbEntity
8
0
100
AcDbLine
10
162.05000000000001
20
5.9999999999999876
30
0
11
162.05000000000001
21
0
31
0
0
LINE
5
138
100
AcDbEntity
8
0
100
AcDbLine
10
162.05000000000001
20
0
30
0
11
308.95000000000005
21
0
31
0
0
LINE
5
139
100
AcDbEntity
8
0
100
AcDbLine
10
308.95000000000005
20
0
30
0
11
308.95000000000005
21
5.9999999999999876
31
0
0
ARC
5
140
100
AcDbEntity
8
0
100
AcDbCircle
10
311.5
20
5.9999999999999787
30
0
40
2.5499999999999901
210
-0
220
0
230
1
100
AcDbArc
50
0
51
180
0
LINE
5
141
100
AcDbEntity
8
0
100
AcDbLine
10
314.05000000000001
20
5.9999999999999876
30
0
11
314.05000000000001
21
0
31
0
0
LINE
5
142
100
AcDbEntity
8
0
100
AcDbLine
10
314.05000000000001
20
0
30
0
11
460.94999999999999
21
0
31
0
0
LINE
5
143
100
AcDbEntity
8
0
100
AcDbLine
10
460.94999999999999
20
0
30
0
11
460.94999999999999
21
5.9999999999999876
31
0
0
ARC
5
144
100
AcDbEntity
8
0
100
AcDbCircle
10
463.5
20
5.9999999999999254
30
0
40
2.5500000000000256
210
-0
220
0
230
1
100
AcDbArc
50
0
51
180
0
LINE
5
145
100
AcDbEntity
8
0
100
AcDbLine
10
466.05000000000007
20
5.9999999999999876
30
0
11
466.05000000000007
21
0
31
0
0
LINE
5
146
100
AcDbEntity
8
0
100
AcDbLine
10
466.05000000000007
20
0
30
0
11
612.95000000000005
21
0
31
0
0
LINE
5
147
100
AcDbEntity
8
0
100
AcDbLine
10
612.95000000000005
20
0
30
0
11
612.95000000000005
21
5.9999999999999876
31
0
0
ARC
5
148
100
AcDbEntity
8
0
100
AcDbCircle
10
615.5
20
5.9999999999999254
30
0
40
2.5500000000000256
210
0
220
-0
230
1
100
AcDbArc
50
0
51
180
0
LINE
5
149
100
AcDbEntity
8
0
100
AcDbLine
10
618.05000000000007
20
5.9999999999999876
30
0
11
618.05000000000007
21
0
31
0
0
LINE
5
150
100
AcDbEntity
8
0
100
AcDbLine
10
618.05000000000007
20
0
30
0
11
764.95000000000005
21
0
31
0
0
SPLINE
5
151
100
AcDbEntity
8
0
100
AcDbSpline
70
0
71
3
72
8
73
4
74
0
42
0.000000001
43
0.0000000001
44
0.0000000001
40
-1
40
-1
40
-1
40
-1
40
0
40
0
40
0
40
0
10
560.89815419292722
20
58.106783674046554
30
0
10
560.97143249292697
20
57.796244974046502
30
0
10
560.83232459292719
20
57.474422074046593
30
0
10
560.55600419292716
20
57.314894374046482
30
0
0
LINE
5
152
100
AcDbEntity
8
0
100
AcDbLine
10
560.55600419292716
20
57.314894374046474
30
0
11
556.69701479292712
21
55.08681267404689
31
0
0
SPLINE
5
153
100
AcDbEntity
8
0
100
AcDbSpline
70
0
71
3
72
8
73
4
74
0
42
0.000000001
43
0.0000000001
44
0.0000000001
40
-0.97140804990077834
40
-0.97140804990077834
40
-0.97140804990077834
40
-0.97140804990077834
40
0
40
0
40
0
40
0
10
544.02747533133527
20
61.999999999999993
30
0
10
543.73609420110699
20
62.099601666149923
30
0
10
543.5385932929272
20
62.373927521717007
30
0
10
543.5385932929272
20
62.683868374046611
30
0
0
LINE
5
154
100
AcDbEntity
8
0
100
AcDbLine
10
543.5385932929272
20
62.683868374046611
30
0
11
543.5385932929272
21
67.139875474046647
31
0
0
SPLINE
5
155
100
AcDbEntity
8
0
100
AcDbSpline
70
0
71
3
72
8
73
4
74
0
42
0.000000001
43
0.0000000001
44
0.0000000001
40
-1
40
-1
40
-1
40
-1
40
0
40
0
40
0
40
0
10
560.89815419292722
20
71.716960174046676
30
0
10
559.84223639292725
20
67.241694574046448
30
0
10
559.84223639292725
20
62.582049274046561
30
0
10
560.89815419292722
20
58.106783674046554
30
0
0
LWPOLYLINE
5
156
100
AcDbEntity
8
0
100
AcDbPolyline
90
4
70
1
43
0.0
10
1074.05
20
64.71344573953435
10
1074.05
20
74.000000000000014
42
0.99999999999999989
10
1068.95
20
74.000000000000014
10
1068.95
20
64.713445739534293
42
3.5837042115820483
0
ARC
5
157
100
AcDbEntity
8
0
100
AcDbCircle
10
919.5
20
60.500000000000007
30
0
40
4.9250000000000096
210
0
220
0
230
1
100
AcDbArc
50
-238.8174485393352
51
58.817448539337896
0
LINE
5
158
100
AcDbEntity
8
0
100
AcDbLine
10
916.94999999999993
20
64.713445739534293
30
0
11
916.95000000000005
21
74.000000000000014
31
0
0
ARC
5
159
100
AcDbEntity
8
0
100
AcDbCircle
10
919.5
20
74.000000000000014
30
0
40
2.5499999999999545
210
0
220
0
230
1
100
AcDbArc
50
0
51
180
0
LINE
5
160
100
AcDbEntity
8
0
100
AcDbLine
10
922.04999999999995
20
74.000000000000014
30
0
11
922.04999999999995
21
64.71344573953435
31
0
0
LINE
5
161
100
AcDbEntity
8
0
100
AcDbLine
10
916.95000000000005
20
0
30
0
11
916.95000000000005
21
5.9999999999999876
31
0
0
ARC
5
162
100
AcDbEntity
8
0
100
AcDbCircle
10
919.5
20
6.000000000000032
30
0
40
2.5499999999999545
210
0
220
0
230
1
100
AcDbArc
50
0
51
180
0
LINE
5
163
100
AcDbEntity
8
0
100
AcDbLine
10
922.04999999999995
20
5.9999999999999876
30
0
11
922.04999999999995
21
0
31
0
0
LINE
5
164
100
AcDbEntity
8
0
100
AcDbLine
10
922.04999999999995
20
0
30
0
11
1068.95
21
0
31
0
0
LINE
5
165
100
AcDbEntity
8
0
100
AcDbLine
10
1068.95
20
0
30
0
11
1068.95
21
5.9999999999999876
31
0
0
ARC
5
166
100
AcDbEntity
8
0
100
AcDbCircle
10
1071.5
20
6.000000000000032
30
0
40
2.5499999999999545
210
0
220
0
230
1
100
AcDbArc
50
0
51
180
0
LINE
5
167
100
AcDbEntity
8
0
100
AcDbLine
10
1074.05
20
5.9999999999999876
30
0
11
1074.05
21
0
31
0
0
LINE
5
168
100
AcDbEntity
8
0
100
AcDbLine
10
1074.05
20
0
30
0
11
1079
21
6.1629758220391547e-30
31
0
0
SPLINE
5
169
100
AcDbEntity
8
0
100
AcDbSpline
70
0
71
3
72
8
73
4
74
0
42
0.000000001
43
0.0000000001
44
0.0000000001
40
-1
40
-1
40
-1
40
-1
40
0
40
0
40
0
40
0
10
543.5385932929272
20
67.139875474046647
30
0
10
543.5385932929272
20
67.45893897404649
30
0
10
543.7478915929272
20
67.740267874046552
30
0
10
544.05344579292739
20
67.832081674046734
30
0
0
SPLINE
5
170
100
AcDbEntity
8
0
100
AcDbSpline
70
0
71
3
72
8
73
4
74
0
42
0.000000001
43
0.0000000001
44
0.0000000001
40
-1
40
-1
40
-1
40
-1
40
0
40
0
40
0
40
0
10
544.05344579292739
20
67.832081674046734
30
0
10
548.45709929292707
20
69.155270974046445
30
0
10
552.49244009292727
20
71.485167574046386
30
0
10
555.84016799292715
20
74.637243274046398
30
0
0
LINE
5
171
100
AcDbEntity
8
0
100
AcDbLine
10
554.43214173888191
20
54.348726992420318
30
0
11
541.13346424023302
21
48.399318637761574
31
0
0
LINE
5
172
100
AcDbEntity
8
0
100
AcDbLine
10
537.86653575976698
20
48.399318637761581
30
0
11
524.56785826111832
21
54.348726992420318
31
0
0
LWPOLYLINE
5
173
100
AcDbEntity
8
0
100
AcDbPolyline
90
6
70
1
43
0.0
10
225.46542491911788
20
54.348726992420325
10
296.86653575976715
20
22.406124774235103
42
0.5435334271872474
10
302.50000000000017
20
26.057397781814732
10
302.50000000000045
20
57.999999999999964
42
0.41421356237309764
10
298.50000000000045
20
61.999999999999993
10
227.09888915935085
20
61.999999999999993
42
0.80904569923171077
0
LWPOLYLINE
5
174
100
AcDbEntity
8
0
100
AcDbPolyline
90
6
70
1
43
0.0
10
320.5
20
53.942602218185158
10
320.5
20
22.000000000000007
42
0.41421356237309503
10
324.5
20
18
10
395.90111084064921
20
18.000000000000004
42
0.80904569923170855
10
397.53457508088223
20
25.65127300757969
10
326.13346424023302
20
57.593875225764833
42
0.54353342718724951
0
LWPOLYLINE
5
175
100
AcDbEntity
8
0
100
AcDbPolyline
90
6
70
1
43
0.0
10
537.86653575976709
20
31.600681362238355
10
524.56785826111866
20
25.651273007579704
42
0.8090456992317091
10
526.20132250135168
20
18
10
552.79867749864889
20
18.000000000000004
42
0.80904569923170855
10
554.43214173888191
20
25.651273007579697
10
541.13346424023314
20
31.600681362238365
42
0.21348921135278379
0
LWPOLYLINE
5
176
100
AcDbEntity
8
0
100
AcDbPolyline
90
6
70
1
43
0.0
10
835.09888915935085
20
18
10
906.5
20
18.000000000000004
42
0.41421356237309503
10
910.50000000000011
20
22
10
910.50000000000011
20
53.942602218185115
42
0.54353342718724795
10
904.86653575976698
20
57.593875225764833
10
833.46542491911782
20
25.651273007579679
42
0.80904569923170766
0
LINE
5
177
100
AcDbEntity
8
0
100
AcDbLine
10
514.19684762123484
20
36.348726992420318
30
0
11
478.13346424023325
21
20.215108111445943
31
0
0
LINE
5
178
100
AcDbEntity
8
0
100
AcDbLine
10
472.50000000000023
20
23.866381119025611
30
0
11
472.50000000000011
21
56.133618880974339
31
0
0
LINE
5
179
100
AcDbEntity
8
0
100
AcDbLine
10
478.13346424023325
20
59.784891888554029
30
0
11
514.19684762123484
21
43.651273007579682
31
0
0
LWPOLYLINE
5
180
100
AcDbEntity
8
0
100
AcDbPolyline
90
6
70
1
43
0.0
10
168.49999999999994
20
53.942602218185165
10
168.49999999999994
20
21.999999999999996
42
0.41421356237309503
10
172.5
20
18
10
243.90111084064927
20
18.000000000000004
42
0.8090456992317081
10
245.53457508088229
20
25.651273007579682
10
174.133464240233
20
57.593875225764847
42
0.54353342718724951
0
LINE
5
181
100
AcDbEntity
8
0
100
AcDbLine
10
150.5
20
58
30
0
11
150.5
21
26.057397781814874
31
0
0
ARC
5
182
100
AcDbEntity
8
0
100
AcDbCircle
10
146.50000000000003
20
26.057397781814874
30
0
40
3.9999999999999991
210
0
220
0
230
1
100
AcDbArc
50
-114.10223450116086
51
0
0
LINE
5
183
100
AcDbEntity
8
0
100
AcDbLine
10
144.86653575976703
20
22.406124774235188
30
0
11
73.465424919117908
21
54.348726992420296
31
0
0
ARC
5
184
100
AcDbEntity
8
0
100
AcDbCircle
10
75.098889159350918
20
58
30
0
40
4.0000000000000036
210
0
220
-0
230
1
100
AcDbArc
50
89.999999999999801
51
245.89776549883908
0
ARC
5
185
100
AcDbEntity
8
0
100
AcDbCircle
10
146.50000000000003
20
58
30
0
40
3.999999999999968
210
0
220
-0
230
1
100
AcDbArc
50
0
51
89.999999999999588
0
LWPOLYLINE
5
186
100
AcDbEntity
8
0
100
AcDbPolyline
90
6
70
1
43
0.0
10
377.46542491911788
20
54.348726992420296
10
448.86653575976732
20
22.406124774235042
42
0.54353342718725106
10
454.50000000000023
20
26.05739778181475
10
454.50000000000011
20
58.000000000000014
42
0.4142135623730937
10
450.50000000000011
20
61.999999999999993
10
379.0988891593509
20
61.999999999999993
42
0.80904569923170877
0
LWPOLYLINE
5
187
100
AcDbEntity
8
0
100
AcDbPolyline
90
6
70
1
43
0.0
10
564.80315237876471
20
36.348726992420303
10
600.86653575976686
20
20.215108111445382
42
0.54353342718724984
10
606.49999999999989
20
23.86638111902505
10
606.49999999999989
20
56.133618880974971
42
0.54353342718724995
10
600.86653575976686
20
59.784891888554633
10
564.80315237876471
20
43.651273007579647
42
0.64813991034203189
0
LINE
5
188
100
AcDbEntity
8
0
100
AcDbLine
10
701.53457508088206
20
54.348726992420339
30
0
11
630.1334642402328
21
22.406124774235128
31
0
0
LINE
5
189
100
AcDbEntity
8
0
100
AcDbLine
10
624.49999999999977
20
26.057397781814835
30
0
11
624.5
21
58.000000000000014
31
0
0
LWPOLYLINE
5
190
100
AcDbEntity
8
0
100
AcDbPolyline
90
6
70
1
43
0.0
10
934.13346424023302
20
22.406124774235174
10
1005.5345750808823
20
54.348726992420268
42
0.80904569923169678
10
1003.9011108406492
20
61.999999999999993
10
932.5
20
61.999999999999993
42
0.41421356237309503
10
928.5
20
58
10
928.5
20
26.057397781814924
42
0.54353342718724706
0
LWPOLYLINE
5
191
100
AcDbEntity
8
0
100
AcDbPolyline
90
6
70
1
43
0.0
10
782.13346424023302
20
22.406124774235131
10
853.53457508088218
20
54.348726992420282
42
0.80904569923170888
10
851.90111084064915
20
61.999999999999993
10
780.49999999999966
20
62
42
0.41421356237309698
10
776.49999999999977
20
57.999999999999972
10
776.49999999999989
20
26.057397781814771
42
0.54353342718724773
0
LWPOLYLINE
5
192
100
AcDbEntity
8
0
100
AcDbPolyline
90
6
70
1
43
0.0
10
758.5
20
22
10
758.5
20
53.942602218185087
42
0.54353342718725028
10
752.86653575976686
20
57.593875225764741
10
681.46542491911771
20
25.651273007579679
42
0.80904569923170766
10
683.09888915935073
20
18
10
754.49999999999989
20
18.000000000000004
42
0.41421356237309503
0
LWPOLYLINE
5
193
100
AcDbEntity
8
0
100
AcDbPolyline
90
6
70
1
43
0.0
10
987.09888915935096
20
18
10
1057
20
18
42
0.41421356237309503
10
1061
20
22
10
1061
20
53.27154958660617
42
0.54353342718725006
10
1055.366535759767
20
56.922822594185831
10
985.46542491911794
20
25.651273007579679
42
0.80904569923170766
0
ARC
5
194
100
AcDbEntity
8
0
100
AcDbCircle
10
476.50000000000023
20
23.866381119025611
30
0
40
3.9999999999999858
210
0
220
0
230
1
100
AcDbArc
50
180
51
294.10223450116132
0
ARC
5
195
100
AcDbEntity
8
0
100
AcDbCircle
10
476.50000000000023
20
56.133618880974339
30
0
40
3.9999999999999862
210
0
220
-0
230
1
100
AcDbArc
50
65.897765498838623
51
180
0
ARC
5
196
100
AcDbEntity
8
0
100
AcDbCircle
10
512.56338338100181
20
39.999999999999986
30
0
40
3.9999999999999902
210
-0
220
0
230
1
100
AcDbArc
50
-65.897765498838666
51
65.897765498838822
0
ARC
5
197
100
AcDbEntity
8
0
100
AcDbCircle
10
539.5
20
52.050591645341257
30
0
40
3.9999999999999942
210
0
220
0
230
1
100
AcDbArc
50
245.89776549883868
51
294.10223450116121
0
ARC
5
198
100
AcDbEntity
8
0
100
AcDbCircle
10
526.20132250135134
20
58
30
0
40
3.9999999999999947
210
0
220
-0
230
1
100
AcDbArc
50
90
51
245.89776549883874
0
ARC
5
199
100
AcDbEntity
8
0
100
AcDbCircle
10
552.79867749864889
20
58
30
0
40
4.0000000000000018
210
0
220
0
230
1
100
AcDbArc
50
294.10223450116121
51
317.24306298306095
0
ARC
5
200
100
AcDbEntity
8
0
100
AcDbCircle
10
628.49999999999977
20
26.057397781814814
30
0
40
3.9999999999999858
210
0
220
0
230
1
100
AcDbArc
50
180
51
294.10223450116121
0
ARC
5
201
100
AcDbEntity
8
0
100
AcDbCircle
10
628.5
20
58
30
0
40
4.0000000000000036
210
-0
220
0
230
1
100
AcDbArc
50
90
51
180
0
LINE
5
202
100
AcDbEntity
8
0
100
AcDbLine
10
628.5
20
62
30
0
11
699.90111084064904
21
61.999999999999993
31
0
0
ARC
5
203
100
AcDbEntity
8
0
100
AcDbCircle
10
699.90111084064904
20
58
30
0
40
3.9999999999999862
210
-0
220
0
230
1
100
AcDbArc
50
-65.897765498838623
51
90
0
LINE
5
204
100
AcDbEntity
8
0
100
AcDbLine
10
526.20132250135134
20
61.999999999999993
30
0
11
544.02747533133527
21
61.999999999999993
31
0
0
SPLINE
5
205
100
AcDbEntity
8
0
100
AcDbSpline
70
0
71
3
72
8
73
4
74
0
42
0.000000001
43
0.0000000001
44
0.0000000001
40
-1
40
-1
40
-1
40
-1
40
0
40
0
40
0
40
0
10
555.84016799292715
20
74.637243274046398
30
0
10
555.97084079292711
20
74.760282574046471
30
0
10
556.13806409292704
20
74.826854374046491
30
0
10
556.30866629292711
20
74.833204474046454
30
0
0
SPLINE
5
206
100
AcDbEntity
8
0
100
AcDbSpline
70
0
71
3
72
8
73
4
74
0
42
0.000000001
43
0.0000000001
44
0.0000000001
40
-1
40
-1
40
-1
40
-1
40
0
40
0
40
0
40
0
10
556.30866629292711
20
74.833204474046454
30
0
10
556.44135749292718
20
74.838165274046403
30
0
10
556.57612109292711
20
74.806724974046404
30
0
10
556.69701479292712
20
74.736930574046326
30
0
0
LINE
5
207
100
AcDbEntity
8
0
100
AcDbLine
10
556.69701479292712
20
74.736930574046326
30
0
11
560.55600419292716
21
72.508850374046332
31
0
0
SPLINE
5
208
100
AcDbEntity
8
0
100
AcDbSpline
70
0
71
3
72
8
73
4
74
0
42
0.000000001
43
0.0000000001
44
0.0000000001
40
-1
40
-1
40
-1
40
-1
40
0
40
0
40
0
40
0
10
560.55600419292716
20
72.508850374046332
30
0
10
560.83232459292719
20
72.349314574046375
30
0
10
560.97143309292721
20
72.027498874046259
30
0
10
560.89815419292722
20
71.716960174046676
30
0
0
SPLINE
5
209
100
AcDbEntity
8
0
100
AcDbSpline
70
0
71
3
72
8
73
4
74
0
42
0.000000001
43
0.0000000001
44
0.0000000001
40
-1
40
-1
40
-1
40
-1
40
0
40
0
40
0
40
0
10
556.69701479292712
20
55.08681267404689
30
0
10
556.42068659292715
20
54.927276874046704
30
0
10
556.0724747929271
20
54.967778674046606
30
0
10
555.84016799292715
20
55.186496374046676
30
0
0
SPLINE
5
210
100
AcDbEntity
8
0
100
AcDbSpline
70
0
71
3
72
8
73
4
74
0
42
0.000000001
43
0.0000000001
44
0.0000000001
40
-1
40
-1
40
-1
40
-1
40
-0.98961414342348408
40
-0.98961414342348408
40
-0.98961414342348408
40
-0.98961414342348408
10
555.84016799292715
20
55.186496374046676
30
0
10
555.80539897110054
20
55.219233473657908
30
0
10
555.7705557792093
20
55.251881887534388
30
0
10
555.7356387749594
20
55.284441408944957
30
0
0
ENDSEC
0
SECTION
2
OBJECTS
0
DICTIONARY
5
C
100
AcDbDictionary
3
ACAD_GROUP
350
D
3
ACAD_MLINESTYLE
350
17
0
DICTIONARY
5
D
100
AcDbDictionary
0
DICTIONARY
5
1A
330
C
100
AcDbDictionary
0
DICTIONARY
5
17
100
AcDbDictionary
0
ENDSEC
0
EOF
