  0
SECTION
  2
HEADER
  9
$ACADVER
  1
AC1009
  0
ENDSEC
  0
SECTION
  2
ENTITIES
  0
POLYLINE
  5
90
  8
Layer_0
  62
0
  70
1
  66
1
  10
0
  20
0
  30
0
  0
VERTEX
  5
90
  8
Layer_0
  10
200
  20
0
  0
VERTEX
  5
91
  8
Layer_0
  10
0
  20
0
  0
VERTEX
  5
92
  8
Layer_0
  10
0
  20
217.5
  0
VERTEX
  5
93
  8
Layer_0
  10
200
  20
217.5
  0
VERTEX
  5
94
  8
Layer_0
  10
200
  20
0
  0
SEQEND
  0
POLYLINE
  5
96
  8
Layer_0
  62
0
  70
1
  66
1
  10
0
  20
0
  30
0
  0
VERTEX
  5
96
  8
Layer_0
  10
101.88167
  20
47.978271
  0
VERTEX
  5
97
  8
Layer_0
  10
103.0518
  20
48.021721
  0
VERTEX
  5
98
  8
Layer_0
  10
104.21913
  20
48.094887
  0
VERTEX
  5
99
  8
Layer_0
  10
105.38309
  20
48.197639
  0
VERTEX
  5
9a
  8
Layer_0
  10
106.54312
  20
48.329849
  0
VERTEX
  5
9b
  8
Layer_0
  10
107.69868
  20
48.491394
  0
VERTEX
  5
9c
  8
Layer_0
  10
108.84922
  20
48.682144
  0
VERTEX
  5
9d
  8
Layer_0
  10
109.99419
  20
48.90197
  0
VERTEX
  5
9e
  8
Layer_0
  10
111.13302
  20
49.150742
  0
VERTEX
  5
9f
  8
Layer_0
  10
112.26517
  20
49.428337
  0
VERTEX
  5
a0
  8
Layer_0
  10
113.39009
  20
49.734623
  0
VERTEX
  5
a1
  8
Layer_0
  10
114.50723
  20
50.069473
  0
VERTEX
  5
a2
  8
Layer_0
  10
115.61604
  20
50.432762
  0
VERTEX
  5
a3
  8
Layer_0
  10
116.71596
  20
50.824364
  0
VERTEX
  5
a4
  8
Layer_0
  10
117.80643
  20
51.244141
  0
VERTEX
  5
a5
  8
Layer_0
  10
118.88692
  20
51.691971
  0
VERTEX
  5
a6
  8
Layer_0
  10
119.95686
  20
52.167725
  0
VERTEX
  5
a7
  8
Layer_0
  10
121.60104
  20
52.95649
  0
VERTEX
  5
a8
  8
Layer_0
  10
123.21886
  20
53.795174
  0
VERTEX
  5
a9
  8
Layer_0
  10
124.8092
  20
54.683067
  0
VERTEX
  5
aa
  8
Layer_0
  10
126.37096
  20
55.619492
  0
VERTEX
  5
ab
  8
Layer_0
  10
127.90302
  20
56.603752
  0
VERTEX
  5
ac
  8
Layer_0
  10
129.40427
  20
57.635162
  0
VERTEX
  5
ad
  8
Layer_0
  10
130.8736
  20
58.713028
  0
VERTEX
  5
ae
  8
Layer_0
  10
132.30989
  20
59.83667
  0
VERTEX
  5
af
  8
Layer_0
  10
132.30989
  20
88.03418
  0
VERTEX
  5
b0
  8
Layer_0
  10
100.12093
  20
87.982422
  0
VERTEX
  5
b1
  8
Layer_0
  10
100.12093
  20
79.066895
  0
VERTEX
  5
b2
  8
Layer_0
  10
122.4615
  20
79.066895
  0
VERTEX
  5
b3
  8
Layer_0
  10
122.4615
  20
64.91626
  0
VERTEX
  5
b4
  8
Layer_0
  10
121.24405
  20
63.940536
  0
VERTEX
  5
b5
  8
Layer_0
  10
119.97053
  20
63.04171
  0
VERTEX
  5
b6
  8
Layer_0
  10
118.64458
  20
62.222191
  0
VERTEX
  5
b7
  8
Layer_0
  10
117.26985
  20
61.484375
  0
VERTEX
  5
b8
  8
Layer_0
  10
116.28773
  20
60.987156
  0
VERTEX
  5
b9
  8
Layer_0
  10
115.29379
  20
60.515232
  0
VERTEX
  5
ba
  8
Layer_0
  10
114.28854
  20
60.068794
  0
VERTEX
  5
bb
  8
Layer_0
  10
113.27246
  20
59.648048
  0
VERTEX
  5
bc
  8
Layer_0
  10
112.24604
  20
59.253181
  0
VERTEX
  5
bd
  8
Layer_0
  10
111.20978
  20
58.884392
  0
VERTEX
  5
be
  8
Layer_0
  10
110.16417
  20
58.541874
  0
VERTEX
  5
bf
  8
Layer_0
  10
109.1097
  20
58.22583
  0
VERTEX
  5
c0
  8
Layer_0
  10
107.9503
  20
57.927193
  0
VERTEX
  5
c1
  8
Layer_0
  10
106.78353
  20
57.671646
  0
VERTEX
  5
c2
  8
Layer_0
  10
105.61057
  20
57.459167
  0
VERTEX
  5
c3
  8
Layer_0
  10
104.4326
  20
57.289742
  0
VERTEX
  5
c4
  8
Layer_0
  10
103.25079
  20
57.163338
  0
VERTEX
  5
c5
  8
Layer_0
  10
102.06631
  20
57.079933
  0
VERTEX
  5
c6
  8
Layer_0
  10
100.88036
  20
57.039509
  0
VERTEX
  5
c7
  8
Layer_0
  10
99.694084
  20
57.042038
  0
VERTEX
  5
c8
  8
Layer_0
  10
98.508682
  20
57.087498
  0
VERTEX
  5
c9
  8
Layer_0
  10
97.32534
  20
57.175858
  0
VERTEX
  5
ca
  8
Layer_0
  10
96.14521
  20
57.307102
  0
VERTEX
  5
cb
  8
Layer_0
  10
94.969475
  20
57.481205
  0
VERTEX
  5
cc
  8
Layer_0
  10
93.799316
  20
57.698139
  0
VERTEX
  5
cd
  8
Layer_0
  10
92.63591
  20
57.957886
  0
VERTEX
  5
ce
  8
Layer_0
  10
91.480438
  20
58.260414
  0
VERTEX
  5
cf
  8
Layer_0
  10
90.334061
  20
58.605713
  0
VERTEX
  5
d0
  8
Layer_0
  10
89.461266
  20
58.902412
  0
VERTEX
  5
d1
  8
Layer_0
  10
88.598915
  20
59.22625
  0
VERTEX
  5
d2
  8
Layer_0
  10
87.747627
  20
59.576935
  0
VERTEX
  5
d3
  8
Layer_0
  10
86.90802
  20
59.954178
  0
VERTEX
  5
d4
  8
Layer_0
  10
86.080704
  20
60.357685
  0
VERTEX
  5
d5
  8
Layer_0
  10
85.266327
  20
60.787167
  0
VERTEX
  5
d6
  8
Layer_0
  10
84.465477
  20
61.242336
  0
VERTEX
  5
d7
  8
Layer_0
  10
83.678787
  20
61.7229
  0
VERTEX
  5
d8
  8
Layer_0
  10
82.556656
  20
62.509487
  0
VERTEX
  5
d9
  8
Layer_0
  10
81.487778
  20
63.360893
  0
VERTEX
  5
da
  8
Layer_0
  10
80.474762
  20
64.2743
  0
VERTEX
  5
db
  8
Layer_0
  10
79.520187
  20
65.246902
  0
VERTEX
  5
dc
  8
Layer_0
  10
78.626671
  20
66.275864
  0
VERTEX
  5
dd
  8
Layer_0
  10
77.796814
  20
67.358398
  0
VERTEX
  5
de
  8
Layer_0
  10
77.033203
  20
68.491661
  0
VERTEX
  5
df
  8
Layer_0
  10
76.338455
  20
69.672852
  0
VERTEX
  5
e0
  8
Layer_0
  10
75.87088
  20
70.559601
  0
VERTEX
  5
e1
  8
Layer_0
  10
75.434769
  20
71.461227
  0
VERTEX
  5
e2
  8
Layer_0
  10
75.030441
  20
72.376892
  0
VERTEX
  5
e3
  8
Layer_0
  10
74.658234
  20
73.305756
  0
VERTEX
  5
e4
  8
Layer_0
  10
74.318451
  20
74.246964
  0
VERTEX
  5
e5
  8
Layer_0
  10
74.011421
  20
75.199677
  0
VERTEX
  5
e6
  8
Layer_0
  10
73.737457
  20
76.163048
  0
VERTEX
  5
e7
  8
Layer_0
  10
73.496902
  20
77.13623
  0
VERTEX
  5
e8
  8
Layer_0
  10
73.255402
  20
78.261887
  0
VERTEX
  5
e9
  8
Layer_0
  10
73.043716
  20
79.392914
  0
VERTEX
  5
ea
  8
Layer_0
  10
72.861916
  20
80.528717
  0
VERTEX
  5
eb
  8
Layer_0
  10
72.710068
  20
81.668716
  0
VERTEX
  5
ec
  8
Layer_0
  10
72.588242
  20
82.812317
  0
VERTEX
  5
ed
  8
Layer_0
  10
72.496521
  20
83.958923
  0
VERTEX
  5
ee
  8
Layer_0
  10
72.434967
  20
85.107941
  0
VERTEX
  5
ef
  8
Layer_0
  10
72.403641
  20
86.258789
  0
VERTEX
  5
f0
  8
Layer_0
  10
72.382355
  20
87.778328
  0
VERTEX
  5
f1
  8
Layer_0
  10
72.415993
  20
89.296158
  0
VERTEX
  5
f2
  8
Layer_0
  10
72.504395
  20
90.810806
  0
VERTEX
  5
f3
  8
Layer_0
  10
72.647408
  20
92.320786
  0
VERTEX
  5
f4
  8
Layer_0
  10
72.844849
  20
93.824615
  0
VERTEX
  5
f5
  8
Layer_0
  10
73.096535
  20
95.320816
  0
VERTEX
  5
f6
  8
Layer_0
  10
73.402321
  20
96.807907
  0
VERTEX
  5
f7
  8
Layer_0
  10
73.762039
  20
98.284424
  0
VERTEX
  5
f8
  8
Layer_0
  10
74.248405
  20
99.964188
  0
VERTEX
  5
f9
  8
Layer_0
  10
74.823357
  20
101.61441
  0
VERTEX
  5
fa
  8
Layer_0
  10
75.485573
  20
103.23161
  0
VERTEX
  5
fb
  8
Layer_0
  10
76.233719
  20
104.81226
  0
VERTEX
  5
fc
  8
Layer_0
  10
76.74334
  20
105.74388
  0
VERTEX
  5
fd
  8
Layer_0
  10
77.290359
  20
106.65245
  0
VERTEX
  5
fe
  8
Layer_0
  10
77.873962
  20
107.53689
  0
VERTEX
  5
ff
  8
Layer_0
  10
78.493332
  20
108.3961
  0
VERTEX
  5
100
  8
Layer_0
  10
79.147644
  20
109.22902
  0
VERTEX
  5
101
  8
Layer_0
  10
79.836082
  20
110.03454
  0
VERTEX
  5
102
  8
Layer_0
  10
80.557831
  20
110.81158
  0
VERTEX
  5
103
  8
Layer_0
  10
81.312088
  20
111.55908
  0
VERTEX
  5
104
  8
Layer_0
  10
82.020142
  20
112.17096
  0
VERTEX
  5
105
  8
Layer_0
  10
82.751656
  20
112.75272
  0
VERTEX
  5
106
  8
Layer_0
  10
83.505646
  20
113.30373
  0
VERTEX
  5
107
  8
Layer_0
  10
84.281136
  20
113.82335
  0
VERTEX
  5
108
  8
Layer_0
  10
85.077141
  20
114.31096
  0
VERTEX
  5
109
  8
Layer_0
  10
85.892685
  20
114.76593
  0
VERTEX
  5
10a
  8
Layer_0
  10
86.726776
  20
115.18764
  0
VERTEX
  5
10b
  8
Layer_0
  10
87.578445
  20
115.57544
  0
VERTEX
  5
10c
  8
Layer_0
  10
88.495529
  20
115.95787
  0
VERTEX
  5
10d
  8
Layer_0
  10
89.425232
  20
116.30555
  0
VERTEX
  5
10e
  8
Layer_0
  10
90.36657
  20
116.61822
  0
VERTEX
  5
10f
  8
Layer_0
  10
91.318542
  20
116.89561
  0
VERTEX
  5
110
  8
Layer_0
  10
92.280159
  20
117.13745
  0
VERTEX
  5
111
  8
Layer_0
  10
93.250435
  20
117.34346
  0
VERTEX
  5
112
  8
Layer_0
  10
94.228371
  20
117.5134
  0
VERTEX
  5
113
  8
Layer_0
  10
95.212967
  20
117.64697
  0
VERTEX
  5
114
  8
Layer_0
  10
96.344391
  20
117.77583
  0
VERTEX
  5
115
  8
Layer_0
  10
97.478485
  20
117.86839
  0
VERTEX
  5
116
  8
Layer_0
  10
98.61438
  20
117.92467
  0
VERTEX
  5
117
  8
Layer_0
  10
99.75119
  20
117.94464
  0
VERTEX
  5
118
  8
Layer_0
  10
100.88806
  20
117.92833
  0
VERTEX
  5
119
  8
Layer_0
  10
102.02414
  20
117.87572
  0
VERTEX
  5
11a
  8
Layer_0
  10
103.15852
  20
117.78682
  0
VERTEX
  5
11b
  8
Layer_0
  10
104.29036
  20
117.66162
  0
VERTEX
  5
11c
  8
Layer_0
  10
105.55235
  20
117.46262
  0
VERTEX
  5
11d
  8
Layer_0
  10
106.7993
  20
117.19731
  0
VERTEX
  5
11e
  8
Layer_0
  10
108.02869
  20
116.86663
  0
VERTEX
  5
11f
  8
Layer_0
  10
109.23797
  20
116.47147
  0
VERTEX
  5
120
  8
Layer_0
  10
110.42459
  20
116.01273
  0
VERTEX
  5
121
  8
Layer_0
  10
111.58601
  20
115.49133
  0
VERTEX
  5
122
  8
Layer_0
  10
112.71968
  20
114.90817
  0
VERTEX
  5
123
  8
Layer_0
  10
113.82307
  20
114.26416
  0
VERTEX
  5
124
  8
Layer_0
  10
114.67786
  20
113.68859
  0
VERTEX
  5
125
  8
Layer_0
  10
115.49048
  20
113.06023
  0
VERTEX
  5
126
  8
Layer_0
  10
116.25869
  20
112.38151
  0
VERTEX
  5
127
  8
Layer_0
  10
116.98024
  20
111.65485
  0
VERTEX
  5
128
  8
Layer_0
  10
117.65285
  20
110.88268
  0
VERTEX
  5
129
  8
Layer_0
  10
118.27428
  20
110.06744
  0
VERTEX
  5
12a
  8
Layer_0
  10
118.84227
  20
109.21152
  0
VERTEX
  5
12b
  8
Layer_0
  10
119.35457
  20
108.31738
  0
VERTEX
  5
12c
  8
Layer_0
  10
119.77821
  20
107.50102
  0
VERTEX
  5
12d
  8
Layer_0
  10
120.17918
  20
106.67388
  0
VERTEX
  5
12e
  8
Layer_0
  10
120.5573
  20
105.83642
  0
VERTEX
  5
12f
  8
Layer_0
  10
120.91238
  20
104.98911
  0
VERTEX
  5
130
  8
Layer_0
  10
121.24423
  20
104.13245
  0
VERTEX
  5
131
  8
Layer_0
  10
121.55266
  20
103.26688
  0
VERTEX
  5
132
  8
Layer_0
  10
121.83746
  20
102.3929
  0
VERTEX
  5
133
  8
Layer_0
  10
122.09846
  20
101.51099
  0
VERTEX
  5
134
  8
Layer_0
  10
131.16951
  20
103.99902
  0
VERTEX
  5
135
  8
Layer_0
  10
130.88297
  20
105.09438
  0
VERTEX
  5
136
  8
Layer_0
  10
130.56454
  20
106.18013
  0
VERTEX
  5
137
  8
Layer_0
  10
130.21446
  20
107.25558
  0
VERTEX
  5
138
  8
Layer_0
  10
129.83302
  20
108.32005
  0
VERTEX
  5
139
  8
Layer_0
  10
129.42046
  20
109.37285
  0
VERTEX
  5
13a
  8
Layer_0
  10
128.97702
  20
110.4133
  0
VERTEX
  5
13b
  8
Layer_0
  10
128.50299
  20
111.44069
  0
VERTEX
  5
13c
  8
Layer_0
  10
127.99861
  20
112.45435
  0
VERTEX
  5
13d
  8
Layer_0
  10
127.53276
  20
113.31512
  0
VERTEX
  5
13e
  8
Layer_0
  10
127.03226
  20
114.15478
  0
VERTEX
  5
13f
  8
Layer_0
  10
126.49788
  20
114.97228
  0
VERTEX
  5
140
  8
Layer_0
  10
125.93037
  20
115.76665
  0
VERTEX
  5
141
  8
Layer_0
  10
125.33048
  20
116.53683
  0
VERTEX
  5
142
  8
Layer_0
  10
124.69897
  20
117.28186
  0
VERTEX
  5
143
  8
Layer_0
  10
124.03658
  20
118.00072
  0
VERTEX
  5
144
  8
Layer_0
  10
123.34407
  20
118.69238
  0
VERTEX
  5
145
  8
Layer_0
  10
122.5826
  20
119.3695
  0
VERTEX
  5
146
  8
Layer_0
  10
121.79546
  20
120.01468
  0
VERTEX
  5
147
  8
Layer_0
  10
120.98372
  20
120.62725
  0
VERTEX
  5
148
  8
Layer_0
  10
120.14838
  20
121.20652
  0
VERTEX
  5
149
  8
Layer_0
  10
119.29048
  20
121.75182
  0
VERTEX
  5
14a
  8
Layer_0
  10
118.41103
  20
122.26244
  0
VERTEX
  5
14b
  8
Layer_0
  10
117.51108
  20
122.73773
  0
VERTEX
  5
14c
  8
Layer_0
  10
116.59163
  20
123.177
  0
VERTEX
  5
14d
  8
Layer_0
  10
115.21319
  20
123.77118
  0
VERTEX
  5
14e
  8
Layer_0
  10
113.8133
  20
124.30761
  0
VERTEX
  5
14f
  8
Layer_0
  10
112.39379
  20
124.78581
  0
VERTEX
  5
150
  8
Layer_0
  10
110.95648
  20
125.20529
  0
VERTEX
  5
151
  8
Layer_0
  10
109.5032
  20
125.56555
  0
VERTEX
  5
152
  8
Layer_0
  10
108.03577
  20
125.8661
  0
VERTEX
  5
153
  8
Layer_0
  10
106.55602
  20
126.10646
  0
VERTEX
  5
154
  8
Layer_0
  10
105.06575
  20
126.28613
  0
VERTEX
  5
155
  8
Layer_0
  10
103.09721
  20
126.45253
  0
VERTEX
  5
156
  8
Layer_0
  10
101.12601
  20
126.53876
  0
VERTEX
  5
157
  8
Layer_0
  10
99.154556
  20
126.54495
  0
VERTEX
  5
158
  8
Layer_0
  10
97.185287
  20
126.47126
  0
VERTEX
  5
159
  8
Layer_0
  10
95.220612
  20
126.31781
  0
VERTEX
  5
15a
  8
Layer_0
  10
93.262978
  20
126.08475
  0
VERTEX
  5
15b
  8
Layer_0
  10
91.314804
  20
125.77223
  0
VERTEX
  5
15c
  8
Layer_0
  10
89.378494
  20
125.38037
  0
VERTEX
  5
15d
  8
Layer_0
  10
88.010612
  20
125.04156
  0
VERTEX
  5
15e
  8
Layer_0
  10
86.657875
  20
124.65201
  0
VERTEX
  5
15f
  8
Layer_0
  10
85.321655
  20
124.21223
  0
VERTEX
  5
160
  8
Layer_0
  10
84.003326
  20
123.7228
  0
VERTEX
  5
161
  8
Layer_0
  10
82.7043
  20
123.18424
  0
VERTEX
  5
162
  8
Layer_0
  10
81.425949
  20
122.59711
  0
VERTEX
  5
163
  8
Layer_0
  10
80.169662
  20
121.96194
  0
VERTEX
  5
164
  8
Layer_0
  10
78.936844
  20
121.2793
  0
VERTEX
  5
165
  8
Layer_0
  10
77.507713
  20
120.38099
  0
VERTEX
  5
166
  8
Layer_0
  10
76.134651
  20
119.40601
  0
VERTEX
  5
167
  8
Layer_0
  10
74.820572
  20
118.35709
  0
VERTEX
  5
168
  8
Layer_0
  10
73.568352
  20
117.237
  0
VERTEX
  5
169
  8
Layer_0
  10
72.380905
  20
116.04846
  0
VERTEX
  5
16a
  8
Layer_0
  10
71.261124
  20
114.79422
  0
VERTEX
  5
16b
  8
Layer_0
  10
70.211906
  20
113.47702
  0
VERTEX
  5
16c
  8
Layer_0
  10
69.23616
  20
112.09961
  0
VERTEX
  5
16d
  8
Layer_0
  10
68.190041
  20
110.43965
  0
VERTEX
  5
16e
  8
Layer_0
  10
67.229965
  20
108.72993
  0
VERTEX
  5
16f
  8
Layer_0
  10
66.357712
  20
106.97379
  0
VERTEX
  5
170
  8
Layer_0
  10
65.575027
  20
105.17456
  0
VERTEX
  5
171
  8
Layer_0
  10
65.172623
  20
104.164
  0
VERTEX
  5
172
  8
Layer_0
  10
64.794006
  20
103.14539
  0
VERTEX
  5
173
  8
Layer_0
  10
64.439278
  20
102.11912
  0
VERTEX
  5
174
  8
Layer_0
  10
64.108513
  20
101.08563
  0
VERTEX
  5
175
  8
Layer_0
  10
63.519264
  20
98.998703
  0
VERTEX
  5
176
  8
Layer_0
  10
63.026955
  20
96.887955
  0
VERTEX
  5
177
  8
Layer_0
  10
62.632301
  20
94.75679
  0
VERTEX
  5
178
  8
Layer_0
  10
62.33601
  20
92.608597
  0
VERTEX
  5
179
  8
Layer_0
  10
62.224968
  20
91.529175
  0
VERTEX
  5
17a
  8
Layer_0
  10
62.138783
  20
90.446762
  0
VERTEX
  5
17b
  8
Layer_0
  10
62.077545
  20
89.361786
  0
VERTEX
  5
17c
  8
Layer_0
  10
62.041336
  20
88.274658
  0
VERTEX
  5
17d
  8
Layer_0
  10
62.017651
  20
86.757019
  0
VERTEX
  5
17e
  8
Layer_0
  10
62.041958
  20
85.240524
  0
VERTEX
  5
17f
  8
Layer_0
  10
62.114147
  20
83.726295
  0
VERTEX
  5
180
  8
Layer_0
  10
62.234108
  20
82.215485
  0
VERTEX
  5
181
  8
Layer_0
  10
62.401733
  20
80.709213
  0
VERTEX
  5
182
  8
Layer_0
  10
62.61692
  20
79.208618
  0
VERTEX
  5
183
  8
Layer_0
  10
62.879551
  20
77.714836
  0
VERTEX
  5
184
  8
Layer_0
  10
63.189529
  20
76.229004
  0
VERTEX
  5
185
  8
Layer_0
  10
63.573582
  20
74.677368
  0
VERTEX
  5
186
  8
Layer_0
  10
64.018417
  20
73.144012
  0
VERTEX
  5
187
  8
Layer_0
  10
64.523338
  20
71.630692
  0
VERTEX
  5
188
  8
Layer_0
  10
65.087646
  20
70.139183
  0
VERTEX
  5
189
  8
Layer_0
  10
65.710632
  20
68.671211
  0
VERTEX
  5
18a
  8
Layer_0
  10
66.391586
  20
67.228523
  0
VERTEX
  5
18b
  8
Layer_0
  10
67.129822
  20
65.812881
  0
VERTEX
  5
18c
  8
Layer_0
  10
67.924637
  20
64.426025
  0
VERTEX
  5
18d
  8
Layer_0
  10
68.464737
  20
63.572803
  0
VERTEX
  5
18e
  8
Layer_0
  10
69.030823
  20
62.738789
  0
VERTEX
  5
18f
  8
Layer_0
  10
69.622345
  20
61.924515
  0
VERTEX
  5
190
  8
Layer_0
  10
70.238739
  20
61.130512
  0
VERTEX
  5
191
  8
Layer_0
  10
70.879486
  20
60.357315
  0
VERTEX
  5
192
  8
Layer_0
  10
71.543991
  20
59.605453
  0
VERTEX
  5
193
  8
Layer_0
  10
72.23175
  20
58.875462
  0
VERTEX
  5
194
  8
Layer_0
  10
72.942169
  20
58.16787
  0
VERTEX
  5
195
  8
Layer_0
  10
73.674721
  20
57.483212
  0
VERTEX
  5
196
  8
Layer_0
  10
74.428841
  20
56.822021
  0
VERTEX
  5
197
  8
Layer_0
  10
75.203995
  20
56.18483
  0
VERTEX
  5
198
  8
Layer_0
  10
75.999619
  20
55.572163
  0
VERTEX
  5
199
  8
Layer_0
  10
76.81517
  20
54.984558
  0
VERTEX
  5
19a
  8
Layer_0
  10
77.650085
  20
54.42255
  0
VERTEX
  5
19b
  8
Layer_0
  10
78.503815
  20
53.886665
  0
VERTEX
  5
19c
  8
Layer_0
  10
79.375809
  20
53.377441
  0
VERTEX
  5
19d
  8
Layer_0
  10
81.097107
  20
52.46006
  0
VERTEX
  5
19e
  8
Layer_0
  10
82.856796
  20
51.626205
  0
VERTEX
  5
19f
  8
Layer_0
  10
84.651794
  20
50.876907
  0
VERTEX
  5
1a0
  8
Layer_0
  10
86.47905
  20
50.213211
  0
VERTEX
  5
1a1
  8
Layer_0
  10
88.33548
  20
49.636147
  0
VERTEX
  5
1a2
  8
Layer_0
  10
90.218025
  20
49.14674
  0
VERTEX
  5
1a3
  8
Layer_0
  10
92.123596
  20
48.746033
  0
VERTEX
  5
1a4
  8
Layer_0
  10
94.049149
  20
48.435059
  0
VERTEX
  5
1a5
  8
Layer_0
  10
95.999168
  20
48.202393
  0
VERTEX
  5
1a6
  8
Layer_0
  10
97.956192
  20
48.048615
  0
VERTEX
  5
1a7
  8
Layer_0
  10
99.917824
  20
47.973862
  0
VERTEX
  5
1a8
  8
Layer_0
  10
101.88167
  20
47.978271
  0
SEQEND
  0
POLYLINE
  5
1aa
  8
Layer_0
  62
0
  70
1
  66
1
  10
0
  20
0
  30
0
  0
VERTEX
  5
1aa
  8
Layer_0
  10
200
  20
220.5
  0
VERTEX
  5
1ab
  8
Layer_0
  10
0
  20
220.5
  0
VERTEX
  5
1ac
  8
Layer_0
  10
0
  20
438
  0
VERTEX
  5
1ad
  8
Layer_0
  10
200
  20
438
  0
VERTEX
  5
1ae
  8
Layer_0
  10
200
  20
220.5
  0
SEQEND
  0
POLYLINE
  5
1b0
  8
Layer_0
  62
0
  70
1
  66
1
  10
0
  20
0
  30
0
  0
VERTEX
  5
1b0
  8
Layer_0
  10
104.71767
  20
289.96927
  0
VERTEX
  5
1b1
  8
Layer_0
  10
105.8878
  20
290.0127
  0
VERTEX
  5
1b2
  8
Layer_0
  10
107.05513
  20
290.08588
  0
VERTEX
  5
1b3
  8
Layer_0
  10
108.21909
  20
290.18866
  0
VERTEX
  5
1b4
  8
Layer_0
  10
109.37912
  20
290.32086
  0
VERTEX
  5
1b5
  8
Layer_0
  10
110.53468
  20
290.48242
  0
VERTEX
  5
1b6
  8
Layer_0
  10
111.68522
  20
290.67316
  0
VERTEX
  5
1b7
  8
Layer_0
  10
112.83018
  20
290.89301
  0
VERTEX
  5
1b8
  8
Layer_0
  10
113.96902
  20
291.14175
  0
VERTEX
  5
1b9
  8
Layer_0
  10
115.10117
  20
291.41934
  0
VERTEX
  5
1ba
  8
Layer_0
  10
116.22609
  20
291.72562
  0
VERTEX
  5
1bb
  8
Layer_0
  10
117.34323
  20
292.06046
  0
VERTEX
  5
1bc
  8
Layer_0
  10
118.45203
  20
292.42377
  0
VERTEX
  5
1bd
  8
Layer_0
  10
119.55196
  20
292.81537
  0
VERTEX
  5
1be
  8
Layer_0
  10
120.64243
  20
293.23514
  0
VERTEX
  5
1bf
  8
Layer_0
  10
121.72292
  20
293.68298
  0
VERTEX
  5
1c0
  8
Layer_0
  10
122.79286
  20
294.15872
  0
VERTEX
  5
1c1
  8
Layer_0
  10
124.43704
  20
294.94748
  0
VERTEX
  5
1c2
  8
Layer_0
  10
126.05486
  20
295.78616
  0
VERTEX
  5
1c3
  8
Layer_0
  10
127.6452
  20
296.67407
  0
VERTEX
  5
1c4
  8
Layer_0
  10
129.20695
  20
297.61047
  0
VERTEX
  5
1c5
  8
Layer_0
  10
130.73901
  20
298.59473
  0
VERTEX
  5
1c6
  8
Layer_0
  10
132.24026
  20
299.62616
  0
VERTEX
  5
1c7
  8
Layer_0
  10
133.70959
  20
300.70404
  0
VERTEX
  5
1c8
  8
Layer_0
  10
135.14589
  20
301.82767
  0
VERTEX
  5
1c9
  8
Layer_0
  10
135.14589
  20
330.02518
  0
VERTEX
  5
1ca
  8
Layer_0
  10
102.95692
  20
329.97342
  0
VERTEX
  5
1cb
  8
Layer_0
  10
102.95692
  20
321.05789
  0
VERTEX
  5
1cc
  8
Layer_0
  10
125.2975
  20
321.05789
  0
VERTEX
  5
1cd
  8
Layer_0
  10
125.2975
  20
306.90726
  0
VERTEX
  5
1ce
  8
Layer_0
  10
124.08005
  20
305.93152
  0
VERTEX
  5
1cf
  8
Layer_0
  10
122.80653
  20
305.03271
  0
VERTEX
  5
1d0
  8
Layer_0
  10
121.48058
  20
304.2132
  0
VERTEX
  5
1d1
  8
Layer_0
  10
120.10585
  20
303.47537
  0
VERTEX
  5
1d2
  8
Layer_0
  10
119.12373
  20
302.97815
  0
VERTEX
  5
1d3
  8
Layer_0
  10
118.12979
  20
302.50623
  0
VERTEX
  5
1d4
  8
Layer_0
  10
117.12454
  20
302.05981
  0
VERTEX
  5
1d5
  8
Layer_0
  10
116.10846
  20
301.63904
  0
VERTEX
  5
1d6
  8
Layer_0
  10
115.08204
  20
301.24417
  0
VERTEX
  5
1d7
  8
Layer_0
  10
114.04578
  20
300.87537
  0
VERTEX
  5
1d8
  8
Layer_0
  10
113.00017
  20
300.53287
  0
VERTEX
  5
1d9
  8
Layer_0
  10
111.94569
  20
300.21683
  0
VERTEX
  5
1da
  8
Layer_0
  10
110.7863
  20
299.91821
  0
VERTEX
  5
1db
  8
Layer_0
  10
109.61953
  20
299.66266
  0
VERTEX
  5
1dc
  8
Layer_0
  10
108.44657
  20
299.4502
  0
VERTEX
  5
1dd
  8
Layer_0
  10
107.2686
  20
299.28076
  0
VERTEX
  5
1de
  8
Layer_0
  10
106.08678
  20
299.15433
  0
VERTEX
  5
1df
  8
Layer_0
  10
104.90231
  20
299.07092
  0
VERTEX
  5
1e0
  8
Layer_0
  10
103.71635
  20
299.03049
  0
VERTEX
  5
1e1
  8
Layer_0
  10
102.53008
  20
299.03305
  0
VERTEX
  5
1e2
  8
Layer_0
  10
101.34468
  20
299.07852
  0
VERTEX
  5
1e3
  8
Layer_0
  10
100.16134
  20
299.16687
  0
VERTEX
  5
1e4
  8
Layer_0
  10
98.981209
  20
299.2981
  0
VERTEX
  5
1e5
  8
Layer_0
  10
97.805473
  20
299.47223
  0
VERTEX
  5
1e6
  8
Layer_0
  10
96.635315
  20
299.68915
  0
VERTEX
  5
1e7
  8
Layer_0
  10
95.471909
  20
299.94888
  0
VERTEX
  5
1e8
  8
Layer_0
  10
94.316437
  20
300.2514
  0
VERTEX
  5
1e9
  8
Layer_0
  10
93.170059
  20
300.59671
  0
VERTEX
  5
1ea
  8
Layer_0
  10
92.297264
  20
300.8934
  0
VERTEX
  5
1eb
  8
Layer_0
  10
91.434914
  20
301.21725
  0
VERTEX
  5
1ec
  8
Layer_0
  10
90.583626
  20
301.56796
  0
VERTEX
  5
1ed
  8
Layer_0
  10
89.744019
  20
301.94519
  0
VERTEX
  5
1ee
  8
Layer_0
  10
88.916702
  20
302.34869
  0
VERTEX
  5
1ef
  8
Layer_0
  10
88.102325
  20
302.77817
  0
VERTEX
  5
1f0
  8
Layer_0
  10
87.301476
  20
303.23334
  0
VERTEX
  5
1f1
  8
Layer_0
  10
86.514786
  20
303.7139
  0
VERTEX
  5
1f2
  8
Layer_0
  10
85.392654
  20
304.50049
  0
VERTEX
  5
1f3
  8
Layer_0
  10
84.323776
  20
305.3519
  0
VERTEX
  5
1f4
  8
Layer_0
  10
83.31076
  20
306.26532
  0
VERTEX
  5
1f5
  8
Layer_0
  10
82.356186
  20
307.23792
  0
VERTEX
  5
1f6
  8
Layer_0
  10
81.462669
  20
308.26685
  0
VERTEX
  5
1f7
  8
Layer_0
  10
80.632813
  20
309.34937
  0
VERTEX
  5
1f8
  8
Layer_0
  10
79.869202
  20
310.48267
  0
VERTEX
  5
1f9
  8
Layer_0
  10
79.174454
  20
311.66385
  0
VERTEX
  5
1fa
  8
Layer_0
  10
78.706879
  20
312.5506
  0
VERTEX
  5
1fb
  8
Layer_0
  10
78.270767
  20
313.45224
  0
VERTEX
  5
1fc
  8
Layer_0
  10
77.86644
  20
314.36792
  0
VERTEX
  5
1fd
  8
Layer_0
  10
77.494232
  20
315.29675
  0
VERTEX
  5
1fe
  8
Layer_0
  10
77.154449
  20
316.23795
  0
VERTEX
  5
1ff
  8
Layer_0
  10
76.84742
  20
317.19067
  0
VERTEX
  5
200
  8
Layer_0
  10
76.573456
  20
318.15405
  0
VERTEX
  5
201
  8
Layer_0
  10
76.332901
  20
319.12723
  0
VERTEX
  5
202
  8
Layer_0
  10
76.0914
  20
320.25287
  0
VERTEX
  5
203
  8
Layer_0
  10
75.879715
  20
321.38391
  0
VERTEX
  5
204
  8
Layer_0
  10
75.697914
  20
322.51971
  0
VERTEX
  5
205
  8
Layer_0
  10
75.546066
  20
323.65973
  0
VERTEX
  5
206
  8
Layer_0
  10
75.42424
  20
324.80328
  0
VERTEX
  5
207
  8
Layer_0
  10
75.33252
  20
325.94989
  0
VERTEX
  5
208
  8
Layer_0
  10
75.270966
  20
327.09894
  0
VERTEX
  5
209
  8
Layer_0
  10
75.239639
  20
328.24979
  0
VERTEX
  5
20a
  8
Layer_0
  10
75.218353
  20
329.76932
  0
VERTEX
  5
20b
  8
Layer_0
  10
75.251991
  20
331.28717
  0
VERTEX
  5
20c
  8
Layer_0
  10
75.340393
  20
332.80179
  0
VERTEX
  5
20d
  8
Layer_0
  10
75.483406
  20
334.31177
  0
VERTEX
  5
20e
  8
Layer_0
  10
75.680847
  20
335.81558
  0
VERTEX
  5
20f
  8
Layer_0
  10
75.932533
  20
337.3118
  0
VERTEX
  5
210
  8
Layer_0
  10
76.238319
  20
338.79889
  0
VERTEX
  5
211
  8
Layer_0
  10
76.598038
  20
340.27542
  0
VERTEX
  5
212
  8
Layer_0
  10
77.084404
  20
341.95517
  0
VERTEX
  5
213
  8
Layer_0
  10
77.659355
  20
343.60541
  0
VERTEX
  5
214
  8
Layer_0
  10
78.321571
  20
345.2226
  0
VERTEX
  5
215
  8
Layer_0
  10
79.069717
  20
346.80325
  0
VERTEX
  5
216
  8
Layer_0
  10
79.579338
  20
347.73486
  0
VERTEX
  5
217
  8
Layer_0
  10
80.126358
  20
348.64343
  0
VERTEX
  5
218
  8
Layer_0
  10
80.709961
  20
349.52789
  0
VERTEX
  5
219
  8
Layer_0
  10
81.32933
  20
350.38712
  0
VERTEX
  5
21a
  8
Layer_0
  10
81.983643
  20
351.22003
  0
VERTEX
  5
21b
  8
Layer_0
  10
82.672081
  20
352.02554
  0
VERTEX
  5
21c
  8
Layer_0
  10
83.393829
  20
352.80258
  0
VERTEX
  5
21d
  8
Layer_0
  10
84.148087
  20
353.55008
  0
VERTEX
  5
21e
  8
Layer_0
  10
84.85614
  20
354.16196
  0
VERTEX
  5
21f
  8
Layer_0
  10
85.587654
  20
354.74371
  0
VERTEX
  5
220
  8
Layer_0
  10
86.341644
  20
355.29471
  0
VERTEX
  5
221
  8
Layer_0
  10
87.117134
  20
355.81433
  0
VERTEX
  5
222
  8
Layer_0
  10
87.913139
  20
356.30194
  0
VERTEX
  5
223
  8
Layer_0
  10
88.728683
  20
356.75693
  0
VERTEX
  5
224
  8
Layer_0
  10
89.562775
  20
357.17862
  0
VERTEX
  5
225
  8
Layer_0
  10
90.414444
  20
357.56644
  0
VERTEX
  5
226
  8
Layer_0
  10
91.331528
  20
357.94885
  0
VERTEX
  5
227
  8
Layer_0
  10
92.26123
  20
358.29654
  0
VERTEX
  5
228
  8
Layer_0
  10
93.202568
  20
358.60922
  0
VERTEX
  5
229
  8
Layer_0
  10
94.154541
  20
358.8866
  0
VERTEX
  5
22a
  8
Layer_0
  10
95.116158
  20
359.12842
  0
VERTEX
  5
22b
  8
Layer_0
  10
96.086433
  20
359.33447
  0
VERTEX
  5
22c
  8
Layer_0
  10
97.064369
  20
359.50439
  0
VERTEX
  5
22d
  8
Layer_0
  10
98.048965
  20
359.63797
  0
VERTEX
  5
22e
  8
Layer_0
  10
99.180389
  20
359.76685
  0
VERTEX
  5
22f
  8
Layer_0
  10
100.31448
  20
359.85938
  0
VERTEX
  5
230
  8
Layer_0
  10
101.45038
  20
359.91565
  0
VERTEX
  5
231
  8
Layer_0
  10
102.58719
  20
359.93564
  0
VERTEX
  5
232
  8
Layer_0
  10
103.72406
  20
359.91931
  0
VERTEX
  5
233
  8
Layer_0
  10
104.86014
  20
359.8667
  0
VERTEX
  5
234
  8
Layer_0
  10
105.99452
  20
359.77783
  0
VERTEX
  5
235
  8
Layer_0
  10
107.12636
  20
359.65262
  0
VERTEX
  5
236
  8
Layer_0
  10
108.38834
  20
359.45361
  0
VERTEX
  5
237
  8
Layer_0
  10
109.6353
  20
359.18832
  0
VERTEX
  5
238
  8
Layer_0
  10
110.86469
  20
358.8576
  0
VERTEX
  5
239
  8
Layer_0
  10
112.07397
  20
358.46246
  0
VERTEX
  5
23a
  8
Layer_0
  10
113.26059
  20
358.00372
  0
VERTEX
  5
23b
  8
Layer_0
  10
114.42201
  20
357.48233
  0
VERTEX
  5
23c
  8
Layer_0
  10
115.55568
  20
356.89917
  0
VERTEX
  5
23d
  8
Layer_0
  10
116.65907
  20
356.25516
  0
VERTEX
  5
23e
  8
Layer_0
  10
117.51385
  20
355.67957
  0
VERTEX
  5
23f
  8
Layer_0
  10
118.32648
  20
355.05121
  0
VERTEX
  5
240
  8
Layer_0
  10
119.09469
  20
354.3725
  0
VERTEX
  5
241
  8
Layer_0
  10
119.81624
  20
353.64584
  0
VERTEX
  5
242
  8
Layer_0
  10
120.48885
  20
352.87366
  0
VERTEX
  5
243
  8
Layer_0
  10
121.11028
  20
352.05841
  0
VERTEX
  5
244
  8
Layer_0
  10
121.67827
  20
351.20251
  0
VERTEX
  5
245
  8
Layer_0
  10
122.19057
  20
350.30838
  0
VERTEX
  5
246
  8
Layer_0
  10
122.6142
  20
349.492
  0
VERTEX
  5
247
  8
Layer_0
  10
123.01518
  20
348.66486
  0
VERTEX
  5
248
  8
Layer_0
  10
123.3933
  20
347.82739
  0
VERTEX
  5
249
  8
Layer_0
  10
123.74838
  20
346.98013
  0
VERTEX
  5
24a
  8
Layer_0
  10
124.08023
  20
346.12347
  0
VERTEX
  5
24b
  8
Layer_0
  10
124.38866
  20
345.2579
  0
VERTEX
  5
24c
  8
Layer_0
  10
124.67346
  20
344.38391
  0
VERTEX
  5
24d
  8
Layer_0
  10
124.93446
  20
343.50198
  0
VERTEX
  5
24e
  8
Layer_0
  10
134.00551
  20
345.99002
  0
VERTEX
  5
24f
  8
Layer_0
  10
133.71896
  20
347.08539
  0
VERTEX
  5
250
  8
Layer_0
  10
133.40054
  20
348.17114
  0
VERTEX
  5
251
  8
Layer_0
  10
133.05046
  20
349.24658
  0
VERTEX
  5
252
  8
Layer_0
  10
132.66902
  20
350.31104
  0
VERTEX
  5
253
  8
Layer_0
  10
132.25645
  20
351.36383
  0
VERTEX
  5
254
  8
Layer_0
  10
131.81302
  20
352.4043
  0
VERTEX
  5
255
  8
Layer_0
  10
131.33899
  20
353.43167
  0
VERTEX
  5
256
  8
Layer_0
  10
130.83461
  20
354.44534
  0
VERTEX
  5
257
  8
Layer_0
  10
130.36874
  20
355.30609
  0
VERTEX
  5
258
  8
Layer_0
  10
129.86826
  20
356.14575
  0
VERTEX
  5
259
  8
Layer_0
  10
129.33386
  20
356.96326
  0
VERTEX
  5
25a
  8
Layer_0
  10
128.76637
  20
357.75763
  0
VERTEX
  5
25b
  8
Layer_0
  10
128.16649
  20
358.52783
  0
VERTEX
  5
25c
  8
Layer_0
  10
127.53497
  20
359.27286
  0
VERTEX
  5
25d
  8
Layer_0
  10
126.87257
  20
359.99173
  0
VERTEX
  5
25e
  8
Layer_0
  10
126.18007
  20
360.68338
  0
VERTEX
  5
25f
  8
Layer_0
  10
125.41859
  20
361.36047
  0
VERTEX
  5
260
  8
Layer_0
  10
124.63146
  20
362.00568
  0
VERTEX
  5
261
  8
Layer_0
  10
123.81972
  20
362.61823
  0
VERTEX
  5
262
  8
Layer_0
  10
122.98438
  20
363.19751
  0
VERTEX
  5
263
  8
Layer_0
  10
122.12648
  20
363.7428
  0
VERTEX
  5
264
  8
Layer_0
  10
121.24703
  20
364.25345
  0
VERTEX
  5
265
  8
Layer_0
  10
120.34708
  20
364.72873
  0
VERTEX
  5
266
  8
Layer_0
  10
119.42763
  20
365.168
  0
VERTEX
  5
267
  8
Layer_0
  10
118.04919
  20
365.76215
  0
VERTEX
  5
268
  8
Layer_0
  10
116.6493
  20
366.29858
  0
VERTEX
  5
269
  8
Layer_0
  10
115.22979
  20
366.77679
  0
VERTEX
  5
26a
  8
Layer_0
  10
113.79248
  20
367.19629
  0
VERTEX
  5
26b
  8
Layer_0
  10
112.3392
  20
367.55652
  0
VERTEX
  5
26c
  8
Layer_0
  10
110.87177
  20
367.85709
  0
VERTEX
  5
26d
  8
Layer_0
  10
109.39201
  20
368.09744
  0
VERTEX
  5
26e
  8
Layer_0
  10
107.90175
  20
368.27713
  0
VERTEX
  5
26f
  8
Layer_0
  10
105.93321
  20
368.44351
  0
VERTEX
  5
270
  8
Layer_0
  10
103.96201
  20
368.52975
  0
VERTEX
  5
271
  8
Layer_0
  10
101.99055
  20
368.53595
  0
VERTEX
  5
272
  8
Layer_0
  10
100.02129
  20
368.46225
  0
VERTEX
  5
273
  8
Layer_0
  10
98.05661
  20
368.30881
  0
VERTEX
  5
274
  8
Layer_0
  10
96.098976
  20
368.07574
  0
VERTEX
  5
275
  8
Layer_0
  10
94.150803
  20
367.76321
  0
VERTEX
  5
276
  8
Layer_0
  10
92.214493
  20
367.37137
  0
VERTEX
  5
277
  8
Layer_0
  10
90.846611
  20
367.03256
  0
VERTEX
  5
278
  8
Layer_0
  10
89.493874
  20
366.64301
  0
VERTEX
  5
279
  8
Layer_0
  10
88.157654
  20
366.20325
  0
VERTEX
  5
27a
  8
Layer_0
  10
86.839325
  20
365.71381
  0
VERTEX
  5
27b
  8
Layer_0
  10
85.540298
  20
365.17526
  0
VERTEX
  5
27c
  8
Layer_0
  10
84.261948
  20
364.5881
  0
VERTEX
  5
27d
  8
Layer_0
  10
83.005661
  20
363.95294
  0
VERTEX
  5
27e
  8
Layer_0
  10
81.772842
  20
363.27029
  0
VERTEX
  5
27f
  8
Layer_0
  10
80.343712
  20
362.37201
  0
VERTEX
  5
280
  8
Layer_0
  10
78.97065
  20
361.397
  0
VERTEX
  5
281
  8
Layer_0
  10
77.65657
  20
360.34811
  0
VERTEX
  5
282
  8
Layer_0
  10
76.40435
  20
359.228
  0
VERTEX
  5
283
  8
Layer_0
  10
75.216904
  20
358.03943
  0
VERTEX
  5
284
  8
Layer_0
  10
74.097122
  20
356.78519
  0
VERTEX
  5
285
  8
Layer_0
  10
73.047905
  20
355.46799
  0
VERTEX
  5
286
  8
Layer_0
  10
72.072159
  20
354.09061
  0
VERTEX
  5
287
  8
Layer_0
  10
71.026039
  20
352.43063
  0
VERTEX
  5
288
  8
Layer_0
  10
70.065964
  20
350.72095
  0
VERTEX
  5
289
  8
Layer_0
  10
69.19371
  20
348.96478
  0
VERTEX
  5
28a
  8
Layer_0
  10
68.411026
  20
347.16556
  0
VERTEX
  5
28b
  8
Layer_0
  10
68.008621
  20
346.155
  0
VERTEX
  5
28c
  8
Layer_0
  10
67.630005
  20
345.13638
  0
VERTEX
  5
28d
  8
Layer_0
  10
67.275276
  20
344.11011
  0
VERTEX
  5
28e
  8
Layer_0
  10
66.944519
  20
343.07663
  0
VERTEX
  5
28f
  8
Layer_0
  10
66.35527
  20
340.98969
  0
VERTEX
  5
290
  8
Layer_0
  10
65.862953
  20
338.87897
  0
VERTEX
  5
291
  8
Layer_0
  10
65.468292
  20
336.74777
  0
VERTEX
  5
292
  8
Layer_0
  10
65.171997
  20
334.59961
  0
VERTEX
  5
293
  8
Layer_0
  10
65.060959
  20
333.5202
  0
VERTEX
  5
294
  8
Layer_0
  10
64.974777
  20
332.43774
  0
VERTEX
  5
295
  8
Layer_0
  10
64.913544
  20
331.35278
  0
VERTEX
  5
296
  8
Layer_0
  10
64.877335
  20
330.26566
  0
VERTEX
  5
297
  8
Layer_0
  10
64.853653
  20
328.74802
  0
VERTEX
  5
298
  8
Layer_0
  10
64.87796
  20
327.23151
  0
VERTEX
  5
299
  8
Layer_0
  10
64.95015
  20
325.71729
  0
VERTEX
  5
29a
  8
Layer_0
  10
65.070107
  20
324.20648
  0
VERTEX
  5
29b
  8
Layer_0
  10
65.237732
  20
322.7002
  0
VERTEX
  5
29c
  8
Layer_0
  10
65.452911
  20
321.19962
  0
VERTEX
  5
29d
  8
Layer_0
  10
65.715546
  20
319.70584
  0
VERTEX
  5
29e
  8
Layer_0
  10
66.025528
  20
318.22
  0
VERTEX
  5
29f
  8
Layer_0
  10
66.409576
  20
316.66837
  0
VERTEX
  5
2a0
  8
Layer_0
  10
66.854416
  20
315.13501
  0
VERTEX
  5
2a1
  8
Layer_0
  10
67.359337
  20
313.6217
  0
VERTEX
  5
2a2
  8
Layer_0
  10
67.923645
  20
312.13019
  0
VERTEX
  5
2a3
  8
Layer_0
  10
68.546631
  20
310.6622
  0
VERTEX
  5
2a4
  8
Layer_0
  10
69.227585
  20
309.21951
  0
VERTEX
  5
2a5
  8
Layer_0
  10
69.96582
  20
307.80389
  0
VERTEX
  5
2a6
  8
Layer_0
  10
70.760635
  20
306.41702
  0
VERTEX
  5
2a7
  8
Layer_0
  10
71.300735
  20
305.56381
  0
VERTEX
  5
2a8
  8
Layer_0
  10
71.866821
  20
304.7298
  0
VERTEX
  5
2a9
  8
Layer_0
  10
72.458344
  20
303.91553
  0
VERTEX
  5
2aa
  8
Layer_0
  10
73.074738
  20
303.12152
  0
VERTEX
  5
2ab
  8
Layer_0
  10
73.715485
  20
302.34833
  0
VERTEX
  5
2ac
  8
Layer_0
  10
74.37999
  20
301.59644
  0
VERTEX
  5
2ad
  8
Layer_0
  10
75.067749
  20
300.86646
  0
VERTEX
  5
2ae
  8
Layer_0
  10
75.778168
  20
300.15887
  0
VERTEX
  5
2af
  8
Layer_0
  10
76.510719
  20
299.47421
  0
VERTEX
  5
2b0
  8
Layer_0
  10
77.264839
  20
298.81305
  0
VERTEX
  5
2b1
  8
Layer_0
  10
78.039993
  20
298.17584
  0
VERTEX
  5
2b2
  8
Layer_0
  10
78.835617
  20
297.56317
  0
VERTEX
  5
2b3
  8
Layer_0
  10
79.651169
  20
296.97559
  0
VERTEX
  5
2b4
  8
Layer_0
  10
80.486084
  20
296.41357
  0
VERTEX
  5
2b5
  8
Layer_0
  10
81.339813
  20
295.87769
  0
VERTEX
  5
2b6
  8
Layer_0
  10
82.211807
  20
295.36844
  0
VERTEX
  5
2b7
  8
Layer_0
  10
83.933105
  20
294.45105
  0
VERTEX
  5
2b8
  8
Layer_0
  10
85.692795
  20
293.61719
  0
VERTEX
  5
2b9
  8
Layer_0
  10
87.487793
  20
292.86792
  0
VERTEX
  5
2ba
  8
Layer_0
  10
89.315048
  20
292.20422
  0
VERTEX
  5
2bb
  8
Layer_0
  10
91.171478
  20
291.62714
  0
VERTEX
  5
2bc
  8
Layer_0
  10
93.054024
  20
291.13776
  0
VERTEX
  5
2bd
  8
Layer_0
  10
94.959595
  20
290.737
  0
VERTEX
  5
2be
  8
Layer_0
  10
96.885147
  20
290.42606
  0
VERTEX
  5
2bf
  8
Layer_0
  10
98.835167
  20
290.19339
  0
VERTEX
  5
2c0
  8
Layer_0
  10
100.79219
  20
290.03961
  0
VERTEX
  5
2c1
  8
Layer_0
  10
102.75382
  20
289.96484
  0
VERTEX
  5
2c2
  8
Layer_0
  10
104.71767
  20
289.96927
  0
SEQEND
  0
POLYLINE
  5
2c4
  8
Layer_0
  62
0
  70
1
  66
1
  10
0
  20
0
  30
0
  0
VERTEX
  5
2c4
  8
Layer_0
  10
200
  20
441
  0
VERTEX
  5
2c5
  8
Layer_0
  10
0
  20
441
  0
VERTEX
  5
2c6
  8
Layer_0
  10
0
  20
925.5
  0
VERTEX
  5
2c7
  8
Layer_0
  10
200
  20
925.5
  0
VERTEX
  5
2c8
  8
Layer_0
  10
200
  20
441
  0
SEQEND
  0
POLYLINE
  5
2ca
  8
Layer_0
  62
0
  70
1
  66
1
  10
0
  20
0
  30
0
  0
VERTEX
  5
2ca
  8
Layer_0
  10
128.35301
  20
655.72272
  0
VERTEX
  5
2cb
  8
Layer_0
  10
81.702621
  20
655.72272
  0
VERTEX
  5
2cc
  8
Layer_0
  10
81.702621
  20
681.58795
  0
VERTEX
  5
2cd
  8
Layer_0
  10
123.73997
  20
681.58795
  0
VERTEX
  5
2ce
  8
Layer_0
  10
123.73997
  20
690.50323
  0
VERTEX
  5
2cf
  8
Layer_0
  10
81.702621
  20
690.50323
  0
VERTEX
  5
2d0
  8
Layer_0
  10
81.702621
  20
713.77667
  0
VERTEX
  5
2d1
  8
Layer_0
  10
126.59081
  20
713.77667
  0
VERTEX
  5
2d2
  8
Layer_0
  10
126.59081
  20
722.74396
  0
VERTEX
  5
2d3
  8
Layer_0
  10
71.646957
  20
722.74396
  0
VERTEX
  5
2d4
  8
Layer_0
  10
71.646957
  20
646.75543
  0
VERTEX
  5
2d5
  8
Layer_0
  10
128.35301
  20
646.75543
  0
VERTEX
  5
2d6
  8
Layer_0
  10
128.35301
  20
655.72272
  0
SEQEND
  0
POLYLINE
  5
2d8
  8
Layer_0
  62
0
  70
1
  66
1
  10
0
  20
0
  30
0
  0
VERTEX
  5
2d8
  8
Layer_0
  10
403
  20
0
  0
VERTEX
  5
2d9
  8
Layer_0
  10
203
  20
0
  0
VERTEX
  5
2da
  8
Layer_0
  10
203
  20
418
  0
VERTEX
  5
2db
  8
Layer_0
  10
403
  20
418
  0
VERTEX
  5
2dc
  8
Layer_0
  10
403
  20
0
  0
SEQEND
  0
POLYLINE
  5
2de
  8
Layer_0
  62
0
  70
1
  66
1
  10
0
  20
0
  30
0
  0
VERTEX
  5
2de
  8
Layer_0
  10
264.89957
  20
206.07159
  0
VERTEX
  5
2df
  8
Layer_0
  10
304.39688
  20
206.07159
  0
VERTEX
  5
2e0
  8
Layer_0
  10
304.39688
  20
170.25446
  0
VERTEX
  5
2e1
  8
Layer_0
  10
314.45255
  20
170.25446
  0
VERTEX
  5
2e2
  8
Layer_0
  10
314.45255
  20
246.24298
  0
VERTEX
  5
2e3
  8
Layer_0
  10
304.39688
  20
246.24298
  0
VERTEX
  5
2e4
  8
Layer_0
  10
304.39688
  20
215.03888
  0
VERTEX
  5
2e5
  8
Layer_0
  10
264.89957
  20
215.03888
  0
VERTEX
  5
2e6
  8
Layer_0
  10
264.89957
  20
246.24298
  0
VERTEX
  5
2e7
  8
Layer_0
  10
254.84366
  20
246.24298
  0
VERTEX
  5
2e8
  8
Layer_0
  10
254.84366
  20
170.25446
  0
VERTEX
  5
2e9
  8
Layer_0
  10
264.89957
  20
170.25446
  0
VERTEX
  5
2ea
  8
Layer_0
  10
264.89957
  20
206.07159
  0
SEQEND
  0
POLYLINE
  5
2ec
  8
Layer_0
  62
0
  70
1
  66
1
  10
0
  20
0
  30
0
  0
VERTEX
  5
2ec
  8
Layer_0
  10
200
  20
928.5
  0
VERTEX
  5
2ed
  8
Layer_0
  10
0
  20
928.5
  0
VERTEX
  5
2ee
  8
Layer_0
  10
0
  20
1161.9668
  0
VERTEX
  5
2ef
  8
Layer_0
  10
200
  20
1161.9668
  0
VERTEX
  5
2f0
  8
Layer_0
  10
200
  20
928.5
  0
SEQEND
  0
POLYLINE
  5
2f2
  8
Layer_0
  62
0
  70
1
  66
1
  10
0
  20
0
  30
0
  0
VERTEX
  5
2f2
  8
Layer_0
  10
403
  20
421
  0
VERTEX
  5
2f3
  8
Layer_0
  10
203
  20
421
  0
VERTEX
  5
2f4
  8
Layer_0
  10
203
  20
1160.1692
  0
VERTEX
  5
2f5
  8
Layer_0
  10
403
  20
1160.1692
  0
VERTEX
  5
2f6
  8
Layer_0
  10
403
  20
421
  0
SEQEND
  0
POLYLINE
  5
2f8
  8
Layer_0
  62
0
  70
1
  66
1
  10
0
  20
0
  30
0
  0
VERTEX
  5
2f8
  8
Layer_0
  10
606
  20
0
  0
VERTEX
  5
2f9
  8
Layer_0
  10
406
  20
0
  0
VERTEX
  5
2fa
  8
Layer_0
  10
406
  20
570
  0
VERTEX
  5
2fb
  8
Layer_0
  10
606
  20
570
  0
VERTEX
  5
2fc
  8
Layer_0
  10
606
  20
0
  0
SEQEND
  0
POLYLINE
  5
2fe
  8
Layer_0
  62
0
  70
1
  66
1
  10
0
  20
0
  30
0
  0
VERTEX
  5
2fe
  8
Layer_0
  10
606
  20
573
  0
VERTEX
  5
2ff
  8
Layer_0
  10
406
  20
573
  0
VERTEX
  5
300
  8
Layer_0
  10
406
  20
1143
  0
VERTEX
  5
301
  8
Layer_0
  10
606
  20
1143
  0
VERTEX
  5
302
  8
Layer_0
  10
606
  20
573
  0
SEQEND
  0
ENDSEC
  0
EOF
