  0
SECTION
  2
HEADER
  9
$ACADVER
  1
AC1032
  9
$ACADMAINTVER
 90
      230
  9
$DWGCODEPAGE
  3
ANSI_1252
  9
$LASTSAVEDBY
  1
kaligma@hotmail.com
  9
$REQUIREDVERSIONS
160
                 0
  9
$INSBASE
 10
0.0
 20
0.0
 30
0.0
  9
$EXTMIN
 10
-4.999999999999971
 20
583.4999999999999
 30
0.0
  9
$EXTMAX
 10
621.0
 20
1119.0
 30
0.0
  9
$LIMMIN
 10
0.0
 20
0.0
  9
$LIMMAX
 10
12.0
 20
9.0
  9
$ORTHOMODE
 70
     0
  9
$REGENMODE
 70
     1
  9
$FILLMODE
 70
     1
  9
$QTEXTMODE
 70
     0
  9
$MIRRTEXT
 70
     0
  9
$LTSCALE
 40
1.0
  9
$ATTMODE
 70
     1
  9
$TEXTSIZE
 40
10.0
  9
$TRACEWID
 40
0.05
  9
$TEXTSTYLE
  7
STANDARD
  9
$CLAYER
  8
0
  9
$CELTYPE
  6
CONTINUOUS
  9
$CECOLOR
 62
   256
  9
$CELTSCALE
 40
1.0
  9
$DISPSILH
 70
     0
  9
$DIMSCALE
 40
1.0
  9
$DIMASZ
 40
0.18
  9
$DIMEXO
 40
0.0625
  9
$DIMDLI
 40
0.38
  9
$DIMRND
 40
0.0
  9
$DIMDLE
 40
0.0
  9
$DIMEXE
 40
0.18
  9
$DIMTP
 40
0.0
  9
$DIMTM
 40
0.0
  9
$DIMTXT
 40
0.18
  9
$DIMCEN
 40
0.09
  9
$DIMTSZ
 40
0.0
  9
$DIMTOL
 70
     0
  9
$DIMLIM
 70
     0
  9
$DIMTIH
 70
     1
  9
$DIMTOH
 70
     1
  9
$DIMSE1
 70
     0
  9
$DIMSE2
 70
     0
  9
$DIMTAD
 70
     0
  9
$DIMZIN
 70
     0
  9
$DIMBLK
  1

  9
$DIMASO
 70
     1
  9
$DIMSHO
 70
     1
  9
$DIMPOST
  1

  9
$DIMAPOST
  1

  9
$DIMALT
 70
     0
  9
$DIMALTD
 70
     2
  9
$DIMALTF
 40
25.4
  9
$DIMLFAC
 40
1.0
  9
$DIMTOFL
 70
     0
  9
$DIMTVP
 40
0.0
  9
$DIMTIX
 70
     0
  9
$DIMSOXD
 70
     0
  9
$DIMSAH
 70
     0
  9
$DIMBLK1
  1

  9
$DIMBLK2
  1

  9
$DIMSTYLE
  2
ISO-25
  9
$DIMCLRD
 70
     0
  9
$DIMCLRE
 70
     0
  9
$DIMCLRT
 70
     0
  9
$DIMTFAC
 40
1.0
  9
$DIMGAP
 40
0.09
  9
$DIMJUST
 70
     0
  9
$DIMSD1
 70
     0
  9
$DIMSD2
 70
     0
  9
$DIMTOLJ
 70
     1
  9
$DIMTZIN
 70
     0
  9
$DIMALTZ
 70
     0
  9
$DIMALTTZ
 70
     0
  9
$DIMUPT
 70
     0
  9
$DIMDEC
 70
     4
  9
$DIMTDEC
 70
     4
  9
$DIMALTU
 70
     2
  9
$DIMALTTD
 70
     2
  9
$DIMTXSTY
  7
STANDARD
  9
$DIMAUNIT
 70
     0
  9
$DIMADEC
 70
     0
  9
$DIMALTRND
 40
0.0
  9
$DIMAZIN
 70
     0
  9
$DIMDSEP
 70
    46
  9
$DIMATFIT
 70
     3
  9
$DIMFRAC
 70
     0
  9
$DIMLDRBLK
  1

  9
$DIMLUNIT
 70
     2
  9
$DIMLWD
 70
    -2
  9
$DIMLWE
 70
    -2
  9
$DIMTMOVE
 70
     0
  9
$DIMFXL
 40
1.0
  9
$DIMFXLON
 70
     0
  9
$DIMJOGANG
 40
0.7853981633974483
  9
$DIMTFILL
 70
     0
  9
$DIMTFILLCLR
 70
     0
  9
$DIMARCSYM
 70
     0
  9
$DIMLTYPE
  6

  9
$DIMLTEX1
  6

  9
$DIMLTEX2
  6

  9
$DIMTXTDIRECTION
 70
     0
  9
$LUNITS
 70
     2
  9
$LUPREC
 70
     4
  9
$SKETCHINC
 40
0.1
  9
$FILLETRAD
 40
3.0
  9
$AUNITS
 70
     0
  9
$AUPREC
 70
     0
  9
$MENU
  1
.
  9
$ELEVATION
 40
0.0
  9
$PELEVATION
 40
0.0
  9
$THICKNESS
 40
0.0
  9
$LIMCHECK
 70
     0
  9
$CHAMFERA
 40
0.0
  9
$CHAMFERB
 40
0.0
  9
$CHAMFERC
 40
0.0
  9
$CHAMFERD
 40
0.0
  9
$SKPOLY
 70
     0
  9
$TDCREATE
 40
2459586.915462963
  9
$TDUCREATE
 40
2459586.873796296
  9
$TDUPDATE
 40
2459938.628321760
  9
$TDUUPDATE
 40
2459938.586655093
  9
$TDINDWG
 40
1.7691782407
  9
$TDUSRTIMER
 40
1.7691782407
  9
$USRTIMER
 70
     1
  9
$ANGBASE
 50
0.0
  9
$ANGDIR
 70
     0
  9
$PDMODE
 70
     0
  9
$PDSIZE
 40
0.0
  9
$PLINEWID
 40
0.0
  9
$SPLFRAME
 70
     0
  9
$SPLINETYPE
 70
     6
  9
$SPLINESEGS
 70
     8
  9
$HANDSEED
  5
12186
  9
$SURFTAB1
 70
     6
  9
$SURFTAB2
 70
     6
  9
$SURFTYPE
 70
     6
  9
$SURFU
 70
     6
  9
$SURFV
 70
     6
  9
$UCSBASE
  2

  9
$UCSNAME
  2

  9
$UCSORG
 10
-4.999999999999966
 20
575.0
 30
0.0
  9
$UCSXDIR
 10
1.0
 20
0.0
 30
0.0
  9
$UCSYDIR
 10
0.0
 20
1.0
 30
0.0
  9
$UCSORTHOREF
  2

  9
$UCSORTHOVIEW
 70
     0
  9
$UCSORGTOP
 10
0.0
 20
0.0
 30
0.0
  9
$UCSORGBOTTOM
 10
0.0
 20
0.0
 30
0.0
  9
$UCSORGLEFT
 10
0.0
 20
0.0
 30
0.0
  9
$UCSORGRIGHT
 10
0.0
 20
0.0
 30
0.0
  9
$UCSORGFRONT
 10
0.0
 20
0.0
 30
0.0
  9
$UCSORGBACK
 10
0.0
 20
0.0
 30
0.0
  9
$PUCSBASE
  2

  9
$PUCSNAME
  2

  9
$PUCSORG
 10
0.0
 20
0.0
 30
0.0
  9
$PUCSXDIR
 10
1.0
 20
0.0
 30
0.0
  9
$PUCSYDIR
 10
0.0
 20
1.0
 30
0.0
  9
$PUCSORTHOREF
  2

  9
$PUCSORTHOVIEW
 70
     0
  9
$PUCSORGTOP
 10
0.0
 20
0.0
 30
0.0
  9
$PUCSORGBOTTOM
 10
0.0
 20
0.0
 30
0.0
  9
$PUCSORGLEFT
 10
0.0
 20
0.0
 30
0.0
  9
$PUCSORGRIGHT
 10
0.0
 20
0.0
 30
0.0
  9
$PUCSORGFRONT
 10
0.0
 20
0.0
 30
0.0
  9
$PUCSORGBACK
 10
0.0
 20
0.0
 30
0.0
  9
$USERI1
 70
     0
  9
$USERI2
 70
     0
  9
$USERI3
 70
     0
  9
$USERI4
 70
     0
  9
$USERI5
 70
     0
  9
$USERR1
 40
0.0
  9
$USERR2
 40
0.0
  9
$USERR3
 40
0.0
  9
$USERR4
 40
0.0
  9
$USERR5
 40
0.0
  9
$WORLDVIEW
 70
     1
  9
$SHADEDGE
 70
     3
  9
$SHADEDIF
 70
    70
  9
$TILEMODE
 70
     1
  9
$MAXACTVP
 70
    64
  9
$PINSBASE
 10
0.0
 20
0.0
 30
0.0
  9
$PLIMCHECK
 70
     0
  9
$PEXTMIN
 10
1.000000000000000E+20
 20
1.000000000000000E+20
 30
1.000000000000000E+20
  9
$PEXTMAX
 10
-1.000000000000000E+20
 20
-1.000000000000000E+20
 30
-1.000000000000000E+20
  9
$PLIMMIN
 10
0.0
 20
0.0
  9
$PLIMMAX
 10
12.0
 20
9.0
  9
$UNITMODE
 70
     0
  9
$VISRETAIN
 70
     1
  9
$PLINEGEN
 70
     0
  9
$PSLTSCALE
 70
     1
  9
$TREEDEPTH
 70
  3020
  9
$CMLSTYLE
  2
Standard
  9
$CMLJUST
 70
     0
  9
$CMLSCALE
 40
1.0
  9
$PROXYGRAPHICS
 70
     1
  9
$MEASUREMENT
 70
     1
  9
$CELWEIGHT
370
    -1
  9
$ENDCAPS
280
     0
  9
$JOINSTYLE
280
     0
  9
$LWDISPLAY
290
     0
  9
$INSUNITS
 70
     0
  9
$HYPERLINKBASE
  1

  9
$STYLESHEET
  1

  9
$XEDIT
290
     1
  9
$CEPSNTYPE
380
     0
  9
$PSTYLEMODE
290
     1
  9
$FINGERPRINTGUID
  2
{DDB59A75-F870-2C45-8108-F36812CD1032}
  9
$VERSIONGUID
  2
{2002F7C6-7646-D24C-A4ED-55A59753F1C5}
  9
$EXTNAMES
290
     1
  9
$PSVPSCALE
 40
0.0
  9
$OLESTARTUP
290
     0
  9
$SORTENTS
280
   127
  9
$INDEXCTL
280
     0
  9
$HIDETEXT
280
     0
  9
$XCLIPFRAME
280
     2
  9
$HALOGAP
280
     0
  9
$OBSCOLOR
 70
   257
  9
$OBSLTYPE
280
     0
  9
$INTERSECTIONDISPLAY
280
     0
  9
$INTERSECTIONCOLOR
 70
   257
  9
$DIMASSOC
280
     1
  9
$PROJECTNAME
  1

  9
$CAMERADISPLAY
290
     0
  9
$LENSLENGTH
 40
50.0
  9
$CAMERAHEIGHT
 40
0.0
  9
$STEPSPERSEC
 40
2.0
  9
$STEPSIZE
 40
6.0
  9
$3DDWFPREC
 40
2.0
  9
$PSOLWIDTH
 40
0.25
  9
$PSOLHEIGHT
 40
4.0
  9
$LOFTANG1
 40
1.570796326794896
  9
$LOFTANG2
 40
1.570796326794896
  9
$LOFTMAG1
 40
0.0
  9
$LOFTMAG2
 40
0.0
  9
$LOFTPARAM
 70
     7
  9
$LOFTNORMALS
280
     1
  9
$LATITUDE
 40
37.795
  9
$LONGITUDE
 40
-122.394
  9
$NORTHDIRECTION
 40
0.0
  9
$TIMEZONE
 70
 -8000
  9
$LIGHTGLYPHDISPLAY
280
     1
  9
$TILEMODELIGHTSYNCH
280
     1
  9
$CMATERIAL
347
10004
  9
$SOLIDHIST
280
     0
  9
$SHOWHIST
280
     1
  9
$DWFFRAME
280
     2
  9
$DGNFRAME
280
     0
  9
$REALWORLDSCALE
290
     1
  9
$INTERFERECOLOR
 62
     1
  9
$INTERFEREOBJVS
345
10026
  9
$INTERFEREVPVS
346
10023
  9
$CSHADOW
280
     0
  9
$SHADOWPLANELOCATION
 40
0.0
  0
ENDSEC
  0
SECTION
  2
CLASSES
  0
CLASS
  1
ACDBDICTIONARYWDFLT
  2
AcDbDictionaryWithDefault
  3
ObjectDBX Classes
 90
        0
 91
        1
280
     0
281
     0
  0
CLASS
  1
MATERIAL
  2
AcDbMaterial
  3
ObjectDBX Classes
 90
     1153
 91
        3
280
     0
281
     0
  0
CLASS
  1
VISUALSTYLE
  2
AcDbVisualStyle
  3
ObjectDBX Classes
 90
     4095
 91
       24
280
     0
281
     0
  0
CLASS
  1
TABLESTYLE
  2
AcDbTableStyle
  3
ObjectDBX Classes
 90
     4095
 91
        1
280
     0
281
     0
  0
CLASS
  1
SCALE
  2
AcDbScale
  3
ObjectDBX Classes
 90
     1153
 91
       17
280
     0
281
     0
  0
CLASS
  1
MLEADERSTYLE
  2
AcDbMLeaderStyle
  3
ACDB_MLEADERSTYLE_CLASS
 90
     4095
 91
        1
280
     0
281
     0
  0
CLASS
  1
ACDBSECTIONVIEWSTYLE
  2
AcDbSectionViewStyle
  3
ObjectDBX Classes
 90
     1025
 91
        2
280
     0
281
     0
  0
CLASS
  1
ACDBDETAILVIEWSTYLE
  2
AcDbDetailViewStyle
  3
ObjectDBX Classes
 90
     1025
 91
        2
280
     0
281
     0
  0
CLASS
  1
DICTIONARYVAR
  2
AcDbDictionaryVar
  3
ObjectDBX Classes
 90
        0
 91
       10
280
     0
281
     0
  0
CLASS
  1
CELLSTYLEMAP
  2
AcDbCellStyleMap
  3
ObjectDBX Classes
 90
     1152
 91
        2
280
     0
281
     0
  0
CLASS
  1
SORTENTSTABLE
  2
AcDbSortentsTable
  3
ObjectDBX Classes
 90
        0
 91
        1
280
     0
281
     0
  0
ENDSEC
  0
SECTION
  2
TABLES
  0
TABLE
  2
VPORT
  5
8
330
0
100
AcDbSymbolTable
 70
     1
  0
VPORT
  5
2E
330
8
100
AcDbSymbolTableRecord
100
AcDbViewportTableRecord
  2
*ACTIVE
 70
     0
 10
0.0
 20
0.0
 11
1.0
 21
1.0
 12
728.9185161319028
 22
748.6228547946
 13
0.0
 23
0.0
 14
0.5
 24
0.5
 15
10.0
 25
10.0
 16
0.0
 26
0.0
 36
1.0
 17
0.0
 27
0.0
 37
0.0
 40
738.731752751024
 41
2.914406779661017
 42
50.0
 43
0.0
 44
0.0
 50
0.0
 51
0.0
 71
     0
 72
   100
 73
     1
 74
     3
 75
     1
 76
     1
 77
     0
 78
     0
281
     0
 65
     1
110
-4.999999999999966
120
575.0
130
0.0
111
1.0
121
0.0
131
0.0
112
0.0
122
1.0
132
0.0
 79
     0
146
0.0
348
10022
 60
     7
 61
     5
292
     1
282
     1
141
0.0
142
0.0
 63
   250
421
  3355443
1001
ACAD_NAV_VCDISPLAY
1070
     3
  0
ENDTAB
  0
TABLE
  2
LTYPE
  5
5
330
0
100
AcDbSymbolTable
 70
     2
  0
LTYPE
  5
14
330
5
100
AcDbSymbolTableRecord
100
AcDbLinetypeTableRecord
  2
BYBLOCK
 70
     0
  3

 72
    65
 73
     0
 40
0.0
  0
LTYPE
  5
15
330
5
100
AcDbSymbolTableRecord
100
AcDbLinetypeTableRecord
  2
BYLAYER
 70
     0
  3

 72
    65
 73
     0
 40
0.0
  0
LTYPE
  5
16
330
5
100
AcDbSymbolTableRecord
100
AcDbLinetypeTableRecord
  2
CONTINUOUS
 70
     0
  3
Solid line
 72
    65
 73
     0
 40
0.0
  0
ENDTAB
  0
TABLE
  2
LAYER
  5
2
102
{ACAD_XDICTIONARY
360
1008C
102
}
330
0
100
AcDbSymbolTable
 70
     4
  0
LAYER
  5
50
102
{ACAD_XDICTIONARY
360
10057
102
}
330
2
100
AcDbSymbolTableRecord
100
AcDbLayerTableRecord
  2
0
 70
     0
 62
     7
  6
CONTINUOUS
370
    -3
390
10002
347
10014
348
0
  0
LAYER
  5
51
102
{ACAD_XDICTIONARY
360
10059
102
}
330
2
100
AcDbSymbolTableRecord
100
AcDbLayerTableRecord
  2
LAYER_1
 70
     0
 62
     7
  6
CONTINUOUS
370
    -3
390
10002
347
10014
348
0
  0
LAYER
  5
10465
102
{ACAD_XDICTIONARY
360
10466
102
}
330
2
100
AcDbSymbolTableRecord
100
AcDbLayerTableRecord
  2
1
 70
     0
 62
     7
  6
CONTINUOUS
370
    -3
390
10002
347
10014
348
0
  0
LAYER
  5
11B80
330
2
100
AcDbSymbolTableRecord
100
AcDbLayerTableRecord
  2
Defpoints
 70
     0
 62
     7
  6
CONTINUOUS
290
     0
370
    -3
390
10002
347
10014
348
0
  0
ENDTAB
  0
TABLE
  2
STYLE
  5
3
330
0
100
AcDbSymbolTable
 70
     1
  0
STYLE
  5
11
330
3
100
AcDbSymbolTableRecord
100
AcDbTextStyleTableRecord
  2
STANDARD
 70
     0
 40
0.0
 41
1.0
 50
0.0
 71
     0
 42
10.0
  3
txt
  4

  0
ENDTAB
  0
TABLE
  2
VIEW
  5
6
330
0
100
AcDbSymbolTable
 70
     0
  0
ENDTAB
  0
TABLE
  2
UCS
  5
7
330
0
100
AcDbSymbolTable
 70
     0
  0
ENDTAB
  0
TABLE
  2
APPID
  5
9
330
0
100
AcDbSymbolTable
 70
     5
  0
APPID
  5
12
330
9
100
AcDbSymbolTableRecord
100
AcDbRegAppTableRecord
  2
ACAD
 70
     0
  0
APPID
  5
10065
330
9
100
AcDbSymbolTableRecord
100
AcDbRegAppTableRecord
  2
ACAD_NAV_VCDISPLAY
 70
     0
  0
APPID
  5
1006E
330
9
100
AcDbSymbolTableRecord
100
AcDbRegAppTableRecord
  2
ACAD_EXEMPT_FROM_CAD_STANDARDS
 70
     0
  0
APPID
  5
1011C
330
9
100
AcDbSymbolTableRecord
100
AcDbRegAppTableRecord
  2
ACAD_DSTYLE_DIMRADIAL_EXTENSION
 70
     0
  0
APPID
  5
11BE0
330
9
100
AcDbSymbolTableRecord
100
AcDbRegAppTableRecord
  2
Acad_TC
 70
     0
  0
ENDTAB
  0
TABLE
  2
DIMSTYLE
  5
A
330
0
100
AcDbSymbolTable
 70
     3
100
AcDbDimStyleTable
 71
     1
340
27
  0
DIMSTYLE
105
100DC
330
A
100
AcDbSymbolTableRecord
100
AcDbDimStyleTableRecord
  2
Standard
 70
     0
340
11
  0
DIMSTYLE
105
27
330
A
100
AcDbSymbolTableRecord
100
AcDbDimStyleTableRecord
  2
ISO-25
 70
     0
 41
2.5
 42
0.625
 43
3.75
 44
1.25
 73
     0
 74
     0
 77
     1
 78
     8
140
2.5
141
2.5
143
0.03937007874016
147
0.625
171
     3
172
     1
271
     2
272
     2
274
     3
283
     0
284
     8
340
11
  0
ENDTAB
  0
TABLE
  2
BLOCK_RECORD
  5
1
330
0
100
AcDbSymbolTable
 70
     2
  0
BLOCK_RECORD
  5
1F
102
{ACAD_XDICTIONARY
360
10135
102
}
330
1
100
AcDbSymbolTableRecord
100
AcDbBlockTableRecord
  2
*MODEL_SPACE
340
10052
 70
     0
280
     1
281
     0
  0
BLOCK_RECORD
  5
1B
330
1
100
AcDbSymbolTableRecord
100
AcDbBlockTableRecord
  2
*PAPER_SPACE
340
10053
 70
     0
280
     1
281
     0
  0
BLOCK_RECORD
  5
100DF
330
1
100
AcDbSymbolTableRecord
100
AcDbBlockTableRecord
  2
$AUDIT_BAD_BLOCK_RECORD1
340
0
 70
     0
280
     1
281
     0
  0
ENDTAB
  0
ENDSEC
  0
SECTION
  2
BLOCKS
  0
BLOCK
  5
20
330
1F
100
AcDbEntity
  8
0
100
AcDbBlockBegin
  2
*MODEL_SPACE
 70
     0
 10
0.0
 20
0.0
 30
0.0
  3
*MODEL_SPACE
  1

  0
ENDBLK
  5
21
330
1F
100
AcDbEntity
  8
0
100
AcDbBlockEnd
  0
BLOCK
  5
1C
330
1B
100
AcDbEntity
 67
     1
  8
0
100
AcDbBlockBegin
  2
*PAPER_SPACE
 70
     0
 10
0.0
 20
0.0
 30
0.0
  3
*PAPER_SPACE
  1

  0
ENDBLK
  5
1D
330
1B
100
AcDbEntity
 67
     1
  8
0
100
AcDbBlockEnd
  0
BLOCK
  5
100E0
330
100DF
100
AcDbEntity
  8
0
100
AcDbBlockBegin
  2
$AUDIT_BAD_BLOCK_RECORD1
 70
     0
 10
0.0
 20
0.0
 30
0.0
  3
$AUDIT_BAD_BLOCK_RECORD1
  1

  0
LWPOLYLINE
  5
100D8
330
100DF
100
AcDbEntity
  8
0
  6
ByBlock
 62
     0
100
AcDbPolyline
 90
        2
 70
     1
 43
0.5
 10
-0.0625
 20
0.0
 42
1.0
 10
0.0625
 20
0.0
 42
1.0
  0
ENDBLK
  5
100E1
330
100DF
100
AcDbEntity
  8
0
100
AcDbBlockEnd
  0
ENDSEC
  0
SECTION
  2
ENTITIES
  0
LWPOLYLINE
  5
11BEB
330
1F
100
AcDbEntity
  8
0
  6
Continuous
100
AcDbPolyline
 90
        4
 70
     1
 43
0.0
 10
457.5000000000001
 20
905.0
 10
433.0
 20
905.0
 10
433.0
 20
893.0
 10
457.5000000000001
 20
893.0
  0
LWPOLYLINE
  5
11BEC
330
1F
100
AcDbEntity
  8
0
  6
Continuous
100
AcDbPolyline
 90
        4
 70
     1
 43
0.0
 10
487.5
 20
893.0
 10
512.0
 20
893.0
 10
512.0
 20
905.0
 10
487.5
 20
905.0
  0
LWPOLYLINE
  5
11BEE
330
1F
100
AcDbEntity
  8
0
  6
Continuous
100
AcDbPolyline
 90
        4
 70
     1
 43
0.0
 10
487.5
 20
801.0
 10
512.0
 20
801.0
 10
512.0
 20
813.0
 10
487.5
 20
813.0
  0
LWPOLYLINE
  5
11BEF
330
1F
100
AcDbEntity
  8
0
  6
Continuous
100
AcDbPolyline
 90
        4
 70
     1
 43
0.0
 10
433.0
 20
801.0
 10
433.0
 20
813.0
 10
457.5000000000001
 20
813.0
 10
457.5000000000001
 20
801.0
  0
CIRCLE
  5
11FAF
330
1F
100
AcDbEntity
  8
0
  6
Continuous
100
AcDbCircle
 10
351.5000000000002
 20
1074.175
 30
0.0
 40
4.0
  0
LWPOLYLINE
  5
11FB3
330
1F
100
AcDbEntity
  8
0
  6
Continuous
100
AcDbPolyline
 90
        2
 70
     1
 43
0.0
 10
35.00000000000003
 20
845.0
 10
35.00000000000003
 20
845.0
  0
LWPOLYLINE
  5
11FCF
330
1F
100
AcDbEntity
  8
0
  6
Continuous
100
AcDbPolyline
 90
        2
 70
     0
 43
0.0
 10
35.00000000000003
 20
663.4999999999998
 42
1.0
 10
35.00000000000002
 20
583.4999999999999
  0
CIRCLE
  5
11FD0
330
1F
100
AcDbEntity
  8
0
  6
Continuous
100
AcDbCircle
 10
35.0
 20
623.5
 30
0.0
 40
4.0
  0
LWPOLYLINE
  5
11FD1
330
1F
100
AcDbEntity
  8
0
  6
Continuous
100
AcDbPolyline
 90
        2
 70
     0
 43
0.0
 10
255.0
 20
651.5
 10
235.0
 20
651.5
  0
LWPOLYLINE
  5
11FD2
330
1F
100
AcDbEntity
  8
0
  6
Continuous
100
AcDbPolyline
 90
        2
 70
     0
 43
0.0
 10
255.0
 20
595.5
 10
235.0
 20
595.5
  0
LINE
  5
11FD3
330
1F
100
AcDbEntity
  8
0
  6
Continuous
100
AcDbLine
 10
275.0
 20
651.5
 30
0.0
 11
295.0000000000001
 21
651.5
 31
0.0
  0
LINE
  5
11FD4
330
1F
100
AcDbEntity
  8
0
  6
Continuous
100
AcDbLine
 10
295.0000000000001
 20
651.5
 30
0.0
 11
295.0000000000001
 21
595.5
 31
0.0
  0
LINE
  5
11FD5
330
1F
100
AcDbEntity
  8
0
  6
Continuous
100
AcDbLine
 10
295.0000000000001
 20
595.5
 30
0.0
 11
275.0
 21
595.5
 31
0.0
  0
LWPOLYLINE
  5
11FDB
330
1F
100
AcDbEntity
  8
0
  6
Continuous
100
AcDbPolyline
 90
        4
 70
     1
 43
0.0
 10
413.0
 20
935.0
 10
532.0
 20
935.0
 10
532.0
 20
731.0
 10
413.0
 20
731.0
  0
CIRCLE
  5
11FDC
330
1F
100
AcDbEntity
  8
0
  6
Continuous
100
AcDbCircle
 10
423.0
 20
925.0
 30
0.0
 40
2.0
  0
CIRCLE
  5
11FDD
330
1F
100
AcDbEntity
  8
0
  6
Continuous
100
AcDbCircle
 10
423.0
 20
741.0
 30
0.0
 40
2.0
  0
CIRCLE
  5
11FDE
330
1F
100
AcDbEntity
  8
0
  6
Continuous
100
AcDbCircle
 10
522.0
 20
925.0
 30
0.0
 40
2.0
  0
CIRCLE
  5
11FDF
330
1F
100
AcDbEntity
  8
0
  6
Continuous
100
AcDbCircle
 10
522.0
 20
741.0
 30
0.0
 40
2.0
  0
LWPOLYLINE
  5
12004
330
1F
100
AcDbEntity
  8
0
  6
Continuous
100
AcDbPolyline
 90
        4
 70
     0
 43
0.0
 10
75.00000000000003
 20
595.5
 10
75.00000000000003
 20
583.4999999999999
 10
55.00000000000007
 20
583.4999999999999
 10
55.00000000000007
 20
595.5
  0
LWPOLYLINE
  5
12005
330
1F
100
AcDbEntity
  8
0
  6
Continuous
100
AcDbPolyline
 90
        4
 70
     0
 43
0.0
 10
115.0
 20
595.5
 10
115.0
 20
583.4999999999999
 10
95.00000000000005
 20
583.4999999999999
 10
95.00000000000005
 20
595.5
  0
LWPOLYLINE
  5
12006
330
1F
100
AcDbEntity
  8
0
  6
Continuous
100
AcDbPolyline
 90
        4
 70
     0
 43
0.0
 10
155.0
 20
595.5
 10
155.0
 20
583.4999999999999
 10
135.0
 20
583.4999999999999
 10
135.0
 20
595.5
  0
LWPOLYLINE
  5
12007
330
1F
100
AcDbEntity
  8
0
  6
Continuous
100
AcDbPolyline
 90
        4
 70
     0
 43
0.0
 10
195.0
 20
595.5
 10
195.0
 20
583.4999999999999
 10
175.0
 20
583.4999999999999
 10
175.0
 20
595.5
  0
LWPOLYLINE
  5
12008
330
1F
100
AcDbEntity
  8
0
  6
Continuous
100
AcDbPolyline
 90
        4
 70
     0
 43
0.0
 10
235.0
 20
595.5
 10
235.0
 20
583.4999999999999
 10
215.0000000000001
 20
583.4999999999999
 10
215.0000000000001
 20
595.5
  0
LWPOLYLINE
  5
12009
330
1F
100
AcDbEntity
  8
0
  6
Continuous
100
AcDbPolyline
 90
        4
 70
     0
 43
0.0
 10
275.0
 20
595.5
 10
275.0
 20
583.4999999999999
 10
255.0
 20
583.4999999999999
 10
255.0
 20
595.5
  0
LWPOLYLINE
  5
1200A
330
1F
100
AcDbEntity
  8
0
  6
Continuous
100
AcDbPolyline
 90
        4
 70
     0
 43
0.0
 10
55.00000000000003
 20
651.5
 10
55.00000000000003
 20
663.4999999999998
 10
75.0
 20
663.4999999999998
 10
75.0
 20
651.5
  0
LWPOLYLINE
  5
1200B
330
1F
100
AcDbEntity
  8
0
  6
Continuous
100
AcDbPolyline
 90
        4
 70
     0
 43
0.0
 10
95.00000000000005
 20
651.5
 10
95.00000000000005
 20
663.4999999999998
 10
115.0
 20
663.4999999999998
 10
115.0
 20
651.5
  0
LWPOLYLINE
  5
1200C
330
1F
100
AcDbEntity
  8
0
  6
Continuous
100
AcDbPolyline
 90
        4
 70
     0
 43
0.0
 10
135.0
 20
651.5
 10
135.0
 20
663.4999999999998
 10
155.0
 20
663.4999999999998
 10
155.0
 20
651.5
  0
LWPOLYLINE
  5
1200D
330
1F
100
AcDbEntity
  8
0
  6
Continuous
100
AcDbPolyline
 90
        4
 70
     0
 43
0.0
 10
175.0
 20
651.5
 10
175.0
 20
663.4999999999998
 10
195.0
 20
663.4999999999998
 10
195.0
 20
651.5
  0
LWPOLYLINE
  5
1200E
330
1F
100
AcDbEntity
  8
0
  6
Continuous
100
AcDbPolyline
 90
        4
 70
     0
 43
0.0
 10
215.0
 20
651.5
 10
215.0
 20
663.4999999999998
 10
235.0
 20
663.4999999999998
 10
235.0
 20
651.5
  0
LWPOLYLINE
  5
1200F
330
1F
100
AcDbEntity
  8
0
  6
Continuous
100
AcDbPolyline
 90
        4
 70
     0
 43
0.0
 10
255.0
 20
651.5
 10
255.0
 20
663.4999999999998
 10
275.0
 20
663.4999999999998
 10
275.0
 20
651.5
  0
LWPOLYLINE
  5
12034
330
1F
100
AcDbEntity
  8
0
  6
Continuous
100
AcDbPolyline
 90
        2
 70
     0
 43
0.0
 10
577.0
 20
583.4999999999999
 10
557.0
 20
583.4999999999999
  0
CIRCLE
  5
12035
330
1F
100
AcDbEntity
  8
0
  6
Continuous
100
AcDbCircle
 10
577.0
 20
611.5
 30
0.0
 40
4.0
  0
LWPOLYLINE
  5
12036
330
1F
100
AcDbEntity
  8
0
  6
Continuous
100
AcDbPolyline
 90
        2
 70
     0
 43
0.0
 10
537.0
 20
639.5
 10
517.0
 20
639.5
  0
LINE
  5
12037
330
1F
100
AcDbEntity
  8
0
  6
Continuous
100
AcDbLine
 10
577.0000000000001
 20
639.5
 30
0.0
 11
557.0
 21
639.5
 31
0.0
  0
ARC
  5
12038
330
1F
100
AcDbEntity
  8
0
  6
Continuous
100
AcDbCircle
 10
577.0
 20
611.5
 30
0.0
 40
28.0
100
AcDbArc
 50
270.0
 51
90.0
  0
LWPOLYLINE
  5
12039
330
1F
100
AcDbEntity
  8
0
  6
Continuous
100
AcDbPolyline
 90
        4
 70
     0
 43
0.0
 10
357.0
 20
639.5
 10
357.0
 20
627.5
 10
337.0
 20
627.5
 10
337.0
 20
639.5
  0
LWPOLYLINE
  5
1203A
330
1F
100
AcDbEntity
  8
0
  6
Continuous
100
AcDbPolyline
 90
        4
 70
     0
 43
0.0
 10
397.0
 20
639.5
 10
397.0
 20
627.5
 10
377.0
 20
627.5
 10
377.0
 20
639.5
  0
LWPOLYLINE
  5
1203B
330
1F
100
AcDbEntity
  8
0
  6
Continuous
100
AcDbPolyline
 90
        4
 70
     0
 43
0.0
 10
437.0
 20
639.5
 10
437.0
 20
627.5
 10
417.0
 20
627.5
 10
417.0
 20
639.5
  0
LWPOLYLINE
  5
1203C
330
1F
100
AcDbEntity
  8
0
  6
Continuous
100
AcDbPolyline
 90
        4
 70
     0
 43
0.0
 10
477.0
 20
639.5
 10
477.0
 20
627.5
 10
457.0
 20
627.5
 10
457.0
 20
639.5
  0
LWPOLYLINE
  5
1203D
330
1F
100
AcDbEntity
  8
0
  6
Continuous
100
AcDbPolyline
 90
        4
 70
     0
 43
0.0
 10
517.0
 20
639.5
 10
517.0
 20
627.5
 10
497.0
 20
627.5
 10
497.0
 20
639.5
  0
LWPOLYLINE
  5
1203E
330
1F
100
AcDbEntity
  8
0
  6
Continuous
100
AcDbPolyline
 90
        4
 70
     0
 43
0.0
 10
557.0
 20
639.5
 10
557.0
 20
627.5
 10
537.0
 20
627.5
 10
537.0
 20
639.5
  0
LWPOLYLINE
  5
1203F
330
1F
100
AcDbEntity
  8
0
  6
Continuous
100
AcDbPolyline
 90
        4
 70
     0
 43
0.0
 10
337.0
 20
583.4999999999999
 10
337.0
 20
595.5
 10
357.0
 20
595.5
 10
357.0
 20
583.4999999999999
  0
LWPOLYLINE
  5
12040
330
1F
100
AcDbEntity
  8
0
  6
Continuous
100
AcDbPolyline
 90
        4
 70
     0
 43
0.0
 10
377.0
 20
583.4999999999999
 10
377.0
 20
595.5
 10
397.0
 20
595.5
 10
397.0
 20
583.4999999999999
  0
LWPOLYLINE
  5
12041
330
1F
100
AcDbEntity
  8
0
  6
Continuous
100
AcDbPolyline
 90
        4
 70
     0
 43
0.0
 10
417.0
 20
583.4999999999999
 10
417.0
 20
595.5
 10
437.0
 20
595.5
 10
437.0
 20
583.4999999999999
  0
LWPOLYLINE
  5
12042
330
1F
100
AcDbEntity
  8
0
  6
Continuous
100
AcDbPolyline
 90
        4
 70
     0
 43
0.0
 10
457.0
 20
583.4999999999999
 10
457.0
 20
595.5
 10
477.0
 20
595.5
 10
477.0
 20
583.4999999999999
  0
LWPOLYLINE
  5
12043
330
1F
100
AcDbEntity
  8
0
  6
Continuous
100
AcDbPolyline
 90
        4
 70
     0
 43
0.0
 10
497.0
 20
583.4999999999999
 10
497.0
 20
595.5
 10
517.0
 20
595.5
 10
517.0
 20
583.4999999999999
  0
LWPOLYLINE
  5
12044
330
1F
100
AcDbEntity
  8
0
  6
Continuous
100
AcDbPolyline
 90
        4
 70
     0
 43
0.0
 10
537.0
 20
583.4999999999999
 10
537.0
 20
595.5
 10
557.0
 20
595.5
 10
557.0
 20
583.4999999999999
  0
LWPOLYLINE
  5
12047
330
1F
100
AcDbEntity
  8
0
  6
Continuous
100
AcDbPolyline
 90
       52
 70
     1
 43
0.0
 10
239.4999999999999
 20
949.0
 10
264.0
 20
949.0
 10
264.0
 20
1029.0
 10
239.5
 20
1029.0
 10
239.5
 20
1017.0
 10
219.5
 20
1017.0
 10
219.5
 20
1029.0
 10
199.5
 20
1029.0
 10
199.5
 20
1017.0
 10
179.5
 20
1017.0
 10
179.5
 20
1029.0
 10
159.5
 20
1029.0
 10
159.5
 20
1017.0
 10
139.5
 20
1017.0
 10
139.5
 20
1029.0
 10
119.5
 20
1029.0
 10
119.5
 20
1017.0
 10
99.50000000000006
 20
1017.0
 10
99.50000000000006
 20
1029.0
 10
79.5
 20
1029.0
 10
79.5
 20
1017.0
 10
59.50000000000006
 20
1017.0
 10
59.50000000000006
 20
1029.0
 10
39.5
 20
1029.0
 10
39.5
 20
1017.0
 10
19.50000000000006
 20
1017.0
 10
19.50000000000006
 20
1029.0
 10
-4.999999999999943
 20
1029.0
 10
-4.999999999999943
 20
949.0
 10
19.50000000000006
 20
949.0
 10
19.50000000000006
 20
961.0
 10
39.5
 20
961.0
 10
39.5
 20
949.0
 10
59.50000000000006
 20
949.0
 10
59.50000000000006
 20
961.0
 10
79.5
 20
961.0
 10
79.5
 20
949.0
 10
99.50000000000006
 20
949.0
 10
99.50000000000006
 20
961.0
 10
119.5
 20
961.0
 10
119.5
 20
949.0
 10
139.5
 20
949.0
 10
139.5
 20
961.0
 10
159.5
 20
961.0
 10
159.5
 20
949.0
 10
179.5
 20
949.0
 10
179.5
 20
961.0
 10
199.5
 20
961.0
 10
199.5
 20
949.0
 10
219.5
 20
949.0
 10
219.5
 20
961.0
 10
239.5
 20
961.0
  0
LWPOLYLINE
  5
1208C
330
1F
100
AcDbEntity
  8
0
  6
Continuous
100
AcDbPolyline
 90
       20
 70
     1
 43
0.0
 10
306.5000000000001
 20
1047.35
 10
306.5000000000001
 20
1044.175
 10
294.5000000000001
 20
1044.175
 10
294.5000000000001
 20
1037.175
 42
0.4142135623730951
 10
297.5000000000001
 20
1034.175
 10
351.5000000000002
 20
1034.175
 42
0.9999999999999998
 10
351.5000000000002
 20
1114.175
 10
297.5000000000001
 20
1114.175
 42
0.4142135623730951
 10
294.5000000000001
 20
1111.175
 10
294.5000000000001
 20
1104.175
 10
306.5000000000001
 20
1104.175
 10
306.5000000000001
 20
1101.0
 10
294.5000000000001
 20
1101.0
 10
294.5000000000001
 20
1092.175
 42
0.4142135623730951
 10
297.5000000000001
 20
1089.175
 10
306.5000000000001
 20
1089.175
 10
306.5000000000001
 20
1059.175
 10
297.5000000000001
 20
1059.175
 42
0.4142135623730951
 10
294.5000000000001
 20
1056.175
 10
294.5000000000001
 20
1047.35
  0
CIRCLE
  5
1208D
330
1F
100
AcDbEntity
  8
0
  6
Continuous
100
AcDbCircle
 10
351.5000000000002
 20
988.6749999999999
 30
0.0
 40
4.0
  0
LWPOLYLINE
  5
1208E
330
1F
100
AcDbEntity
  8
0
  6
Continuous
100
AcDbPolyline
 90
       20
 70
     1
 43
0.0
 10
306.5000000000001
 20
961.85
 10
306.5000000000001
 20
958.675
 10
294.5000000000001
 20
958.675
 10
294.5000000000001
 20
951.675
 42
0.4142135623730951
 10
297.5000000000001
 20
948.6749999999997
 10
351.5000000000002
 20
948.6749999999997
 42
0.9999999999999998
 10
351.5000000000002
 20
1028.675
 10
297.5000000000001
 20
1028.675
 42
0.4142135623730951
 10
294.5000000000001
 20
1025.675
 10
294.5000000000001
 20
1018.675
 10
306.5000000000001
 20
1018.675
 10
306.5000000000001
 20
1015.5
 10
294.5000000000001
 20
1015.5
 10
294.5000000000001
 20
1006.675
 42
0.4142135623730951
 10
297.5000000000001
 20
1003.675
 10
306.5000000000001
 20
1003.675
 10
306.5000000000001
 20
973.6749999999997
 10
297.5000000000001
 20
973.6749999999997
 42
0.4142135623730951
 10
294.5000000000001
 20
970.6749999999999
 10
294.5000000000001
 20
961.85
  0
LWPOLYLINE
  5
1208F
330
1F
100
AcDbEntity
  8
0
  6
Continuous
100
AcDbPolyline
 90
        3
 70
     0
 43
0.0
 10
55.00000000000007
 20
595.5
 10
35.00000000000003
 20
595.5
 10
35.00000000000003
 20
583.4999999999999
  0
LWPOLYLINE
  5
12090
330
1F
100
AcDbEntity
  8
0
  6
Continuous
100
AcDbPolyline
 90
        2
 70
     0
 43
0.0
 10
95.00000000000007
 20
595.5
 10
75.00000000000007
 20
595.5
  0
LWPOLYLINE
  5
12091
330
1F
100
AcDbEntity
  8
0
  6
Continuous
100
AcDbPolyline
 90
        2
 70
     0
 43
0.0
 10
135.0000000000001
 20
595.5
 10
115.0
 20
595.5
  0
LWPOLYLINE
  5
12092
330
1F
100
AcDbEntity
  8
0
  6
Continuous
100
AcDbPolyline
 90
        2
 70
     0
 43
0.0
 10
175.0
 20
595.5
 10
155.0
 20
595.5
  0
LWPOLYLINE
  5
12093
330
1F
100
AcDbEntity
  8
0
  6
Continuous
100
AcDbPolyline
 90
        2
 70
     0
 43
0.0
 10
215.0000000000001
 20
595.5
 10
195.0
 20
595.5
  0
LWPOLYLINE
  5
12094
330
1F
100
AcDbEntity
  8
0
  6
Continuous
100
AcDbPolyline
 90
        2
 70
     0
 43
0.0
 10
215.0
 20
651.5
 10
195.0
 20
651.5
  0
LWPOLYLINE
  5
12095
330
1F
100
AcDbEntity
  8
0
  6
Continuous
100
AcDbPolyline
 90
        2
 70
     0
 43
0.0
 10
175.0
 20
651.5
 10
155.0
 20
651.5
  0
LWPOLYLINE
  5
12096
330
1F
100
AcDbEntity
  8
0
  6
Continuous
100
AcDbPolyline
 90
        2
 70
     0
 43
0.0
 10
135.0
 20
651.5
 10
115.0
 20
651.5
  0
LWPOLYLINE
  5
12097
330
1F
100
AcDbEntity
  8
0
  6
Continuous
100
AcDbPolyline
 90
        2
 70
     0
 43
0.0
 10
95.00000000000005
 20
651.5
 10
75.0
 20
651.5
  0
LWPOLYLINE
  5
12098
330
1F
100
AcDbEntity
  8
0
  6
Continuous
100
AcDbPolyline
 90
        3
 70
     0
 43
0.0
 10
55.00000000000003
 20
651.5
 10
35.00000000000003
 20
651.5
 10
35.00000000000003
 20
663.4999999999998
  0
LWPOLYLINE
  5
12099
330
1F
100
AcDbEntity
  8
0
  6
Continuous
100
AcDbPolyline
 90
        2
 70
     0
 43
0.0
 10
337.0
 20
639.5
 10
317.0000000000001
 20
639.5
  0
LWPOLYLINE
  5
1209B
330
1F
100
AcDbEntity
  8
0
  6
Continuous
100
AcDbPolyline
 90
        2
 70
     0
 43
0.0
 10
377.0
 20
639.5
 10
357.0
 20
639.5
  0
LWPOLYLINE
  5
1209D
330
1F
100
AcDbEntity
  8
0
  6
Continuous
100
AcDbPolyline
 90
        2
 70
     0
 43
0.0
 10
417.0
 20
639.5
 10
397.0
 20
639.5
  0
LWPOLYLINE
  5
1209F
330
1F
100
AcDbEntity
  8
0
  6
Continuous
100
AcDbPolyline
 90
        2
 70
     0
 43
0.0
 10
457.0
 20
639.5
 10
437.0
 20
639.5
  0
LWPOLYLINE
  5
120A1
330
1F
100
AcDbEntity
  8
0
  6
Continuous
100
AcDbPolyline
 90
        2
 70
     0
 43
0.0
 10
497.0
 20
639.5
 10
477.0
 20
639.5
  0
LWPOLYLINE
  5
120A4
330
1F
100
AcDbEntity
  8
0
  6
Continuous
100
AcDbPolyline
 90
        3
 70
     0
 43
0.0
 10
337.0
 20
583.4999999999999
 10
317.0000000000001
 20
583.4999999999999
 10
317.0000000000001
 20
639.5
  0
LWPOLYLINE
  5
120A5
330
1F
100
AcDbEntity
  8
0
  6
Continuous
100
AcDbPolyline
 90
        2
 70
     0
 43
0.0
 10
377.0
 20
583.4999999999999
 10
357.0
 20
583.4999999999999
  0
LWPOLYLINE
  5
120A6
330
1F
100
AcDbEntity
  8
0
  6
Continuous
100
AcDbPolyline
 90
        2
 70
     0
 43
0.0
 10
417.0
 20
583.4999999999999
 10
397.0
 20
583.4999999999999
  0
LWPOLYLINE
  5
120A7
330
1F
100
AcDbEntity
  8
0
  6
Continuous
100
AcDbPolyline
 90
        2
 70
     0
 43
0.0
 10
457.0
 20
583.4999999999999
 10
437.0
 20
583.4999999999999
  0
LWPOLYLINE
  5
120A8
330
1F
100
AcDbEntity
  8
0
  6
Continuous
100
AcDbPolyline
 90
        2
 70
     0
 43
0.0
 10
497.0
 20
583.4999999999999
 10
477.0
 20
583.4999999999999
  0
LWPOLYLINE
  5
120A9
330
1F
100
AcDbEntity
  8
0
  6
Continuous
100
AcDbPolyline
 90
        2
 70
     0
 43
0.0
 10
537.0
 20
583.4999999999999
 10
517.0
 20
583.4999999999999
  0
LWPOLYLINE
  5
120C1
330
1F
100
AcDbEntity
  8
0
  6
Continuous
100
AcDbPolyline
 90
       52
 70
     1
 43
0.0
 10
239.4999999999999
 20
1039.0
 10
264.0
 20
1039.0
 10
264.0
 20
1119.0
 10
239.5
 20
1119.0
 10
239.5
 20
1107.0
 10
219.5
 20
1107.0
 10
219.5
 20
1119.0
 10
199.5
 20
1119.0
 10
199.5
 20
1107.0
 10
179.5
 20
1107.0
 10
179.5
 20
1119.0
 10
159.5
 20
1119.0
 10
159.5
 20
1107.0
 10
139.5
 20
1107.0
 10
139.5
 20
1119.0
 10
119.5
 20
1119.0
 10
119.5
 20
1107.0
 10
99.50000000000006
 20
1107.0
 10
99.50000000000006
 20
1119.0
 10
79.5
 20
1119.0
 10
79.5
 20
1107.0
 10
59.50000000000006
 20
1107.0
 10
59.50000000000006
 20
1119.0
 10
39.50000000000001
 20
1119.0
 10
39.50000000000001
 20
1107.0
 10
19.50000000000006
 20
1107.0
 10
19.50000000000006
 20
1119.0
 10
-4.999999999999936
 20
1119.0
 10
-4.999999999999936
 20
1039.0
 10
19.50000000000006
 20
1039.0
 10
19.50000000000006
 20
1051.0
 10
39.50000000000001
 20
1051.0
 10
39.50000000000001
 20
1039.0
 10
59.50000000000006
 20
1039.0
 10
59.50000000000006
 20
1051.0
 10
79.5
 20
1051.0
 10
79.5
 20
1039.0
 10
99.50000000000006
 20
1039.0
 10
99.50000000000006
 20
1051.0
 10
119.5
 20
1051.0
 10
119.5
 20
1039.0
 10
139.5
 20
1039.0
 10
139.5
 20
1051.0
 10
159.5
 20
1051.0
 10
159.5
 20
1039.0
 10
179.5
 20
1039.0
 10
179.5
 20
1051.0
 10
199.5
 20
1051.0
 10
199.5
 20
1039.0
 10
219.5
 20
1039.0
 10
219.5
 20
1051.0
 10
239.5
 20
1051.0
  0
LWPOLYLINE
  5
120C2
330
1F
100
AcDbEntity
  8
0
  6
Continuous
100
AcDbPolyline
 90
        2
 70
     0
 43
0.0
 10
35.00000000000003
 20
845.0
 42
1.0
 10
35.00000000000003
 20
765.0
  0
CIRCLE
  5
120C3
330
1F
100
AcDbEntity
  8
0
  6
Continuous
100
AcDbCircle
 10
35.00000000000001
 20
805.0
 30
0.0
 40
4.0
  0
CIRCLE
  5
120C4
330
1F
100
AcDbEntity
  8
0
  6
Continuous
100
AcDbCircle
 10
343.9999999999999
 20
805.0
 30
0.0
 40
4.0
  0
LWPOLYLINE
  5
120C5
330
1F
100
AcDbEntity
  8
0
  6
Continuous
100
AcDbPolyline
 90
        3
 70
     0
 43
0.0
 10
304.0
 20
845.0
 10
304.0
 20
833.0
 10
279.5000000000001
 20
833.0
  0
LWPOLYLINE
  5
120C6
330
1F
100
AcDbEntity
  8
0
  6
Continuous
100
AcDbPolyline
 90
        2
 70
     0
 43
0.0
 10
259.5000000000001
 20
833.0
 10
239.5000000000001
 20
833.0
  0
LWPOLYLINE
  5
120C7
330
1F
100
AcDbEntity
  8
0
  6
Continuous
100
AcDbPolyline
 90
        2
 70
     0
 43
0.0
 10
219.5000000000001
 20
833.0
 10
199.5
 20
833.0
  0
LWPOLYLINE
  5
120C8
330
1F
100
AcDbEntity
  8
0
  6
Continuous
100
AcDbPolyline
 90
        2
 70
     0
 43
0.0
 10
179.5
 20
833.0
 10
159.5
 20
833.0
  0
LWPOLYLINE
  5
120C9
330
1F
100
AcDbEntity
  8
0
  6
Continuous
100
AcDbPolyline
 90
        2
 70
     0
 43
0.0
 10
139.5000000000001
 20
833.0
 10
119.5
 20
833.0
  0
LWPOLYLINE
  5
120CA
330
1F
100
AcDbEntity
  8
0
  6
Continuous
100
AcDbPolyline
 90
        2
 70
     0
 43
0.0
 10
99.50000000000008
 20
833.0
 10
79.50000000000004
 20
833.0
  0
LWPOLYLINE
  5
120CB
330
1F
100
AcDbEntity
  8
0
  6
Continuous
100
AcDbPolyline
 90
        3
 70
     0
 43
0.0
 10
59.50000000000009
 20
833.0
 10
35.00000000000005
 20
833.0
 10
35.00000000000005
 20
845.0
  0
LWPOLYLINE
  5
120CC
330
1F
100
AcDbEntity
  8
0
  6
Continuous
100
AcDbPolyline
 90
        3
 70
     0
 43
0.0
 10
304.0
 20
765.0
 10
304.0
 20
777.0
 10
279.5000000000001
 20
777.0
  0
LWPOLYLINE
  5
120CD
330
1F
100
AcDbEntity
  8
0
  6
Continuous
100
AcDbPolyline
 90
        2
 70
     0
 43
0.0
 10
259.5000000000001
 20
777.0
 10
239.5
 20
777.0
  0
LWPOLYLINE
  5
120CE
330
1F
100
AcDbEntity
  8
0
  6
Continuous
100
AcDbPolyline
 90
        2
 70
     0
 43
0.0
 10
219.5000000000001
 20
777.0
 10
199.5
 20
777.0
  0
LWPOLYLINE
  5
120CF
330
1F
100
AcDbEntity
  8
0
  6
Continuous
100
AcDbPolyline
 90
        2
 70
     0
 43
0.0
 10
179.5
 20
777.0
 10
159.5
 20
777.0
  0
LWPOLYLINE
  5
120D0
330
1F
100
AcDbEntity
  8
0
  6
Continuous
100
AcDbPolyline
 90
        2
 70
     0
 43
0.0
 10
139.5000000000001
 20
777.0
 10
119.5
 20
777.0
  0
LWPOLYLINE
  5
120D1
330
1F
100
AcDbEntity
  8
0
  6
Continuous
100
AcDbPolyline
 90
        2
 70
     0
 43
0.0
 10
99.50000000000008
 20
777.0
 10
79.50000000000007
 20
777.0
  0
LWPOLYLINE
  5
120D2
330
1F
100
AcDbEntity
  8
0
  6
Continuous
100
AcDbPolyline
 90
        3
 70
     0
 43
0.0
 10
59.5000000000001
 20
777.0
 10
35.00000000000005
 20
777.0
 10
35.00000000000005
 20
765.0
  0
LINE
  5
120D4
330
1F
100
AcDbEntity
  8
0
  6
Continuous
100
AcDbLine
 10
304.0
 20
765.0
 30
0.0
 11
343.9999999999999
 21
765.0
 31
0.0
  0
LINE
  5
120D5
330
1F
100
AcDbEntity
  8
0
  6
Continuous
100
AcDbLine
 10
304.0
 20
845.0
 30
0.0
 11
343.9999999999999
 21
845.0
 31
0.0
  0
LWPOLYLINE
  5
120D6
330
1F
100
AcDbEntity
  8
0
  6
Continuous
100
AcDbPolyline
 90
        4
 70
     0
 43
0.0
 10
79.50000000000007
 20
777.0
 10
79.50000000000007
 20
765.0
 10
59.5000000000001
 20
765.0
 10
59.5000000000001
 20
777.0
  0
LWPOLYLINE
  5
120D7
330
1F
100
AcDbEntity
  8
0
  6
Continuous
100
AcDbPolyline
 90
        4
 70
     0
 43
0.0
 10
119.5
 20
777.0
 10
119.5
 20
765.0
 10
99.50000000000008
 20
765.0
 10
99.50000000000008
 20
777.0
  0
LWPOLYLINE
  5
120D8
330
1F
100
AcDbEntity
  8
0
  6
Continuous
100
AcDbPolyline
 90
        4
 70
     0
 43
0.0
 10
159.5
 20
777.0
 10
159.5
 20
765.0
 10
139.5000000000001
 20
765.0
 10
139.5000000000001
 20
777.0
  0
LWPOLYLINE
  5
120D9
330
1F
100
AcDbEntity
  8
0
  6
Continuous
100
AcDbPolyline
 90
        4
 70
     0
 43
0.0
 10
199.5
 20
777.0
 10
199.5
 20
765.0
 10
179.5
 20
765.0
 10
179.5
 20
777.0
  0
LWPOLYLINE
  5
120DA
330
1F
100
AcDbEntity
  8
0
  6
Continuous
100
AcDbPolyline
 90
        4
 70
     0
 43
0.0
 10
239.5
 20
777.0
 10
239.5
 20
765.0
 10
219.5000000000001
 20
765.0
 10
219.5000000000001
 20
777.0
  0
LWPOLYLINE
  5
120DB
330
1F
100
AcDbEntity
  8
0
  6
Continuous
100
AcDbPolyline
 90
        4
 70
     0
 43
0.0
 10
279.5000000000001
 20
777.0
 10
279.5000000000001
 20
765.0
 10
259.5000000000001
 20
765.0
 10
259.5000000000001
 20
777.0
  0
LWPOLYLINE
  5
120DC
330
1F
100
AcDbEntity
  8
0
  6
Continuous
100
AcDbPolyline
 90
        4
 70
     0
 43
0.0
 10
59.50000000000009
 20
833.0
 10
59.50000000000009
 20
845.0
 10
79.50000000000007
 20
845.0
 10
79.50000000000007
 20
833.0
  0
LWPOLYLINE
  5
120DD
330
1F
100
AcDbEntity
  8
0
  6
Continuous
100
AcDbPolyline
 90
        4
 70
     0
 43
0.0
 10
99.50000000000008
 20
833.0
 10
99.50000000000008
 20
845.0
 10
119.5
 20
845.0
 10
119.5
 20
833.0
  0
LWPOLYLINE
  5
120DE
330
1F
100
AcDbEntity
  8
0
  6
Continuous
100
AcDbPolyline
 90
        4
 70
     0
 43
0.0
 10
139.5000000000001
 20
833.0
 10
139.5000000000001
 20
845.0
 10
159.5
 20
845.0
 10
159.5
 20
833.0
  0
LWPOLYLINE
  5
120DF
330
1F
100
AcDbEntity
  8
0
  6
Continuous
100
AcDbPolyline
 90
        4
 70
     0
 43
0.0
 10
179.5
 20
833.0
 10
179.5
 20
845.0
 10
199.5
 20
845.0
 10
199.5
 20
833.0
  0
LWPOLYLINE
  5
120E0
330
1F
100
AcDbEntity
  8
0
  6
Continuous
100
AcDbPolyline
 90
        4
 70
     0
 43
0.0
 10
219.5000000000001
 20
833.0
 10
219.5000000000001
 20
845.0
 10
239.5
 20
845.0
 10
239.5
 20
833.0
  0
LWPOLYLINE
  5
120E1
330
1F
100
AcDbEntity
  8
0
  6
Continuous
100
AcDbPolyline
 90
        4
 70
     0
 43
0.0
 10
259.5000000000001
 20
833.0
 10
259.5000000000001
 20
845.0
 10
279.5000000000001
 20
845.0
 10
279.5000000000001
 20
833.0
  0
LWPOLYLINE
  5
120E2
330
1F
100
AcDbEntity
  8
0
  6
Continuous
100
AcDbPolyline
 90
        2
 70
     0
 43
0.0
 10
35.00000000000003
 20
753.5
 42
1.0
 10
35.00000000000002
 20
673.5
  0
CIRCLE
  5
120E3
330
1F
100
AcDbEntity
  8
0
  6
Continuous
100
AcDbCircle
 10
35.0
 20
713.4999999999998
 30
0.0
 40
4.0
  0
LWPOLYLINE
  5
120E4
330
1F
100
AcDbEntity
  8
0
  6
Continuous
100
AcDbPolyline
 90
        2
 70
     0
 43
0.0
 10
255.0
 20
741.5
 10
235.0
 20
741.5
  0
LWPOLYLINE
  5
120E5
330
1F
100
AcDbEntity
  8
0
  6
Continuous
100
AcDbPolyline
 90
        2
 70
     0
 43
0.0
 10
215.0
 20
741.5
 10
195.0
 20
741.5
  0
LWPOLYLINE
  5
120E6
330
1F
100
AcDbEntity
  8
0
  6
Continuous
100
AcDbPolyline
 90
        2
 70
     0
 43
0.0
 10
175.0
 20
741.5
 10
155.0
 20
741.5
  0
LWPOLYLINE
  5
120E7
330
1F
100
AcDbEntity
  8
0
  6
Continuous
100
AcDbPolyline
 90
        2
 70
     0
 43
0.0
 10
135.0
 20
741.5
 10
115.0
 20
741.5
  0
LWPOLYLINE
  5
120E8
330
1F
100
AcDbEntity
  8
0
  6
Continuous
100
AcDbPolyline
 90
        2
 70
     0
 43
0.0
 10
95.00000000000005
 20
741.5
 10
75.0
 20
741.5
  0
LWPOLYLINE
  5
120E9
330
1F
100
AcDbEntity
  8
0
  6
Continuous
100
AcDbPolyline
 90
        3
 70
     0
 43
0.0
 10
55.00000000000003
 20
741.5
 10
35.00000000000003
 20
741.5
 10
35.00000000000003
 20
753.5
  0
LWPOLYLINE
  5
120EA
330
1F
100
AcDbEntity
  8
0
  6
Continuous
100
AcDbPolyline
 90
        2
 70
     0
 43
0.0
 10
255.0
 20
685.5
 10
235.0
 20
685.5
  0
LWPOLYLINE
  5
120EB
330
1F
100
AcDbEntity
  8
0
  6
Continuous
100
AcDbPolyline
 90
        2
 70
     0
 43
0.0
 10
215.0000000000001
 20
685.5
 10
195.0
 20
685.5
  0
LWPOLYLINE
  5
120EC
330
1F
100
AcDbEntity
  8
0
  6
Continuous
100
AcDbPolyline
 90
        2
 70
     0
 43
0.0
 10
175.0
 20
685.5
 10
155.0
 20
685.5
  0
LWPOLYLINE
  5
120ED
330
1F
100
AcDbEntity
  8
0
  6
Continuous
100
AcDbPolyline
 90
        2
 70
     0
 43
0.0
 10
135.0000000000001
 20
685.5
 10
115.0
 20
685.5
  0
LWPOLYLINE
  5
120EE
330
1F
100
AcDbEntity
  8
0
  6
Continuous
100
AcDbPolyline
 90
        2
 70
     0
 43
0.0
 10
95.00000000000007
 20
685.5
 10
75.00000000000007
 20
685.5
  0
LWPOLYLINE
  5
120EF
330
1F
100
AcDbEntity
  8
0
  6
Continuous
100
AcDbPolyline
 90
        3
 70
     0
 43
0.0
 10
55.00000000000007
 20
685.5
 10
35.00000000000003
 20
685.5
 10
35.00000000000003
 20
673.5
  0
LINE
  5
120F0
330
1F
100
AcDbEntity
  8
0
  6
Continuous
100
AcDbLine
 10
275.0
 20
741.5
 30
0.0
 11
295.0000000000001
 21
741.5
 31
0.0
  0
LINE
  5
120F1
330
1F
100
AcDbEntity
  8
0
  6
Continuous
100
AcDbLine
 10
295.0000000000001
 20
741.5
 30
0.0
 11
295.0000000000001
 21
685.5
 31
0.0
  0
LINE
  5
120F2
330
1F
100
AcDbEntity
  8
0
  6
Continuous
100
AcDbLine
 10
295.0000000000001
 20
685.5
 30
0.0
 11
275.0
 21
685.5
 31
0.0
  0
LWPOLYLINE
  5
120F3
330
1F
100
AcDbEntity
  8
0
  6
Continuous
100
AcDbPolyline
 90
        4
 70
     0
 43
0.0
 10
75.00000000000003
 20
685.5
 10
75.00000000000003
 20
673.5
 10
55.00000000000007
 20
673.5
 10
55.00000000000007
 20
685.5
  0
LWPOLYLINE
  5
120F4
330
1F
100
AcDbEntity
  8
0
  6
Continuous
100
AcDbPolyline
 90
        4
 70
     0
 43
0.0
 10
115.0
 20
685.5
 10
115.0
 20
673.5
 10
95.00000000000005
 20
673.5
 10
95.00000000000005
 20
685.5
  0
LWPOLYLINE
  5
120F5
330
1F
100
AcDbEntity
  8
0
  6
Continuous
100
AcDbPolyline
 90
        4
 70
     0
 43
0.0
 10
155.0
 20
685.5
 10
155.0
 20
673.5
 10
135.0
 20
673.5
 10
135.0
 20
685.5
  0
LWPOLYLINE
  5
120F6
330
1F
100
AcDbEntity
  8
0
  6
Continuous
100
AcDbPolyline
 90
        4
 70
     0
 43
0.0
 10
195.0
 20
685.5
 10
195.0
 20
673.5
 10
175.0
 20
673.5
 10
175.0
 20
685.5
  0
LWPOLYLINE
  5
120F7
330
1F
100
AcDbEntity
  8
0
  6
Continuous
100
AcDbPolyline
 90
        4
 70
     0
 43
0.0
 10
235.0
 20
685.5
 10
235.0
 20
673.5
 10
215.0000000000001
 20
673.5
 10
215.0000000000001
 20
685.5
  0
LWPOLYLINE
  5
120F8
330
1F
100
AcDbEntity
  8
0
  6
Continuous
100
AcDbPolyline
 90
        4
 70
     0
 43
0.0
 10
275.0
 20
685.5
 10
275.0
 20
673.5
 10
255.0
 20
673.5
 10
255.0
 20
685.5
  0
LWPOLYLINE
  5
120F9
330
1F
100
AcDbEntity
  8
0
  6
Continuous
100
AcDbPolyline
 90
        4
 70
     0
 43
0.0
 10
55.00000000000003
 20
741.5
 10
55.00000000000003
 20
753.5
 10
75.0
 20
753.5
 10
75.0
 20
741.5
  0
LWPOLYLINE
  5
120FA
330
1F
100
AcDbEntity
  8
0
  6
Continuous
100
AcDbPolyline
 90
        4
 70
     0
 43
0.0
 10
95.00000000000005
 20
741.5
 10
95.00000000000005
 20
753.5
 10
115.0
 20
753.5
 10
115.0
 20
741.5
  0
LWPOLYLINE
  5
120FB
330
1F
100
AcDbEntity
  8
0
  6
Continuous
100
AcDbPolyline
 90
        4
 70
     0
 43
0.0
 10
135.0
 20
741.5
 10
135.0
 20
753.5
 10
155.0
 20
753.5
 10
155.0
 20
741.5
  0
LWPOLYLINE
  5
120FC
330
1F
100
AcDbEntity
  8
0
  6
Continuous
100
AcDbPolyline
 90
        4
 70
     0
 43
0.0
 10
175.0
 20
741.5
 10
175.0
 20
753.5
 10
195.0
 20
753.5
 10
195.0
 20
741.5
  0
LWPOLYLINE
  5
120FD
330
1F
100
AcDbEntity
  8
0
  6
Continuous
100
AcDbPolyline
 90
        4
 70
     0
 43
0.0
 10
215.0
 20
741.5
 10
215.0
 20
753.5
 10
235.0
 20
753.5
 10
235.0
 20
741.5
  0
LWPOLYLINE
  5
120FE
330
1F
100
AcDbEntity
  8
0
  6
Continuous
100
AcDbPolyline
 90
        4
 70
     0
 43
0.0
 10
255.0
 20
741.5
 10
255.0
 20
753.5
 10
275.0
 20
753.5
 10
275.0
 20
741.5
  0
LWPOLYLINE
  5
12104
330
1F
100
AcDbEntity
  8
0
  6
Continuous
100
AcDbPolyline
 90
        2
 70
     0
 43
0.0
 10
577.0
 20
653.5
 10
557.0
 20
653.5
  0
LWPOLYLINE
  5
12105
330
1F
100
AcDbEntity
  8
0
  6
Continuous
100
AcDbPolyline
 90
        2
 70
     0
 43
0.0
 10
537.0
 20
653.5
 10
517.0
 20
653.5
  0
LWPOLYLINE
  5
12106
330
1F
100
AcDbEntity
  8
0
  6
Continuous
100
AcDbPolyline
 90
        2
 70
     0
 43
0.0
 10
497.0
 20
653.5
 10
477.0
 20
653.5
  0
LWPOLYLINE
  5
12107
330
1F
100
AcDbEntity
  8
0
  6
Continuous
100
AcDbPolyline
 90
        2
 70
     0
 43
0.0
 10
457.0
 20
653.5
 10
437.0
 20
653.5
  0
LWPOLYLINE
  5
12108
330
1F
100
AcDbEntity
  8
0
  6
Continuous
100
AcDbPolyline
 90
        2
 70
     0
 43
0.0
 10
417.0
 20
653.5
 10
397.0
 20
653.5
  0
LWPOLYLINE
  5
12109
330
1F
100
AcDbEntity
  8
0
  6
Continuous
100
AcDbPolyline
 90
        2
 70
     0
 43
0.0
 10
377.0
 20
653.5
 10
357.0
 20
653.5
  0
LWPOLYLINE
  5
1210A
330
1F
100
AcDbEntity
  8
0
  6
Continuous
100
AcDbPolyline
 90
        3
 70
     0
 43
0.0
 10
337.0
 20
653.5
 10
317.0000000000001
 20
653.5
 10
317.0000000000001
 20
709.4999999999998
  0
CIRCLE
  5
1210B
330
1F
100
AcDbEntity
  8
0
  6
Continuous
100
AcDbCircle
 10
577.0
 20
681.5
 30
0.0
 40
4.0
  0
LWPOLYLINE
  5
1210C
330
1F
100
AcDbEntity
  8
0
  6
Continuous
100
AcDbPolyline
 90
        2
 70
     0
 43
0.0
 10
537.0
 20
709.4999999999998
 10
517.0
 20
709.4999999999998
  0
LWPOLYLINE
  5
1210D
330
1F
100
AcDbEntity
  8
0
  6
Continuous
100
AcDbPolyline
 90
        2
 70
     0
 43
0.0
 10
497.0
 20
709.4999999999998
 10
477.0
 20
709.4999999999998
  0
LWPOLYLINE
  5
1210E
330
1F
100
AcDbEntity
  8
0
  6
Continuous
100
AcDbPolyline
 90
        2
 70
     0
 43
0.0
 10
457.0
 20
709.4999999999998
 10
437.0
 20
709.4999999999998
  0
LWPOLYLINE
  5
1210F
330
1F
100
AcDbEntity
  8
0
  6
Continuous
100
AcDbPolyline
 90
        2
 70
     0
 43
0.0
 10
417.0
 20
709.4999999999998
 10
397.0
 20
709.4999999999998
  0
LWPOLYLINE
  5
12110
330
1F
100
AcDbEntity
  8
0
  6
Continuous
100
AcDbPolyline
 90
        2
 70
     0
 43
0.0
 10
377.0
 20
709.4999999999998
 10
357.0
 20
709.4999999999998
  0
LWPOLYLINE
  5
12111
330
1F
100
AcDbEntity
  8
0
  6
Continuous
100
AcDbPolyline
 90
        2
 70
     0
 43
0.0
 10
337.0
 20
709.4999999999998
 10
317.0000000000001
 20
709.4999999999998
  0
LINE
  5
12112
330
1F
100
AcDbEntity
  8
0
  6
Continuous
100
AcDbLine
 10
577.0000000000001
 20
709.4999999999998
 30
0.0
 11
557.0
 21
709.4999999999998
 31
0.0
  0
ARC
  5
12113
330
1F
100
AcDbEntity
  8
0
  6
Continuous
100
AcDbCircle
 10
577.0
 20
681.5
 30
0.0
 40
28.0
100
AcDbArc
 50
270.0
 51
90.0
  0
LWPOLYLINE
  5
12114
330
1F
100
AcDbEntity
  8
0
  6
Continuous
100
AcDbPolyline
 90
        4
 70
     0
 43
0.0
 10
357.0
 20
709.4999999999998
 10
357.0
 20
697.5
 10
337.0
 20
697.5
 10
337.0
 20
709.4999999999998
  0
LWPOLYLINE
  5
12115
330
1F
100
AcDbEntity
  8
0
  6
Continuous
100
AcDbPolyline
 90
        4
 70
     0
 43
0.0
 10
397.0
 20
709.4999999999998
 10
397.0
 20
697.5
 10
377.0
 20
697.5
 10
377.0
 20
709.4999999999998
  0
LWPOLYLINE
  5
12116
330
1F
100
AcDbEntity
  8
0
  6
Continuous
100
AcDbPolyline
 90
        4
 70
     0
 43
0.0
 10
437.0
 20
709.4999999999998
 10
437.0
 20
697.5
 10
417.0
 20
697.5
 10
417.0
 20
709.4999999999998
  0
LWPOLYLINE
  5
12117
330
1F
100
AcDbEntity
  8
0
  6
Continuous
100
AcDbPolyline
 90
        4
 70
     0
 43
0.0
 10
477.0
 20
709.4999999999998
 10
477.0
 20
697.5
 10
457.0
 20
697.5
 10
457.0
 20
709.4999999999998
  0
LWPOLYLINE
  5
12118
330
1F
100
AcDbEntity
  8
0
  6
Continuous
100
AcDbPolyline
 90
        4
 70
     0
 43
0.0
 10
517.0
 20
709.4999999999998
 10
517.0
 20
697.5
 10
497.0
 20
697.5
 10
497.0
 20
709.4999999999998
  0
LWPOLYLINE
  5
12119
330
1F
100
AcDbEntity
  8
0
  6
Continuous
100
AcDbPolyline
 90
        4
 70
     0
 43
0.0
 10
557.0
 20
709.4999999999998
 10
557.0
 20
697.5
 10
537.0
 20
697.5
 10
537.0
 20
709.4999999999998
  0
LWPOLYLINE
  5
1211A
330
1F
100
AcDbEntity
  8
0
  6
Continuous
100
AcDbPolyline
 90
        4
 70
     0
 43
0.0
 10
337.0
 20
653.5
 10
337.0
 20
665.5
 10
357.0
 20
665.5
 10
357.0
 20
653.5
  0
LWPOLYLINE
  5
1211B
330
1F
100
AcDbEntity
  8
0
  6
Continuous
100
AcDbPolyline
 90
        4
 70
     0
 43
0.0
 10
377.0
 20
653.5
 10
377.0
 20
665.5
 10
397.0
 20
665.5
 10
397.0
 20
653.5
  0
LWPOLYLINE
  5
1211C
330
1F
100
AcDbEntity
  8
0
  6
Continuous
100
AcDbPolyline
 90
        4
 70
     0
 43
0.0
 10
417.0
 20
653.5
 10
417.0
 20
665.5
 10
437.0
 20
665.5
 10
437.0
 20
653.5
  0
LWPOLYLINE
  5
1211D
330
1F
100
AcDbEntity
  8
0
  6
Continuous
100
AcDbPolyline
 90
        4
 70
     0
 43
0.0
 10
457.0
 20
653.5
 10
457.0
 20
665.5
 10
477.0
 20
665.5
 10
477.0
 20
653.5
  0
LWPOLYLINE
  5
1211E
330
1F
100
AcDbEntity
  8
0
  6
Continuous
100
AcDbPolyline
 90
        4
 70
     0
 43
0.0
 10
497.0
 20
653.5
 10
497.0
 20
665.5
 10
517.0
 20
665.5
 10
517.0
 20
653.5
  0
LWPOLYLINE
  5
1211F
330
1F
100
AcDbEntity
  8
0
  6
Continuous
100
AcDbPolyline
 90
        4
 70
     0
 43
0.0
 10
537.0
 20
653.5
 10
537.0
 20
665.5
 10
557.0
 20
665.5
 10
557.0
 20
653.5
  0
CIRCLE
  5
1212B
330
1F
100
AcDbEntity
  8
0
  6
Continuous
100
AcDbCircle
 10
581.0
 20
755.4999999999997
 30
0.0
 40
4.0
  0
ARC
  5
1212C
330
1F
100
AcDbEntity
  8
0
  6
Continuous
100
AcDbCircle
 10
581.0
 20
755.4999999999997
 30
0.0
 40
28.0
100
AcDbArc
 50
131.3909014681298
 51
270.0
  0
LINE
  5
12132
330
1F
100
AcDbEntity
  8
0
  6
Continuous
100
AcDbLine
 10
609.0
 20
817.4999999999997
 30
0.0
 11
609.0
 21
802.4999999999996
 31
0.0
  0
LWPOLYLINE
  5
12133
330
1F
100
AcDbEntity
  8
0
  6
Continuous
100
AcDbPolyline
 90
        4
 70
     0
 43
0.0
 10
609.0
 20
782.4999999999999
 10
621.0
 20
782.4999999999999
 10
621.0
 20
802.4999999999996
 10
609.0
 20
802.4999999999996
  0
LWPOLYLINE
  5
12134
330
1F
100
AcDbEntity
  8
0
  6
Continuous
100
AcDbPolyline
 90
        4
 70
     0
 43
0.0
 10
609.0
 20
762.4999999999999
 10
621.0
 20
762.4999999999999
 10
621.0
 20
742.4999999999997
 10
609.0
 20
742.4999999999997
  0
LINE
  5
12137
330
1F
100
AcDbEntity
  8
0
  6
Continuous
100
AcDbLine
 10
581.0
 20
727.4999999999996
 30
0.0
 11
609.0
 21
727.4999999999996
 31
0.0
  0
LINE
  5
12138
330
1F
100
AcDbEntity
  8
0
  6
Continuous
100
AcDbLine
 10
609.0
 20
817.4999999999997
 30
0.0
 11
562.4866032843559
 21
776.5060501296455
 31
0.0
  0
LINE
  5
12139
330
1F
100
AcDbEntity
  8
0
  6
Continuous
100
AcDbLine
 10
609.0
 20
782.4999999999999
 30
0.0
 11
609.0
 21
762.4999999999999
 31
0.0
  0
LINE
  5
1213A
330
1F
100
AcDbEntity
  8
0
  6
Continuous
100
AcDbLine
 10
609.0
 20
742.4999999999997
 30
0.0
 11
609.0
 21
727.4999999999996
 31
0.0
  0
LWPOLYLINE
  5
1213B
330
1F
100
AcDbEntity
  8
0
  6
Continuous
100
AcDbPolyline
 90
        4
 70
     1
 43
0.0
 10
414.0
 20
1102.5
 10
594.0
 20
1102.5
 10
594.0
 20
962.5
 10
414.0
 20
962.5
  0
LWPOLYLINE
  5
1213D
330
1F
100
AcDbEntity
  8
0
  6
Continuous
100
AcDbPolyline
 90
        4
 70
     0
 43
0.0
 10
556.0
 20
1017.5
 10
544.0
 20
1017.5
 10
544.0
 20
1037.5
 10
556.0
 20
1037.5
  0
LWPOLYLINE
  5
1213E
330
1F
100
AcDbEntity
  8
0
  6
Continuous
100
AcDbPolyline
 90
        4
 70
     0
 43
0.0
 10
556.0
 20
997.4999999999999
 10
544.0
 20
997.4999999999999
 10
544.0
 20
977.5
 10
556.0
 20
977.5
  0
CIRCLE
  5
1213F
330
1F
100
AcDbEntity
  8
0
  6
Continuous
100
AcDbCircle
 10
572.5
 20
852.9999999999999
 30
0.0
 40
4.0
  0
ARC
  5
12140
330
1F
100
AcDbEntity
  8
0
  6
Continuous
100
AcDbCircle
 10
572.5
 20
852.9999999999999
 30
0.0
 40
28.0
100
AcDbArc
 50
131.3909014681298
 51
270.0
  0
LINE
  5
12141
330
1F
100
AcDbEntity
  8
0
  6
Continuous
100
AcDbLine
 10
600.4999999999999
 20
914.9999999999996
 30
0.0
 11
600.4999999999999
 21
899.9999999999996
 31
0.0
  0
LINE
  5
12142
330
1F
100
AcDbEntity
  8
0
  6
Continuous
100
AcDbLine
 10
600.4999999999999
 20
879.9999999999997
 30
0.0
 11
600.4999999999999
 21
859.9999999999999
 31
0.0
  0
LINE
  5
12143
330
1F
100
AcDbEntity
  8
0
  6
Continuous
100
AcDbLine
 10
600.4999999999999
 20
839.9999999999996
 30
0.0
 11
600.4999999999999
 21
824.9999999999996
 31
0.0
  0
LWPOLYLINE
  5
12144
330
1F
100
AcDbEntity
  8
0
  6
Continuous
100
AcDbPolyline
 90
        4
 70
     0
 43
0.0
 10
600.4999999999999
 20
879.9999999999997
 10
612.5
 20
879.9999999999997
 10
612.5
 20
899.9999999999996
 10
600.4999999999999
 20
899.9999999999996
  0
LWPOLYLINE
  5
12145
330
1F
100
AcDbEntity
  8
0
  6
Continuous
100
AcDbPolyline
 90
        4
 70
     0
 43
0.0
 10
600.4999999999999
 20
859.9999999999999
 10
612.5
 20
859.9999999999999
 10
612.5
 20
839.9999999999996
 10
600.4999999999999
 20
839.9999999999996
  0
LINE
  5
12146
330
1F
100
AcDbEntity
  8
0
  6
Continuous
100
AcDbLine
 10
572.5
 20
824.9999999999996
 30
0.0
 11
600.4999999999999
 21
824.9999999999996
 31
0.0
  0
LINE
  5
12147
330
1F
100
AcDbEntity
  8
0
  6
Continuous
100
AcDbLine
 10
600.4999999999999
 20
914.9999999999996
 30
0.0
 11
553.9866032843559
 21
874.0060501296456
 31
0.0
  0
LWPOLYLINE
  5
12149
330
1F
100
AcDbEntity
  8
0
  6
Continuous
100
AcDbPolyline
 90
        4
 70
     0
 43
0.0
 10
452.0
 20
1017.5
 10
464.0
 20
1017.5
 10
464.0
 20
1037.5
 10
452.0
 20
1037.5
  0
LWPOLYLINE
  5
1214A
330
1F
100
AcDbEntity
  8
0
  6
Continuous
100
AcDbPolyline
 90
        4
 70
     0
 43
0.0
 10
452.0
 20
997.4999999999999
 10
464.0
 20
997.4999999999999
 10
464.0
 20
977.5
 10
452.0
 20
977.5
  0
LINE
  5
1214B
330
1F
100
AcDbEntity
  8
0
  6
Continuous
100
AcDbLine
 10
452.0
 20
1037.5
 30
0.0
 11
452.0
 21
1017.5
 31
0.0
  0
LINE
  5
1214C
330
1F
100
AcDbEntity
  8
0
  6
Continuous
100
AcDbLine
 10
556.0
 20
1037.5
 30
0.0
 11
556.0
 21
1017.5
 31
0.0
  0
LINE
  5
1214D
330
1F
100
AcDbEntity
  8
0
  6
Continuous
100
AcDbLine
 10
452.0
 20
997.4999999999999
 30
0.0
 11
452.0
 21
977.5
 31
0.0
  0
LINE
  5
1214E
330
1F
100
AcDbEntity
  8
0
  6
Continuous
100
AcDbLine
 10
556.0
 20
997.4999999999999
 30
0.0
 11
556.0
 21
977.5
 31
0.0
  0
ARC
  5
12162
330
1F
100
AcDbEntity
  8
0
  6
Continuous
100
AcDbCircle
 10
343.9999999999999
 20
805.0
 30
0.0
 40
39.99999999999995
100
AcDbArc
 50
270.0
 51
90.0
  0
LWPOLYLINE
  5
12163
330
1F
100
AcDbEntity
  8
0
  6
Continuous
100
AcDbPolyline
 90
        2
 70
     1
 43
0.0
 10
35.00000000000004
 20
935.0
 10
35.00000000000004
 20
935.0
  0
LWPOLYLINE
  5
12164
330
1F
100
AcDbEntity
  8
0
  6
Continuous
100
AcDbPolyline
 90
        2
 70
     0
 43
0.0
 10
35.00000000000004
 20
935.0
 42
1.0
 10
35.00000000000004
 20
855.0
  0
CIRCLE
  5
12165
330
1F
100
AcDbEntity
  8
0
  6
Continuous
100
AcDbCircle
 10
35.00000000000002
 20
895.0
 30
0.0
 40
4.0
  0
CIRCLE
  5
12166
330
1F
100
AcDbEntity
  8
0
  6
Continuous
100
AcDbCircle
 10
343.9999999999999
 20
895.0
 30
0.0
 40
4.0
  0
LWPOLYLINE
  5
12167
330
1F
100
AcDbEntity
  8
0
  6
Continuous
100
AcDbPolyline
 90
        3
 70
     0
 43
0.0
 10
304.0
 20
935.0
 10
304.0
 20
923.0
 10
279.5000000000001
 20
923.0
  0
LWPOLYLINE
  5
12168
330
1F
100
AcDbEntity
  8
0
  6
Continuous
100
AcDbPolyline
 90
        2
 70
     0
 43
0.0
 10
259.5000000000001
 20
923.0
 10
239.5000000000001
 20
923.0
  0
LWPOLYLINE
  5
12169
330
1F
100
AcDbEntity
  8
0
  6
Continuous
100
AcDbPolyline
 90
        2
 70
     0
 43
0.0
 10
219.5000000000001
 20
923.0
 10
199.5
 20
923.0
  0
LWPOLYLINE
  5
1216A
330
1F
100
AcDbEntity
  8
0
  6
Continuous
100
AcDbPolyline
 90
        2
 70
     0
 43
0.0
 10
179.5
 20
923.0
 10
159.5
 20
923.0
  0
LWPOLYLINE
  5
1216B
330
1F
100
AcDbEntity
  8
0
  6
Continuous
100
AcDbPolyline
 90
        2
 70
     0
 43
0.0
 10
139.5000000000001
 20
923.0
 10
119.5
 20
923.0
  0
LWPOLYLINE
  5
1216C
330
1F
100
AcDbEntity
  8
0
  6
Continuous
100
AcDbPolyline
 90
        2
 70
     0
 43
0.0
 10
99.50000000000009
 20
923.0
 10
79.50000000000006
 20
923.0
  0
LWPOLYLINE
  5
1216D
330
1F
100
AcDbEntity
  8
0
  6
Continuous
100
AcDbPolyline
 90
        3
 70
     0
 43
0.0
 10
59.50000000000009
 20
923.0
 10
35.00000000000006
 20
923.0
 10
35.00000000000006
 20
935.0
  0
LWPOLYLINE
  5
1216E
330
1F
100
AcDbEntity
  8
0
  6
Continuous
100
AcDbPolyline
 90
        3
 70
     0
 43
0.0
 10
304.0
 20
855.0
 10
304.0
 20
867.0
 10
279.5000000000001
 20
867.0
  0
LWPOLYLINE
  5
1216F
330
1F
100
AcDbEntity
  8
0
  6
Continuous
100
AcDbPolyline
 90
        2
 70
     0
 43
0.0
 10
259.5000000000001
 20
867.0
 10
239.5
 20
867.0
  0
LWPOLYLINE
  5
12170
330
1F
100
AcDbEntity
  8
0
  6
Continuous
100
AcDbPolyline
 90
        2
 70
     0
 43
0.0
 10
219.5000000000001
 20
867.0
 10
199.5
 20
867.0
  0
LWPOLYLINE
  5
12171
330
1F
100
AcDbEntity
  8
0
  6
Continuous
100
AcDbPolyline
 90
        2
 70
     0
 43
0.0
 10
179.5
 20
867.0
 10
159.5
 20
867.0
  0
LWPOLYLINE
  5
12172
330
1F
100
AcDbEntity
  8
0
  6
Continuous
100
AcDbPolyline
 90
        2
 70
     0
 43
0.0
 10
139.5000000000001
 20
867.0
 10
119.5
 20
867.0
  0
LWPOLYLINE
  5
12173
330
1F
100
AcDbEntity
  8
0
  6
Continuous
100
AcDbPolyline
 90
        2
 70
     0
 43
0.0
 10
99.50000000000009
 20
867.0
 10
79.50000000000009
 20
867.0
  0
LWPOLYLINE
  5
12174
330
1F
100
AcDbEntity
  8
0
  6
Continuous
100
AcDbPolyline
 90
        3
 70
     0
 43
0.0
 10
59.50000000000011
 20
867.0
 10
35.00000000000006
 20
867.0
 10
35.00000000000006
 20
855.0
  0
LINE
  5
12175
330
1F
100
AcDbEntity
  8
0
  6
Continuous
100
AcDbLine
 10
304.0
 20
855.0
 30
0.0
 11
343.9999999999999
 21
855.0
 31
0.0
  0
LINE
  5
12176
330
1F
100
AcDbEntity
  8
0
  6
Continuous
100
AcDbLine
 10
304.0
 20
935.0
 30
0.0
 11
343.9999999999999
 21
935.0
 31
0.0
  0
LWPOLYLINE
  5
12177
330
1F
100
AcDbEntity
  8
0
  6
Continuous
100
AcDbPolyline
 90
        4
 70
     0
 43
0.0
 10
79.50000000000009
 20
867.0
 10
79.50000000000009
 20
855.0
 10
59.50000000000011
 20
855.0
 10
59.50000000000011
 20
867.0
  0
LWPOLYLINE
  5
12178
330
1F
100
AcDbEntity
  8
0
  6
Continuous
100
AcDbPolyline
 90
        4
 70
     0
 43
0.0
 10
119.5
 20
867.0
 10
119.5
 20
855.0
 10
99.50000000000009
 20
855.0
 10
99.50000000000009
 20
867.0
  0
LWPOLYLINE
  5
12179
330
1F
100
AcDbEntity
  8
0
  6
Continuous
100
AcDbPolyline
 90
        4
 70
     0
 43
0.0
 10
159.5
 20
867.0
 10
159.5
 20
855.0
 10
139.5000000000001
 20
855.0
 10
139.5000000000001
 20
867.0
  0
LWPOLYLINE
  5
1217A
330
1F
100
AcDbEntity
  8
0
  6
Continuous
100
AcDbPolyline
 90
        4
 70
     0
 43
0.0
 10
199.5
 20
867.0
 10
199.5
 20
855.0
 10
179.5
 20
855.0
 10
179.5
 20
867.0
  0
LWPOLYLINE
  5
1217B
330
1F
100
AcDbEntity
  8
0
  6
Continuous
100
AcDbPolyline
 90
        4
 70
     0
 43
0.0
 10
239.5
 20
867.0
 10
239.5
 20
855.0
 10
219.5000000000001
 20
855.0
 10
219.5000000000001
 20
867.0
  0
LWPOLYLINE
  5
1217C
330
1F
100
AcDbEntity
  8
0
  6
Continuous
100
AcDbPolyline
 90
        4
 70
     0
 43
0.0
 10
279.5000000000001
 20
867.0
 10
279.5000000000001
 20
855.0
 10
259.5000000000001
 20
855.0
 10
259.5000000000001
 20
867.0
  0
LWPOLYLINE
  5
1217D
330
1F
100
AcDbEntity
  8
0
  6
Continuous
100
AcDbPolyline
 90
        4
 70
     0
 43
0.0
 10
59.50000000000009
 20
923.0
 10
59.50000000000009
 20
935.0
 10
79.50000000000009
 20
935.0
 10
79.50000000000009
 20
923.0
  0
LWPOLYLINE
  5
1217E
330
1F
100
AcDbEntity
  8
0
  6
Continuous
100
AcDbPolyline
 90
        4
 70
     0
 43
0.0
 10
99.50000000000009
 20
923.0
 10
99.50000000000009
 20
935.0
 10
119.5
 20
935.0
 10
119.5
 20
923.0
  0
LWPOLYLINE
  5
1217F
330
1F
100
AcDbEntity
  8
0
  6
Continuous
100
AcDbPolyline
 90
        4
 70
     0
 43
0.0
 10
139.5000000000001
 20
923.0
 10
139.5000000000001
 20
935.0
 10
159.5
 20
935.0
 10
159.5
 20
923.0
  0
LWPOLYLINE
  5
12180
330
1F
100
AcDbEntity
  8
0
  6
Continuous
100
AcDbPolyline
 90
        4
 70
     0
 43
0.0
 10
179.5
 20
923.0
 10
179.5
 20
935.0
 10
199.5
 20
935.0
 10
199.5
 20
923.0
  0
LWPOLYLINE
  5
12181
330
1F
100
AcDbEntity
  8
0
  6
Continuous
100
AcDbPolyline
 90
        4
 70
     0
 43
0.0
 10
219.5000000000001
 20
923.0
 10
219.5000000000001
 20
935.0
 10
239.5
 20
935.0
 10
239.5
 20
923.0
  0
LWPOLYLINE
  5
12182
330
1F
100
AcDbEntity
  8
0
  6
Continuous
100
AcDbPolyline
 90
        4
 70
     0
 43
0.0
 10
259.5000000000001
 20
923.0
 10
259.5000000000001
 20
935.0
 10
279.5000000000001
 20
935.0
 10
279.5000000000001
 20
923.0
  0
ARC
  5
12183
330
1F
100
AcDbEntity
  8
0
  6
Continuous
100
AcDbCircle
 10
343.9999999999999
 20
895.0
 30
0.0
 40
39.99999999999995
100
AcDbArc
 50
270.0
 51
90.0
  0
ENDSEC
  0
SECTION
  2
OBJECTS
  0
DICTIONARY
  5
C
330
0
100
AcDbDictionary
281
     1
  3
ACAD_CIP_PREVIOUS_PRODUCT_INFO
350
10056
  3
ACAD_COLOR
350
10035
  3
ACAD_DETAILVIEWSTYLE
350
1004F
  3
ACAD_GROUP
350
D
  3
ACAD_LAYOUT
350
10036
  3
ACAD_MATERIAL
350
10003
  3
ACAD_MLEADERSTYLE
350
1004B
  3
ACAD_MLINESTYLE
350
17
  3
ACAD_PLOTSETTINGS
350
10051
  3
ACAD_PLOTSTYLENAME
350
10001
  3
ACAD_SCALELIST
350
10039
  3
ACAD_SECTIONVIEWSTYLE
350
1004D
  3
ACAD_TABLESTYLE
350
10037
  3
ACAD_VISUALSTYLE
350
1001C
  3
ACDB_RECOMPOSE_DATA
350
12185
  3
AcDbVariableDictionary
350
1005B
  0
DICTIONARY
  5
1008C
330
2
100
AcDbDictionary
280
     1
281
     1
  3
ACAD_LAYERSTATES
360
1008D
  0
DICTIONARY
  5
10057
330
50
100
AcDbDictionary
280
     1
281
     1
  3
ADSK_XREC_LAYER_RECONCILED
360
10058
  0
DICTIONARY
  5
10059
330
51
100
AcDbDictionary
280
     1
281
     1
  3
ADSK_XREC_LAYER_RECONCILED
360
1005A
  0
DICTIONARY
  5
10466
330
10465
100
AcDbDictionary
280
     1
281
     1
  0
DICTIONARY
  5
10135
330
1F
100
AcDbDictionary
280
     1
281
     1
  3
ACAD_SORTENTS
360
10136
  0
XRECORD
  5
10056
102
{ACAD_REACTORS
330
C
102
}
330
C
100
AcDbXrecord
280
     1
300
ACD
300
2023
300

  0
DICTIONARY
  5
10035
102
{ACAD_REACTORS
330
C
102
}
330
C
100
AcDbDictionary
281
     1
  0
DICTIONARY
  5
1004F
102
{ACAD_REACTORS
330
C
102
}
330
C
100
AcDbDictionary
281
     1
  3
Imperial24
350
10468
  3
Metric50
350
10050
  0
DICTIONARY
  5
D
330
C
100
AcDbDictionary
281
     1
  0
DICTIONARY
  5
10036
102
{ACAD_REACTORS
330
C
102
}
330
C
100
AcDbDictionary
281
     1
  3
Layout1
350
10053
  3
Model
350
10052
  0
DICTIONARY
  5
10003
102
{ACAD_REACTORS
330
C
102
}
330
C
100
AcDbDictionary
281
     1
  3
ByBlock
350
1000C
  3
ByLayer
350
10004
  3
Global
350
10014
  0
DICTIONARY
  5
1004B
102
{ACAD_REACTORS
330
C
102
}
330
C
100
AcDbDictionary
281
     1
  3
Standard
350
1004C
  0
DICTIONARY
  5
17
330
C
100
AcDbDictionary
281
     1
  3
Standard
350
1006B
  0
DICTIONARY
  5
10051
102
{ACAD_REACTORS
330
C
102
}
330
C
100
AcDbDictionary
281
     1
  0
ACDBDICTIONARYWDFLT
  5
10001
102
{ACAD_REACTORS
330
C
102
}
330
C
100
AcDbDictionary
281
     1
  3
Normal
350
10002
100
AcDbDictionaryWithDefault
340
10002
  0
DICTIONARY
  5
10039
102
{ACAD_REACTORS
330
C
102
}
330
C
100
AcDbDictionary
281
     1
  3
A0
350
1003A
  3
A1
350
1003B
  3
A2
350
1003C
  3
A3
350
1003D
  3
A4
350
1003E
  3
A5
350
1003F
  3
A6
350
10040
  3
A7
350
10041
  3
A8
350
10042
  3
A9
350
10043
  3
B0
350
10044
  3
B1
350
10045
  3
B2
350
10046
  3
B3
350
10047
  3
B4
350
10048
  3
B5
350
10049
  3
B6
350
1004A
  0
DICTIONARY
  5
1004D
102
{ACAD_REACTORS
330
C
102
}
330
C
100
AcDbDictionary
281
     1
  3
Imperial24
350
10467
  3
Metric50
350
1004E
  0
DICTIONARY
  5
10037
102
{ACAD_REACTORS
330
C
102
}
330
C
100
AcDbDictionary
281
     1
  3
Standard
350
10038
  0
DICTIONARY
  5
1001C
102
{ACAD_REACTORS
330
C
102
}
330
C
100
AcDbDictionary
281
     1
  3
2dWireframe
350
10022
  3
Basic
350
10021
  3
Brighten
350
10028
  3
ColorChange
350
1002C
  3
Conceptual
350
10025
  3
Dim
350
10027
  3
EdgeColorOff
350
10034
  3
Facepattern
350
1002B
  3
Flat
350
1001D
  3
FlatWithEdges
350
1001E
  3
Gouraud
350
1001F
  3
GouraudWithEdges
350
10020
  3
Hidden
350
10024
  3
JitterOff
350
10032
  3
Linepattern
350
1002A
  3
OverhangOff
350
10033
  3
Realistic
350
10026
  3
Shaded
350
10031
  3
Shaded with edges
350
10030
  3
Shades of Gray
350
1002D
  3
Sketchy
350
1002E
  3
Thicken
350
10029
  3
Wireframe
350
10023
  3
X-Ray
350
1002F
  0
XRECORD
  5
12185
102
{ACAD_REACTORS
330
C
102
}
330
C
100
AcDbXrecord
280
     1
 90
        1
330
10038
  0
DICTIONARY
  5
1005B
102
{ACAD_REACTORS
330
C
102
}
330
C
100
AcDbDictionary
281
     1
  3
ANNOALLVISIBLE
350
103C1
  3
CANNOSCALE
350
10061
  3
CMLEADERSTYLE
350
1005D
  3
CTABLESTYLE
350
1005C
  3
CVIEWDETAILSTYLE
350
1005E
  3
CVIEWSECTIONSTYLE
350
1005F
  3
LAYEREVAL
350
10063
  3
LAYERNOTIFY
350
10064
  3
LIGHTINGUNITS
350
10062
  3
MSLTSCALE
350
10060
  0
DICTIONARY
  5
1008D
102
{ACAD_REACTORS
330
1008C
102
}
330
1008C
100
AcDbDictionary
281
     1
  0
XRECORD
  5
10058
102
{ACAD_REACTORS
330
10057
102
}
330
10057
100
AcDbXrecord
280
     1
290
     1
  0
XRECORD
  5
1005A
102
{ACAD_REACTORS
330
10059
102
}
330
10059
100
AcDbXrecord
280
     1
290
     1
  0
SORTENTSTABLE
  5
10136
102
{ACAD_REACTORS
330
10135
102
}
330
10135
100
AcDbSortentsTable
330
1F
331
11BEB
  5
11BED
331
11BEC
  5
11BEE
331
11BEE
  5
11BF0
331
11BEF
  5
11BFA
331
11FAF
  5
12005
331
11FB3
  5
12006
331
11FCF
  5
1200C
331
11FD0
  5
1200D
331
11FD1
  5
1200E
331
11FD2
  5
12014
331
11FD3
  5
1201A
331
11FD4
  5
1201B
331
11FD5
  5
1201C
331
11FDB
  5
12029
331
11FDC
  5
1202A
331
11FDD
  5
1202B
331
11FDE
  5
1202C
331
11FDF
  5
1202D
331
12004
  5
1203A
331
12005
  5
1203B
331
12006
  5
1203C
331
12007
  5
1203D
331
12008
  5
1203E
331
12009
  5
1203F
331
1200A
  5
12040
331
1200B
  5
12041
331
1200C
  5
12042
331
1200D
  5
12043
331
1200E
  5
12044
331
1200F
  5
12045
331
12034
  5
1206A
331
12035
  5
12077
331
12036
  5
12078
331
12037
  5
1207E
331
12038
  5
1207F
331
12039
  5
12080
331
1203A
  5
12081
331
1203B
  5
12082
331
1203C
  5
1208C
331
1203D
  5
1208D
331
1203E
  5
1208E
331
1203F
  5
1208F
331
12040
  5
12090
331
12041
  5
12091
331
12042
  5
12092
331
12043
  5
12093
331
12044
  5
12094
331
12047
  5
12097
331
1208C
  5
120BE
331
1208D
  5
120BF
331
1208E
  5
120C0
331
1208F
  5
12019
331
12090
  5
12018
331
12091
  5
12017
331
12092
  5
12016
331
12093
  5
12015
331
12094
  5
1200F
331
12095
  5
12010
331
12096
  5
12011
331
12097
  5
12012
331
12098
  5
12013
331
12099
  5
1207D
331
1209B
  5
1207C
331
1209D
  5
1207B
331
1209F
  5
1207A
331
120A1
  5
12079
331
120A4
  5
12070
331
120A5
  5
1206F
331
120A6
  5
1206E
331
120A7
  5
1206D
331
120A8
  5
1206C
331
120A9
  5
1206B
331
12133
  5
12137
331
12134
  5
12138
331
12137
  5
12139
331
12138
  5
1213A
331
12139
  5
12133
331
1213A
  5
12134
331
1214C
  5
1214D
331
1214D
  5
1214C
  0
ACDBDETAILVIEWSTYLE
  5
10468
102
{ACAD_REACTORS
330
1004F
102
}
330
1004F
100
AcDbModelDocViewStyle
 70
     0
  3
Imperial24
290
     0
300
Imperial24
 90
        0
100
AcDbDetailViewStyle
 70
     0
 71
     0
 90
        3
 71
     1
340
11
 62
   256
 40
0.24
340
0
 62
   256
 40
0.24
300

 40
0.36
280
     3
 71
     2
340
16
 90
       25
 62
   256
 71
     3
340
11
 62
   256
 40
0.24
 90
        1
 40
0.75
 90
        1
300
%<\AcVar ViewType \f "%tc1">% %<\AcVar ViewDetailId>%\PSCALE %<\AcVar ViewScale \f "%sn">%
 71
     4
340
16
 90
       25
 62
   256
340
16
 90
       25
 62
   256
280
     0
  0
ACDBDETAILVIEWSTYLE
  5
10050
102
{ACAD_REACTORS
330
1004F
102
}
330
1004F
100
AcDbModelDocViewStyle
 70
     0
  3
Metric50
290
     0
300
Metric50
 90
        0
100
AcDbDetailViewStyle
 70
     0
 71
     0
 90
        3
 71
     1
340
11
 62
   256
 40
5.0
340
0
 62
   256
 40
5.0
300

 40
0.0
280
     1
 71
     2
340
16
 90
       25
 62
   256
 71
     3
340
11
 62
   256
 40
5.0
 90
        0
 40
15.0
 90
        1
300
%<\AcVar ViewDetailId>% (%<\AcVar ViewScale \f "%sn">%)
 71
     4
340
16
 90
       25
 62
   256
340
16
 90
       25
 62
   256
280
     0
  0
LAYOUT
  5
10053
102
{ACAD_REACTORS
330
10036
102
}
330
10036
100
AcDbPlotSettings
  1

  2
Brother MFC-J5730DW Printer
  4

  6

 40
0.0
 41
0.0
 42
0.0
 43
0.0
 44
0.0
 45
0.0
 46
0.0
 47
0.0
 48
0.0
 49
0.0
140
0.0
141
0.0
142
1.0
143
1.0
 70
   688
 72
     0
 73
     0
 74
     5
  7

 75
    16
147
1.0
 76
     0
 77
     2
 78
   300
148
0.0
149
0.0
100
AcDbLayout
  1
Layout1
 70
     1
 71
     1
 10
0.0
 20
0.0
 11
12.0
 21
9.0
 12
0.0
 22
0.0
 32
0.0
 14
1.000000000000000E+20
 24
1.000000000000000E+20
 34
1.000000000000000E+20
 15
-1.000000000000000E+20
 25
-1.000000000000000E+20
 35
-1.000000000000000E+20
146
0.0
 13
0.0
 23
0.0
 33
0.0
 16
1.0
 26
0.0
 36
0.0
 17
0.0
 27
1.0
 37
0.0
 76
     0
330
1B
  0
LAYOUT
  5
10052
102
{ACAD_REACTORS
330
10036
102
}
330
10036
100
AcDbPlotSettings
  1

  2
Brother MFC-J5730DW Printer
  4

  6

 40
0.0
 41
0.0
 42
0.0
 43
0.0
 44
0.0
 45
0.0
 46
0.0
 47
0.0
 48
0.0
 49
0.0
140
0.0
141
0.0
142
1.0
143
1.0
 70
  1712
 72
     0
 73
     0
 74
     0
  7

 75
     0
147
1.0
 76
     0
 77
     2
 78
   300
148
0.0
149
0.0
100
AcDbLayout
  1
Model
 70
     1
 71
     0
 10
0.0
 20
0.0
 11
12.0
 21
9.0
 12
0.0
 22
0.0
 32
0.0
 14
0.0
 24
0.0
 34
0.0
 15
0.0
 25
0.0
 35
0.0
146
0.0
 13
0.0
 23
0.0
 33
0.0
 16
1.0
 26
0.0
 36
0.0
 17
0.0
 27
1.0
 37
0.0
 76
     0
330
1F
331
2E
  0
MATERIAL
  5
1000C
102
{ACAD_XDICTIONARY
360
1000D
102
}
102
{ACAD_REACTORS
330
10003
102
}
330
10003
100
AcDbMaterial
  1
ByBlock
 72
     0
 43
0.0208333333333333
 43
0.0
 43
0.0
 43
0.0
 43
0.0
 43
0.0208333333333333
 43
0.0
 43
0.0
 43
0.0
 43
0.0
 43
1.0
 43
0.0
 43
0.0
 43
0.0
 43
0.0
 43
1.0
 77
     0
 47
0.0208333333333333
 47
0.0
 47
0.0
 47
0.0
 47
0.0
 47
0.0208333333333333
 47
0.0
 47
0.0
 47
0.0
 47
0.0
 47
1.0
 47
0.0
 47
0.0
 47
0.0
 47
0.0
 47
1.0
171
     0
 49
0.0208333333333333
 49
0.0
 49
0.0
 49
0.0
 49
0.0
 49
0.0208333333333333
 49
0.0
 49
0.0
 49
0.0
 49
0.0
 49
1.0
 49
0.0
 49
0.0
 49
0.0
 49
0.0
 49
1.0
175
     0
142
0.0208333333333333
142
0.0
142
0.0
142
0.0
142
0.0
142
0.0208333333333333
142
0.0
142
0.0
142
0.0
142
0.0
142
1.0
142
0.0
142
0.0
142
0.0
142
0.0
142
1.0
179
     0
144
0.0208333333333333
144
0.0
144
0.0
144
0.0
144
0.0
144
0.0208333333333333
144
0.0
144
0.0
144
0.0
144
0.0
144
1.0
144
0.0
144
0.0
144
0.0
144
0.0
144
1.0
147
0.0208333333333333
147
0.0
147
0.0
147
0.0
147
0.0
147
0.0208333333333333
147
0.0
147
0.0
147
0.0
147
0.0
147
1.0
147
0.0
147
0.0
147
0.0
147
0.0
147
1.0
  0
MATERIAL
  5
10004
102
{ACAD_XDICTIONARY
360
10005
102
}
102
{ACAD_REACTORS
330
10003
102
}
330
10003
100
AcDbMaterial
  1
ByLayer
 72
     0
 43
0.0208333333333333
 43
0.0
 43
0.0
 43
0.0
 43
0.0
 43
0.0208333333333333
 43
0.0
 43
0.0
 43
0.0
 43
0.0
 43
1.0
 43
0.0
 43
0.0
 43
0.0
 43
0.0
 43
1.0
 77
     0
 47
0.0208333333333333
 47
0.0
 47
0.0
 47
0.0
 47
0.0
 47
0.0208333333333333
 47
0.0
 47
0.0
 47
0.0
 47
0.0
 47
1.0
 47
0.0
 47
0.0
 47
0.0
 47
0.0
 47
1.0
171
     0
 49
0.0208333333333333
 49
0.0
 49
0.0
 49
0.0
 49
0.0
 49
0.0208333333333333
 49
0.0
 49
0.0
 49
0.0
 49
0.0
 49
1.0
 49
0.0
 49
0.0
 49
0.0
 49
0.0
 49
1.0
175
     0
142
0.0208333333333333
142
0.0
142
0.0
142
0.0
142
0.0
142
0.0208333333333333
142
0.0
142
0.0
142
0.0
142
0.0
142
1.0
142
0.0
142
0.0
142
0.0
142
0.0
142
1.0
179
     0
144
0.0208333333333333
144
0.0
144
0.0
144
0.0
144
0.0
144
0.0208333333333333
144
0.0
144
0.0
144
0.0
144
0.0
144
1.0
144
0.0
144
0.0
144
0.0
144
0.0
144
1.0
147
0.0208333333333333
147
0.0
147
0.0
147
0.0
147
0.0
147
0.0208333333333333
147
0.0
147
0.0
147
0.0
147
0.0
147
1.0
147
0.0
147
0.0
147
0.0
147
0.0
147
1.0
  0
MATERIAL
  5
10014
102
{ACAD_XDICTIONARY
360
10015
102
}
102
{ACAD_REACTORS
330
10003
102
}
330
10003
100
AcDbMaterial
  1
Global
 72
     0
 43
0.0208333333333333
 43
0.0
 43
0.0
 43
0.0
 43
0.0
 43
0.0208333333333333
 43
0.0
 43
0.0
 43
0.0
 43
0.0
 43
1.0
 43
0.0
 43
0.0
 43
0.0
 43
0.0
 43
1.0
 77
     0
 47
0.0208333333333333
 47
0.0
 47
0.0
 47
0.0
 47
0.0
 47
0.0208333333333333
 47
0.0
 47
0.0
 47
0.0
 47
0.0
 47
1.0
 47
0.0
 47
0.0
 47
0.0
 47
0.0
 47
1.0
171
     0
 49
0.0208333333333333
 49
0.0
 49
0.0
 49
0.0
 49
0.0
 49
0.0208333333333333
 49
0.0
 49
0.0
 49
0.0
 49
0.0
 49
1.0
 49
0.0
 49
0.0
 49
0.0
 49
0.0
 49
1.0
175
     0
142
0.0208333333333333
142
0.0
142
0.0
142
0.0
142
0.0
142
0.0208333333333333
142
0.0
142
0.0
142
0.0
142
0.0
142
1.0
142
0.0
142
0.0
142
0.0
142
0.0
142
1.0
179
     0
144
0.0208333333333333
144
0.0
144
0.0
144
0.0
144
0.0
144
0.0208333333333333
144
0.0
144
0.0
144
0.0
144
0.0
144
1.0
144
0.0
144
0.0
144
0.0
144
0.0
144
1.0
147
0.0208333333333333
147
0.0
147
0.0
147
0.0
147
0.0
147
0.0208333333333333
147
0.0
147
0.0
147
0.0
147
0.0
147
1.0
147
0.0
147
0.0
147
0.0
147
0.0
147
1.0
  0
MLEADERSTYLE
  5
1004C
102
{ACAD_REACTORS
330
1004B
102
}
330
1004B
100
AcDbMLeaderStyle
179
     2
170
     2
171
     1
172
     0
 90
        2
 40
0.0
 41
0.0
173
     1
 91
-1056964608
340
14
 92
       -2
290
     1
 42
2.0
291
     1
 43
0.36
  3
Standard
 44
4.0
300

342
11
174
     1
178
     6
175
     1
176
     0
 93
-1056964608
 45
4.0
292
     0
297
     0
 46
4.0
 94
-1056964608
 47
1.0
 49
1.0
140
1.0
293
     1
141
0.0
294
     1
177
     0
142
1.0
295
     0
296
     0
143
0.125
271
     0
272
     9
273
     9
298
     0
  0
MLINESTYLE
  5
1006B
102
{ACAD_REACTORS
330
17
102
}
330
17
100
AcDbMlineStyle
  2
STANDARD
 70
     0
  3

 62
   256
 51
90.0
 52
90.0
 71
     2
 49
0.5
 62
   256
  6
BYLAYER
 49
-0.5
 62
   256
  6
BYLAYER
  0
ACDBPLACEHOLDER
  5
10002
102
{ACAD_REACTORS
330
10001
102
}
330
10001
  0
SCALE
  5
1003A
102
{ACAD_REACTORS
330
10039
102
}
330
10039
100
AcDbScale
 70
     0
300
1:1
140
1.0
141
1.0
290
     1
  0
SCALE
  5
1003B
102
{ACAD_REACTORS
330
10039
102
}
330
10039
100
AcDbScale
 70
     0
300
1:2
140
1.0
141
2.0
290
     0
  0
SCALE
  5
1003C
102
{ACAD_REACTORS
330
10039
102
}
330
10039
100
AcDbScale
 70
     0
300
1:4
140
1.0
141
4.0
290
     0
  0
SCALE
  5
1003D
102
{ACAD_REACTORS
330
10039
102
}
330
10039
100
AcDbScale
 70
     0
300
1:5
140
1.0
141
5.0
290
     0
  0
SCALE
  5
1003E
102
{ACAD_REACTORS
330
10039
102
}
330
10039
100
AcDbScale
 70
     0
300
1:8
140
1.0
141
8.0
290
     0
  0
SCALE
  5
1003F
102
{ACAD_REACTORS
330
10039
102
}
330
10039
100
AcDbScale
 70
     0
300
1:10
140
1.0
141
10.0
290
     0
  0
SCALE
  5
10040
102
{ACAD_REACTORS
330
10039
102
}
330
10039
100
AcDbScale
 70
     0
300
1:16
140
1.0
141
16.0
290
     0
  0
SCALE
  5
10041
102
{ACAD_REACTORS
330
10039
102
}
330
10039
100
AcDbScale
 70
     0
300
1:20
140
1.0
141
20.0
290
     0
  0
SCALE
  5
10042
102
{ACAD_REACTORS
330
10039
102
}
330
10039
100
AcDbScale
 70
     0
300
1:30
140
1.0
141
30.0
290
     0
  0
SCALE
  5
10043
102
{ACAD_REACTORS
330
10039
102
}
330
10039
100
AcDbScale
 70
     0
300
1:40
140
1.0
141
40.0
290
     0
  0
SCALE
  5
10044
102
{ACAD_REACTORS
330
10039
102
}
330
10039
100
AcDbScale
 70
     0
300
1:50
140
1.0
141
50.0
290
     0
  0
SCALE
  5
10045
102
{ACAD_REACTORS
330
10039
102
}
330
10039
100
AcDbScale
 70
     0
300
1:100
140
1.0
141
100.0
290
     0
  0
SCALE
  5
10046
102
{ACAD_REACTORS
330
10039
102
}
330
10039
100
AcDbScale
 70
     0
300
2:1
140
2.0
141
1.0
290
     0
  0
SCALE
  5
10047
102
{ACAD_REACTORS
330
10039
102
}
330
10039
100
AcDbScale
 70
     0
300
4:1
140
4.0
141
1.0
290
     0
  0
SCALE
  5
10048
102
{ACAD_REACTORS
330
10039
102
}
330
10039
100
AcDbScale
 70
     0
300
8:1
140
8.0
141
1.0
290
     0
  0
SCALE
  5
10049
102
{ACAD_REACTORS
330
10039
102
}
330
10039
100
AcDbScale
 70
     0
300
10:1
140
10.0
141
1.0
290
     0
  0
SCALE
  5
1004A
102
{ACAD_REACTORS
330
10039
102
}
330
10039
100
AcDbScale
 70
     0
300
100:1
140
100.0
141
1.0
290
     0
  0
ACDBSECTIONVIEWSTYLE
  5
10467
102
{ACAD_REACTORS
330
1004D
102
}
330
1004D
100
AcDbModelDocViewStyle
 70
     0
  3
Imperial24
290
     0
300
Imperial24
 90
        0
100
AcDbSectionViewStyle
 70
     0
 71
     0
 90
       78
 71
     1
340
11
 62
   256
 40
0.24
340
0
340
0
 62
   256
 40
0.24
300
I, O, Q, S, X, Z
 40
0.48
 90
        3
 40
0.18
 90
        1
 71
     2
340
16
 90
       25
 62
   256
340
16
 90
       50
 62
   256
 40
0.24
 40
0.0
 40
0.24
 71
     3
340
11
 62
   256
 40
0.24
 90
        1
 40
0.75
 90
        1
300
%<\AcVar ViewType \f "%tc1">% %<\AcVar ViewSectionStartId>%-%<\AcVar ViewSectionEndId>%\PSCALE %<\AcVar ViewScale \f "%sn">%
 71
     4
 62
   256
 62
   257
300
ANSI31
 40
1.0
 90
        0
290
     0
290
     0
 90
        6
 40
0.0
 40
1.570796326794896
 40
0.2617993877991494
 40
1.308996938995747
 40
-0.2617993877991494
 40
1.832595714594045
  0
ACDBSECTIONVIEWSTYLE
  5
1004E
102
{ACAD_REACTORS
330
1004D
102
}
330
1004D
100
AcDbModelDocViewStyle
 70
     0
  3
Metric50
290
     0
300
Metric50
 90
        0
100
AcDbSectionViewStyle
 70
     0
 71
     0
 90
      102
 71
     1
340
11
 62
   256
 40
5.0
340
0
340
0
 62
   256
 40
5.0
300
I, O, Q, S, X, Z
 40
10.0
 90
        0
 40
2.5
 90
        0
 71
     2
340
16
 90
       25
 62
   256
340
16
 90
       50
 62
   256
 40
5.0
 40
2.5
 40
5.0
 71
     3
340
11
 62
   256
 40
5.0
 90
        0
 40
15.0
 90
        1
300
%<\AcVar ViewSectionStartId>%-%<\AcVar ViewSectionEndId>% (%<\AcVar ViewScale \f "%sn">%)
 71
     4
 62
   256
 62
   257
300
ANSI31
 40
1.0
 90
        0
290
     0
290
     0
 90
        6
 40
0.0
 40
1.570796326794896
 40
0.2617993877991494
 40
1.308996938995747
 40
-0.2617993877991494
 40
1.832595714594044
  0
TABLESTYLE
  5
10038
102
{ACAD_XDICTIONARY
360
10066
102
}
102
{ACAD_REACTORS
330
10037
102
}
330
10037
100
AcDbTableStyle
280
     0
  3
Standard
 70
     0
 71
     0
 40
1.5
 41
1.5
280
     0
281
     0
  7
STANDARD
140
4.5
170
     2
 62
     0
 63
     7
283
     0
 90
      512
 91
        0
  1

274
    -2
284
     1
 64
     0
275
    -2
285
     1
 65
     0
276
    -2
286
     1
 66
     0
277
    -2
287
     1
 67
     0
278
    -2
288
     1
 68
     0
279
    -2
289
     1
 69
     0
  7
STANDARD
140
6.0
170
     5
 62
     0
 63
     7
283
     0
 90
      512
 91
        0
  1

274
    -2
284
     1
 64
     0
275
    -2
285
     1
 65
     0
276
    -2
286
     1
 66
     0
277
    -2
287
     1
 67
     0
278
    -2
288
     1
 68
     0
279
    -2
289
     1
 69
     0
  7
STANDARD
140
4.5
170
     5
 62
     0
 63
     7
283
     0
 90
      512
 91
        0
  1

274
    -2
284
     1
 64
     0
275
    -2
285
     1
 65
     0
276
    -2
286
     1
 66
     0
277
    -2
287
     1
 67
     0
278
    -2
288
     1
 68
     0
279
    -2
289
     1
 69
     0
  0
VISUALSTYLE
  5
10022
102
{ACAD_REACTORS
330
1001C
102
}
330
1001C
100
AcDbVisualStyle
  2
2dWireframe
 70
     4
177
     3
291
     0
 70
    58
 90
        0
176
     1
 90
        2
176
     1
 90
        0
176
     1
 90
        0
176
     1
 40
0.6
176
     1
 40
30.0
176
     1
 62
     7
420
 16777215
176
     1
 90
        1
176
     1
 90
        4
176
     1
 62
     7
176
     1
 62
   257
176
     1
 90
        1
176
     1
 90
        1
176
     1
 40
1.0
176
     1
 90
        0
176
     1
 62
   257
176
     1
 40
1.0
176
     1
 90
        1
176
     1
 90
        6
176
     1
 90
        2
176
     1
 62
     7
176
     1
 90
        5
176
     1
 90
        0
176
     1
 90
        0
176
     1
290
     0
176
     1
 90
        1
176
     1
 40
0.0
176
     1
 90
        0
176
     1
290
     1
176
     1
290
     1
176
     1
290
     0
176
     1
290
     0
176
     1
290
     0
176
     1
290
     0
176
     1
290
     0
176
     1
290
     0
176
     1
290
     0
176
     1
 90
       50
176
     1
 40
0.0
176
     1
 40
1.0
176
     1
 90
        0
176
     1
 62
    18
176
     1
 90
       50
176
     1
 90
        3
176
     1
 62
     5
420
      255
176
     1
290
     0
176
     1
 90
       50
176
     1
 90
       50
176
     1
 90
       50
176
     1
290
     0
176
     1
 90
       50
176
     1
 62
   256
176
     0
 40
1.0
176
     0
 90
        2
176
     1
  1
strokes_ogs.tif
176
     1
290
     0
176
     1
 40
1.0
176
     1
 40
1.0
176
     1
  0
VISUALSTYLE
  5
10021
102
{ACAD_REACTORS
330
1001C
102
}
330
1001C
100
AcDbVisualStyle
  2
Basic
 70
     7
177
     3
291
     1
 70
    58
 90
        1
176
     1
 90
        0
176
     1
 90
        1
176
     1
 90
        0
176
     1
 40
0.6
176
     1
 40
30.0
176
     1
 62
     7
420
 16777215
176
     1
 90
        0
176
     1
 90
        4
176
     1
 62
     7
176
     1
 62
   257
176
     1
 90
        1
176
     1
 90
        1
176
     1
 40
1.0
176
     1
 90
        8
176
     1
 62
     7
176
     1
 40
1.0
176
     1
 90
        1
176
     1
 90
        6
176
     1
 90
        2
176
     1
 62
     7
176
     1
 90
        5
176
     1
 90
        0
176
     1
 90
        0
176
     1
290
     0
176
     1
 90
        1
176
     1
 40
0.0
176
     1
 90
        0
176
     1
290
     0
176
     1
290
     1
176
     1
290
     1
176
     1
290
     0
176
     1
290
     0
176
     1
290
     0
176
     1
290
     0
176
     1
290
     0
176
     1
290
     0
176
     1
 90
       50
176
     1
 40
0.0
176
     1
 40
1.0
176
     1
 90
        0
176
     1
 62
    18
176
     1
 90
       50
176
     1
 90
        3
176
     1
 62
     5
420
      255
176
     1
290
     0
176
     1
 90
       50
176
     1
 90
       50
176
     1
 90
       50
176
     1
290
     0
176
     1
 90
       50
176
     1
 62
   256
176
     0
 40
1.0
176
     0
 90
        2
176
     1
  1
strokes_ogs.tif
176
     1
290
     0
176
     1
 40
1.0
176
     1
 40
1.0
176
     1
  0
VISUALSTYLE
  5
10028
102
{ACAD_REACTORS
330
1001C
102
}
330
1001C
100
AcDbVisualStyle
  2
Brighten
 70
    12
177
     3
291
     1
 70
    58
 90
        2
176
     1
 90
        2
176
     1
 90
        0
176
     1
 90
        0
176
     1
 40
0.6
176
     1
 40
30.0
176
     1
 62
     7
420
 16777215
176
     1
 90
        1
176
     1
 90
        4
176
     1
 62
     7
176
     1
 62
   257
176
     1
 90
        1
176
     1
 90
        1
176
     1
 40
1.0
176
     1
 90
        8
176
     1
 62
     7
176
     1
 40
1.0
176
     1
 90
        1
176
     1
 90
        6
176
     1
 90
        2
176
     1
 62
     7
176
     1
 90
        5
176
     1
 90
        0
176
     1
 90
        0
176
     1
290
     0
176
     1
 90
        1
176
     1
 40
50.0
176
     1
 90
        0
176
     1
290
     0
176
     1
290
     1
176
     1
290
     1
176
     1
290
     0
176
     1
290
     0
176
     1
290
     0
176
     1
290
     0
176
     1
290
     0
176
     1
290
     0
176
     1
 90
       50
176
     1
 40
0.0
176
     1
 40
1.0
176
     1
 90
        0
176
     1
 62
    18
176
     1
 90
       50
176
     1
 90
        3
176
     1
 62
     5
420
      255
176
     1
290
     0
176
     1
 90
       50
176
     1
 90
       50
176
     1
 90
       50
176
     1
290
     0
176
     1
 90
       50
176
     1
 62
   256
176
     0
 40
1.0
176
     0
 90
        2
176
     1
  1
strokes_ogs.tif
176
     1
290
     0
176
     1
 40
1.0
176
     1
 40
1.0
176
     1
  0
VISUALSTYLE
  5
1002C
102
{ACAD_REACTORS
330
1001C
102
}
330
1001C
100
AcDbVisualStyle
  2
ColorChange
 70
    16
177
     3
291
     1
 70
    58
 90
        2
176
     1
 90
        2
176
     1
 90
        3
176
     1
 90
        0
176
     1
 40
0.6
176
     1
 40
30.0
176
     1
 62
     8
420
  8421504
176
     1
 90
        1
176
     1
 90
        4
176
     1
 62
     7
176
     1
 62
   257
176
     1
 90
        1
176
     1
 90
        1
176
     1
 40
1.0
176
     1
 90
        8
176
     1
 62
     8
420
  8421504
176
     1
 40
1.0
176
     1
 90
        1
176
     1
 90
        6
176
     1
 90
        2
176
     1
 62
     7
176
     1
 90
        5
176
     1
 90
        0
176
     1
 90
        0
176
     1
290
     0
176
     1
 90
        1
176
     1
 40
0.0
176
     1
 90
        0
176
     1
290
     0
176
     1
290
     1
176
     1
290
     1
176
     1
290
     0
176
     1
290
     0
176
     1
290
     0
176
     1
290
     0
176
     1
290
     0
176
     1
290
     0
176
     1
 90
       50
176
     1
 40
0.0
176
     1
 40
1.0
176
     1
 90
        0
176
     1
 62
    18
176
     1
 90
       50
176
     1
 90
        3
176
     1
 62
     5
420
      255
176
     1
290
     0
176
     1
 90
       50
176
     1
 90
       50
176
     1
 90
       50
176
     1
290
     0
176
     1
 90
       50
176
     1
 62
   256
176
     0
 40
1.0
176
     0
 90
        2
176
     1
  1
strokes_ogs.tif
176
     1
290
     0
176
     1
 40
1.0
176
     1
 40
1.0
176
     1
  0
VISUALSTYLE
  5
10025
102
{ACAD_REACTORS
330
1001C
102
}
330
1001C
100
AcDbVisualStyle
  2
Conceptual
 70
     9
177
     3
291
     0
 70
    58
 90
        3
176
     1
 90
        2
176
     1
 90
        0
176
     1
 90
        0
176
     1
 40
0.6
176
     1
 40
30.0
176
     1
 62
     7
420
 16777215
176
     1
 90
        2
176
     1
 90
        2
176
     1
 62
     7
176
     1
 62
   257
176
     1
 90
        1
176
     1
 90
        1
176
     1
 40
179.0
176
     1
 90
        8
176
     1
 62
     7
176
     1
 40
1.0
176
     1
 90
        1
176
     1
 90
        6
176
     1
 90
        2
176
     1
 62
     7
176
     1
 90
        3
176
     1
 90
        0
176
     1
 90
        0
176
     1
290
     0
176
     1
 90
        1
176
     1
 40
0.0
176
     1
 90
        0
176
     1
290
     0
176
     1
290
     1
176
     1
290
     1
176
     1
290
     0
176
     1
290
     0
176
     1
290
     0
176
     1
290
     0
176
     1
290
     0
176
     1
290
     0
176
     1
 90
       50
176
     1
 40
0.0
176
     1
 40
1.0
176
     1
 90
        0
176
     1
 62
    18
176
     1
 90
       50
176
     1
 90
        3
176
     1
 62
     5
420
      255
176
     1
290
     0
176
     1
 90
       50
176
     1
 90
       50
176
     1
 90
       50
176
     1
290
     0
176
     1
 90
       50
176
     1
 62
   256
176
     0
 40
1.0
176
     0
 90
        2
176
     1
  1
strokes_ogs.tif
176
     1
290
     0
176
     1
 40
1.0
176
     1
 40
1.0
176
     1
  0
VISUALSTYLE
  5
10027
102
{ACAD_REACTORS
330
1001C
102
}
330
1001C
100
AcDbVisualStyle
  2
Dim
 70
    11
177
     3
291
     1
 70
    58
 90
        2
176
     1
 90
        2
176
     1
 90
        0
176
     1
 90
        0
176
     1
 40
0.6
176
     1
 40
30.0
176
     1
 62
     7
420
 16777215
176
     1
 90
        1
176
     1
 90
        4
176
     1
 62
     7
176
     1
 62
   257
176
     1
 90
        1
176
     1
 90
        1
176
     1
 40
1.0
176
     1
 90
        8
176
     1
 62
     7
176
     1
 40
1.0
176
     1
 90
        1
176
     1
 90
        6
176
     1
 90
        2
176
     1
 62
     7
176
     1
 90
        5
176
     1
 90
        0
176
     1
 90
        0
176
     1
290
     0
176
     1
 90
        1
176
     1
 40
-50.0
176
     1
 90
        0
176
     1
290
     0
176
     1
290
     1
176
     1
290
     1
176
     1
290
     0
176
     1
290
     0
176
     1
290
     0
176
     1
290
     0
176
     1
290
     0
176
     1
290
     0
176
     1
 90
       50
176
     1
 40
0.0
176
     1
 40
1.0
176
     1
 90
        0
176
     1
 62
    18
176
     1
 90
       50
176
     1
 90
        3
176
     1
 62
     5
420
      255
176
     1
290
     0
176
     1
 90
       50
176
     1
 90
       50
176
     1
 90
       50
176
     1
290
     0
176
     1
 90
       50
176
     1
 62
   256
176
     0
 40
1.0
176
     0
 90
        2
176
     1
  1
strokes_ogs.tif
176
     1
290
     0
176
     1
 40
1.0
176
     1
 40
1.0
176
     1
  0
VISUALSTYLE
  5
10034
102
{ACAD_REACTORS
330
1001C
102
}
330
1001C
100
AcDbVisualStyle
  2
EdgeColorOff
 70
    22
177
     3
291
     1
 70
    58
 90
        2
176
     0
 90
        2
176
     0
 90
        0
176
     0
 90
        0
176
     0
 40
0.6
176
     0
 40
30.0
176
     0
 62
     7
420
 16777215
176
     0
 90
        1
176
     0
 90
        4
176
     0
 62
     7
176
     0
 62
   257
176
     0
 90
        1
176
     0
 90
        1
176
     0
 40
1.0
176
     0
 90
        8
176
     2
 62
     7
176
     0
 40
1.0
176
     0
 90
        1
176
     0
 90
        6
176
     0
 90
        2
176
     0
 62
     7
176
     0
 90
        5
176
     0
 90
        0
176
     0
 90
        0
176
     0
290
     0
176
     0
 90
        1
176
     0
 40
0.0
176
     0
 90
        0
176
     0
290
     0
176
     1
290
     1
176
     1
290
     1
176
     1
290
     0
176
     1
290
     0
176
     1
290
     0
176
     1
290
     0
176
     1
290
     0
176
     1
290
     0
176
     1
 90
       50
176
     0
 40
0.0
176
     0
 40
1.0
176
     0
 90
        0
176
     0
 62
    18
176
     0
 90
       50
176
     0
 90
        3
176
     0
 62
     5
420
      255
176
     0
290
     0
176
     1
 90
       50
176
     0
 90
       50
176
     0
 90
       50
176
     0
290
     0
176
     1
 90
       50
176
     0
 62
   256
176
     0
 40
1.0
176
     0
 90
        2
176
     0
  1
strokes_ogs.tif
176
     0
290
     0
176
     1
 40
1.0
176
     0
 40
1.0
176
     0
  0
VISUALSTYLE
  5
1002B
102
{ACAD_REACTORS
330
1001C
102
}
330
1001C
100
AcDbVisualStyle
  2
Facepattern
 70
    15
177
     3
291
     1
 70
    58
 90
        2
176
     1
 90
        2
176
     1
 90
        0
176
     1
 90
        0
176
     1
 40
0.6
176
     1
 40
30.0
176
     1
 62
     7
420
 16777215
176
     1
 90
        1
176
     1
 90
        4
176
     1
 62
     7
176
     1
 62
   257
176
     1
 90
        1
176
     1
 90
        1
176
     1
 40
1.0
176
     1
 90
        8
176
     1
 62
     7
176
     1
 40
1.0
176
     1
 90
        1
176
     1
 90
        6
176
     1
 90
        2
176
     1
 62
     7
176
     1
 90
        5
176
     1
 90
        0
176
     1
 90
        0
176
     1
290
     0
176
     1
 90
        1
176
     1
 40
0.0
176
     1
 90
        0
176
     1
290
     0
176
     1
290
     1
176
     1
290
     1
176
     1
290
     0
176
     1
290
     0
176
     1
290
     0
176
     1
290
     0
176
     1
290
     0
176
     1
290
     0
176
     1
 90
       50
176
     1
 40
0.0
176
     1
 40
1.0
176
     1
 90
        0
176
     1
 62
    18
176
     1
 90
       50
176
     1
 90
        3
176
     1
 62
     5
420
      255
176
     1
290
     0
176
     1
 90
       50
176
     1
 90
       50
176
     1
 90
       50
176
     1
290
     0
176
     1
 90
       50
176
     1
 62
   256
176
     0
 40
1.0
176
     0
 90
        2
176
     1
  1
strokes_ogs.tif
176
     1
290
     0
176
     1
 40
1.0
176
     1
 40
1.0
176
     1
  0
VISUALSTYLE
  5
1001D
102
{ACAD_REACTORS
330
1001C
102
}
330
1001C
100
AcDbVisualStyle
  2
Flat
 70
     0
177
     3
291
     1
 70
    58
 90
        2
176
     1
 90
        1
176
     1
 90
        1
176
     1
 90
        2
176
     1
 40
0.6
176
     1
 40
30.0
176
     1
 62
     7
420
 16777215
176
     1
 90
        0
176
     1
 90
        0
176
     1
 62
     7
176
     1
 62
   257
176
     1
 90
        1
176
     1
 90
        1
176
     1
 40
1.0
176
     1
 90
        8
176
     1
 62
     7
176
     1
 40
1.0
176
     1
 90
        1
176
     1
 90
        6
176
     1
 90
        2
176
     1
 62
     7
176
     1
 90
        5
176
     1
 90
        0
176
     1
 90
        0
176
     1
290
     0
176
     1
 90
       13
176
     1
 40
0.0
176
     1
 90
        0
176
     1
290
     0
176
     1
290
     1
176
     1
290
     1
176
     1
290
     0
176
     1
290
     0
176
     1
290
     0
176
     1
290
     0
176
     1
290
     0
176
     1
290
     0
176
     1
 90
       50
176
     1
 40
0.0
176
     1
 40
1.0
176
     1
 90
        0
176
     1
 62
    18
176
     1
 90
       50
176
     1
 90
        3
176
     1
 62
     5
420
      255
176
     1
290
     0
176
     1
 90
       50
176
     1
 90
       50
176
     1
 90
       50
176
     1
290
     0
176
     1
 90
       50
176
     1
 62
   256
176
     0
 40
1.0
176
     0
 90
        2
176
     1
  1
strokes_ogs.tif
176
     1
290
     0
176
     1
 40
1.0
176
     1
 40
1.0
176
     1
  0
VISUALSTYLE
  5
1001E
102
{ACAD_REACTORS
330
1001C
102
}
330
1001C
100
AcDbVisualStyle
  2
FlatWithEdges
 70
     1
177
     3
291
     1
 70
    58
 90
        2
176
     1
 90
        1
176
     1
 90
        1
176
     1
 90
        2
176
     1
 40
0.6
176
     1
 40
30.0
176
     1
 62
     7
420
 16777215
176
     1
 90
        1
176
     1
 90
        0
176
     1
 62
     7
176
     1
 62
   257
176
     1
 90
        1
176
     1
 90
        1
176
     1
 40
1.0
176
     1
 90
        0
176
     1
 62
   257
176
     1
 40
1.0
176
     1
 90
        1
176
     1
 90
        6
176
     1
 90
        2
176
     1
 62
     7
176
     1
 90
        5
176
     1
 90
        0
176
     1
 90
        0
176
     1
290
     0
176
     1
 90
       13
176
     1
 40
0.0
176
     1
 90
        0
176
     1
290
     0
176
     1
290
     1
176
     1
290
     1
176
     1
290
     0
176
     1
290
     0
176
     1
290
     0
176
     1
290
     0
176
     1
290
     0
176
     1
290
     0
176
     1
 90
       50
176
     1
 40
0.0
176
     1
 40
1.0
176
     1
 90
        0
176
     1
 62
    18
176
     1
 90
       50
176
     1
 90
        3
176
     1
 62
     5
420
      255
176
     1
290
     0
176
     1
 90
       50
176
     1
 90
       50
176
     1
 90
       50
176
     1
290
     0
176
     1
 90
       50
176
     1
 62
   256
176
     0
 40
1.0
176
     0
 90
        2
176
     1
  1
strokes_ogs.tif
176
     1
290
     0
176
     1
 40
1.0
176
     1
 40
1.0
176
     1
  0
VISUALSTYLE
  5
1001F
102
{ACAD_REACTORS
330
1001C
102
}
330
1001C
100
AcDbVisualStyle
  2
Gouraud
 70
     2
177
     3
291
     1
 70
    58
 90
        2
176
     1
 90
        2
176
     1
 90
        1
176
     1
 90
        2
176
     1
 40
0.6
176
     1
 40
30.0
176
     1
 62
     7
420
 16777215
176
     1
 90
        0
176
     1
 90
        0
176
     1
 62
     7
176
     1
 62
   257
176
     1
 90
        1
176
     1
 90
        1
176
     1
 40
1.0
176
     1
 90
        0
176
     1
 62
     7
176
     1
 40
1.0
176
     1
 90
        1
176
     1
 90
        6
176
     1
 90
        2
176
     1
 62
     7
176
     1
 90
        5
176
     1
 90
        0
176
     1
 90
        0
176
     1
290
     0
176
     1
 90
       13
176
     1
 40
0.0
176
     1
 90
        0
176
     1
290
     0
176
     1
290
     1
176
     1
290
     1
176
     1
290
     0
176
     1
290
     0
176
     1
290
     0
176
     1
290
     0
176
     1
290
     0
176
     1
290
     0
176
     1
 90
       50
176
     1
 40
0.0
176
     1
 40
1.0
176
     1
 90
        0
176
     1
 62
    18
176
     1
 90
       50
176
     1
 90
        3
176
     1
 62
     5
420
      255
176
     1
290
     0
176
     1
 90
       50
176
     1
 90
       50
176
     1
 90
       50
176
     1
290
     0
176
     1
 90
       50
176
     1
 62
   256
176
     0
 40
1.0
176
     0
 90
        2
176
     1
  1
strokes_ogs.tif
176
     1
290
     0
176
     1
 40
1.0
176
     1
 40
1.0
176
     1
  0
VISUALSTYLE
  5
10020
102
{ACAD_REACTORS
330
1001C
102
}
330
1001C
100
AcDbVisualStyle
  2
GouraudWithEdges
 70
     3
177
     3
291
     1
 70
    58
 90
        2
176
     1
 90
        2
176
     1
 90
        1
176
     1
 90
        2
176
     1
 40
0.6
176
     1
 40
30.0
176
     1
 62
     7
420
 16777215
176
     1
 90
        1
176
     1
 90
        0
176
     1
 62
     7
176
     1
 62
   257
176
     1
 90
        1
176
     1
 90
        1
176
     1
 40
1.0
176
     1
 90
        0
176
     1
 62
   257
176
     1
 40
1.0
176
     1
 90
        1
176
     1
 90
        6
176
     1
 90
        2
176
     1
 62
     7
176
     1
 90
        5
176
     1
 90
        0
176
     1
 90
        0
176
     1
290
     0
176
     1
 90
       13
176
     1
 40
0.0
176
     1
 90
        0
176
     1
290
     0
176
     1
290
     1
176
     1
290
     1
176
     1
290
     0
176
     1
290
     0
176
     1
290
     0
176
     1
290
     0
176
     1
290
     0
176
     1
290
     0
176
     1
 90
       50
176
     1
 40
0.0
176
     1
 40
1.0
176
     1
 90
        0
176
     1
 62
    18
176
     1
 90
       50
176
     1
 90
        3
176
     1
 62
     5
420
      255
176
     1
290
     0
176
     1
 90
       50
176
     1
 90
       50
176
     1
 90
       50
176
     1
290
     0
176
     1
 90
       50
176
     1
 62
   256
176
     0
 40
1.0
176
     0
 90
        2
176
     1
  1
strokes_ogs.tif
176
     1
290
     0
176
     1
 40
1.0
176
     1
 40
1.0
176
     1
  0
VISUALSTYLE
  5
10024
102
{ACAD_REACTORS
330
1001C
102
}
330
1001C
100
AcDbVisualStyle
  2
Hidden
 70
     6
177
     3
291
     0
 70
    58
 90
        1
176
     1
 90
        2
176
     1
 90
        2
176
     1
 90
        0
176
     1
 40
0.6
176
     1
 40
30.0
176
     1
 62
     7
420
 16777215
176
     1
 90
        2
176
     1
 90
        2
176
     1
 62
     7
176
     1
 62
   257
176
     1
 90
        2
176
     1
 90
        1
176
     1
 40
40.0
176
     1
 90
        0
176
     1
 62
   257
176
     1
 40
1.0
176
     1
 90
        1
176
     1
 90
        6
176
     1
 90
        2
176
     1
 62
     7
176
     1
 90
        3
176
     1
 90
        0
176
     1
 90
        0
176
     1
290
     0
176
     1
 90
        1
176
     1
 40
0.0
176
     1
 90
        0
176
     1
290
     0
176
     1
290
     1
176
     1
290
     1
176
     1
290
     0
176
     1
290
     0
176
     1
290
     0
176
     1
290
     0
176
     1
290
     0
176
     1
290
     0
176
     1
 90
       50
176
     1
 40
0.0
176
     1
 40
1.0
176
     1
 90
        0
176
     1
 62
    18
176
     1
 90
       50
176
     1
 90
        3
176
     1
 62
     5
420
      255
176
     1
290
     0
176
     1
 90
       50
176
     1
 90
       50
176
     1
 90
       50
176
     1
290
     0
176
     1
 90
       50
176
     1
 62
   256
176
     0
 40
1.0
176
     0
 90
        2
176
     1
  1
strokes_ogs.tif
176
     1
290
     0
176
     1
 40
1.0
176
     1
 40
1.0
176
     1
  0
VISUALSTYLE
  5
10032
102
{ACAD_REACTORS
330
1001C
102
}
330
1001C
100
AcDbVisualStyle
  2
JitterOff
 70
    20
177
     3
291
     1
 70
    58
 90
        2
176
     0
 90
        2
176
     0
 90
        0
176
     0
 90
        0
176
     0
 40
0.6
176
     0
 40
30.0
176
     0
 62
     7
420
 16777215
176
     0
 90
        1
176
     0
 90
        4
176
     0
 62
     7
176
     0
 62
   257
176
     0
 90
        1
176
     0
 90
        1
176
     0
 40
1.0
176
     0
 90
       10
176
     2
 62
     7
176
     0
 40
1.0
176
     0
 90
        1
176
     0
 90
        6
176
     0
 90
        2
176
     0
 62
     7
176
     0
 90
        5
176
     0
 90
        0
176
     0
 90
        0
176
     0
290
     0
176
     0
 90
        1
176
     0
 40
0.0
176
     0
 90
        0
176
     0
290
     0
176
     1
290
     1
176
     1
290
     1
176
     1
290
     0
176
     1
290
     0
176
     1
290
     0
176
     1
290
     0
176
     1
290
     0
176
     1
290
     0
176
     1
 90
       50
176
     0
 40
0.0
176
     0
 40
1.0
176
     0
 90
        0
176
     0
 62
    18
176
     0
 90
       50
176
     0
 90
        3
176
     0
 62
     5
420
      255
176
     0
290
     0
176
     1
 90
       50
176
     0
 90
       50
176
     0
 90
       50
176
     0
290
     0
176
     1
 90
       50
176
     0
 62
   256
176
     0
 40
1.0
176
     0
 90
        2
176
     0
  1
strokes_ogs.tif
176
     0
290
     0
176
     1
 40
1.0
176
     0
 40
1.0
176
     0
  0
VISUALSTYLE
  5
1002A
102
{ACAD_REACTORS
330
1001C
102
}
330
1001C
100
AcDbVisualStyle
  2
Linepattern
 70
    14
177
     3
291
     1
 70
    58
 90
        2
176
     1
 90
        2
176
     1
 90
        0
176
     1
 90
        0
176
     1
 40
0.6
176
     1
 40
30.0
176
     1
 62
     7
420
 16777215
176
     1
 90
        1
176
     1
 90
        4
176
     1
 62
     7
176
     1
 62
   257
176
     1
 90
        7
176
     1
 90
        7
176
     1
 40
1.0
176
     1
 90
        8
176
     1
 62
     7
176
     1
 40
1.0
176
     1
 90
        1
176
     1
 90
        6
176
     1
 90
        2
176
     1
 62
     7
176
     1
 90
        5
176
     1
 90
        0
176
     1
 90
        0
176
     1
290
     0
176
     1
 90
        1
176
     1
 40
0.0
176
     1
 90
        0
176
     1
290
     0
176
     1
290
     1
176
     1
290
     1
176
     1
290
     0
176
     1
290
     0
176
     1
290
     0
176
     1
290
     0
176
     1
290
     0
176
     1
290
     0
176
     1
 90
       50
176
     1
 40
0.0
176
     1
 40
1.0
176
     1
 90
        0
176
     1
 62
    18
176
     1
 90
       50
176
     1
 90
        3
176
     1
 62
     5
420
      255
176
     1
290
     0
176
     1
 90
       50
176
     1
 90
       50
176
     1
 90
       50
176
     1
290
     0
176
     1
 90
       50
176
     1
 62
   256
176
     0
 40
1.0
176
     0
 90
        2
176
     1
  1
strokes_ogs.tif
176
     1
290
     0
176
     1
 40
1.0
176
     1
 40
1.0
176
     1
  0
VISUALSTYLE
  5
10033
102
{ACAD_REACTORS
330
1001C
102
}
330
1001C
100
AcDbVisualStyle
  2
OverhangOff
 70
    21
177
     3
291
     1
 70
    58
 90
        2
176
     0
 90
        2
176
     0
 90
        0
176
     0
 90
        0
176
     0
 40
0.6
176
     0
 40
30.0
176
     0
 62
     7
420
 16777215
176
     0
 90
        1
176
     0
 90
        4
176
     0
 62
     7
176
     0
 62
   257
176
     0
 90
        1
176
     0
 90
        1
176
     0
 40
1.0
176
     0
 90
        9
176
     2
 62
     7
176
     0
 40
1.0
176
     0
 90
        1
176
     0
 90
        6
176
     0
 90
        2
176
     0
 62
     7
176
     0
 90
        5
176
     0
 90
        0
176
     0
 90
        0
176
     0
290
     0
176
     0
 90
        1
176
     0
 40
0.0
176
     0
 90
        0
176
     0
290
     0
176
     1
290
     1
176
     1
290
     1
176
     1
290
     0
176
     1
290
     0
176
     1
290
     0
176
     1
290
     0
176
     1
290
     0
176
     1
290
     0
176
     1
 90
       50
176
     0
 40
0.0
176
     0
 40
1.0
176
     0
 90
        0
176
     0
 62
    18
176
     0
 90
       50
176
     0
 90
        3
176
     0
 62
     5
420
      255
176
     0
290
     0
176
     1
 90
       50
176
     0
 90
       50
176
     0
 90
       50
176
     0
290
     0
176
     1
 90
       50
176
     0
 62
   256
176
     0
 40
1.0
176
     0
 90
        2
176
     0
  1
strokes_ogs.tif
176
     0
290
     0
176
     1
 40
1.0
176
     0
 40
1.0
176
     0
  0
VISUALSTYLE
  5
10026
102
{ACAD_REACTORS
330
1001C
102
}
330
1001C
100
AcDbVisualStyle
  2
Realistic
 70
     8
177
     3
291
     0
 70
    58
 90
        2
176
     1
 90
        3
176
     1
 90
        0
176
     1
 90
        2
176
     1
 40
0.6
176
     1
 40
30.0
176
     1
 62
     7
420
 16777215
176
     1
 90
        0
176
     1
 90
        0
176
     1
 62
     7
176
     1
 62
   257
176
     1
 90
        1
176
     1
 90
        1
176
     1
 40
1.0
176
     1
 90
        8
176
     1
 62
   257
176
     1
 40
1.0
176
     1
 90
        1
176
     1
 90
        6
176
     1
 90
        2
176
     1
 62
     7
176
     1
 90
        3
176
     1
 90
        0
176
     1
 90
        0
176
     1
290
     0
176
     1
 90
       13
176
     1
 40
0.0
176
     1
 90
        0
176
     1
290
     0
176
     1
290
     1
176
     1
290
     1
176
     1
290
     0
176
     1
290
     0
176
     1
290
     0
176
     1
290
     0
176
     1
290
     0
176
     1
290
     0
176
     1
 90
       50
176
     1
 40
0.0
176
     1
 40
1.0
176
     1
 90
        0
176
     1
 62
    18
176
     1
 90
       50
176
     1
 90
        3
176
     1
 62
     5
420
      255
176
     1
290
     0
176
     1
 90
       50
176
     1
 90
       50
176
     1
 90
       50
176
     1
290
     0
176
     1
 90
       50
176
     1
 62
   256
176
     0
 40
1.0
176
     0
 90
        2
176
     1
  1
strokes_ogs.tif
176
     1
290
     0
176
     1
 40
1.0
176
     1
 40
1.0
176
     1
  0
VISUALSTYLE
  5
10031
102
{ACAD_REACTORS
330
1001C
102
}
330
1001C
100
AcDbVisualStyle
  2
Shaded
 70
    27
177
     3
291
     0
 70
    58
 90
        2
176
     1
 90
        2
176
     1
 90
        1
176
     1
 90
        2
176
     1
 40
0.6
176
     1
 40
30.0
176
     1
 62
     7
420
 16777215
176
     1
 90
        0
176
     1
 90
        4
176
     1
 62
     7
176
     1
 62
   257
176
     1
 90
        1
176
     1
 90
        1
176
     1
 40
1.0
176
     1
 90
        8
176
     1
 62
   257
176
     1
 40
1.0
176
     1
 90
        1
176
     1
 90
        6
176
     1
 90
        2
176
     1
 62
     8
420
  7895160
176
     1
 90
        3
176
     1
 90
        0
176
     1
 90
        0
176
     1
290
     0
176
     1
 90
        5
176
     1
 40
0.0
176
     1
 90
        0
176
     1
290
     0
176
     1
290
     1
176
     1
290
     1
176
     1
290
     0
176
     1
290
     0
176
     1
290
     0
176
     1
290
     0
176
     1
290
     0
176
     1
290
     0
176
     1
 90
       50
176
     1
 40
0.0
176
     1
 40
1.0
176
     1
 90
        0
176
     1
 62
    18
176
     1
 90
       50
176
     1
 90
        3
176
     1
 62
     5
420
      255
176
     1
290
     0
176
     1
 90
       50
176
     1
 90
       50
176
     1
 90
       50
176
     1
290
     0
176
     1
 90
       50
176
     1
 62
   256
176
     0
 40
1.0
176
     0
 90
        2
176
     1
  1
strokes_ogs.tif
176
     1
290
     0
176
     1
 40
1.0
176
     1
 40
1.0
176
     1
  0
VISUALSTYLE
  5
10030
102
{ACAD_REACTORS
330
1001C
102
}
330
1001C
100
AcDbVisualStyle
  2
Shaded with edges
 70
    26
177
     3
291
     0
 70
    58
 90
        2
176
     1
 90
        2
176
     1
 90
        1
176
     1
 90
        2
176
     1
 40
0.6
176
     1
 40
30.0
176
     1
 62
     7
420
 16777215
176
     1
 90
        1
176
     1
 90
        2
176
     1
 62
     7
176
     1
 62
   257
176
     1
 90
        2
176
     1
 90
        1
176
     1
 40
1.0
176
     1
 90
        8
176
     1
 62
   257
176
     1
 40
1.0
176
     1
 90
        1
176
     1
 90
        6
176
     1
 90
        2
176
     1
 62
     7
176
     1
 90
        3
176
     1
 90
        0
176
     1
 90
        0
176
     1
290
     0
176
     1
 90
        5
176
     1
 40
0.0
176
     1
 90
        0
176
     1
290
     0
176
     1
290
     1
176
     1
290
     1
176
     1
290
     0
176
     1
290
     0
176
     1
290
     0
176
     1
290
     0
176
     1
290
     0
176
     1
290
     0
176
     1
 90
       50
176
     1
 40
0.0
176
     1
 40
1.0
176
     1
 90
        0
176
     1
 62
    18
176
     1
 90
       50
176
     1
 90
        3
176
     1
 62
     5
420
      255
176
     1
290
     0
176
     1
 90
       50
176
     1
 90
       50
176
     1
 90
       50
176
     1
290
     0
176
     1
 90
       50
176
     1
 62
   256
176
     0
 40
1.0
176
     0
 90
        2
176
     1
  1
strokes_ogs.tif
176
     1
290
     0
176
     1
 40
1.0
176
     1
 40
1.0
176
     1
  0
VISUALSTYLE
  5
1002D
102
{ACAD_REACTORS
330
1001C
102
}
330
1001C
100
AcDbVisualStyle
  2
Shades of Gray
 70
    23
177
     3
291
     0
 70
    58
 90
        2
176
     1
 90
        2
176
     1
 90
        3
176
     1
 90
        0
176
     1
 40
0.6
176
     1
 40
30.0
176
     1
 62
     7
420
 16777215
176
     1
 90
        2
176
     1
 90
        2
176
     1
 62
     7
176
     1
 62
     7
176
     1
 90
        1
176
     1
 90
        1
176
     1
 40
40.0
176
     1
 90
        8
176
     1
 62
     7
176
     1
 40
1.0
176
     1
 90
        1
176
     1
 90
        6
176
     1
 90
        2
176
     1
 62
     7
176
     1
 90
        3
176
     1
 90
        0
176
     1
 90
        0
176
     1
290
     0
176
     1
 90
        1
176
     1
 40
0.0
176
     1
 90
        0
176
     1
290
     0
176
     1
290
     1
176
     1
290
     1
176
     1
290
     0
176
     1
290
     0
176
     1
290
     0
176
     1
290
     0
176
     1
290
     0
176
     1
290
     0
176
     1
 90
       50
176
     1
 40
0.0
176
     1
 40
1.0
176
     1
 90
        0
176
     1
 62
    18
176
     1
 90
       50
176
     1
 90
        3
176
     1
 62
     5
420
      255
176
     1
290
     0
176
     1
 90
       50
176
     1
 90
       50
176
     1
 90
       50
176
     1
290
     0
176
     1
 90
       50
176
     1
 62
   256
176
     0
 40
1.0
176
     0
 90
        2
176
     1
  1
strokes_ogs.tif
176
     1
290
     0
176
     1
 40
1.0
176
     1
 40
1.0
176
     1
  0
VISUALSTYLE
  5
1002E
102
{ACAD_REACTORS
330
1001C
102
}
330
1001C
100
AcDbVisualStyle
  2
Sketchy
 70
    24
177
     3
291
     0
 70
    58
 90
        1
176
     1
 90
        2
176
     1
 90
        2
176
     1
 90
        0
176
     1
 40
0.6
176
     1
 40
30.0
176
     1
 62
     7
420
 16777215
176
     1
 90
        2
176
     1
 90
        2
176
     1
 62
     7
176
     1
 62
     7
176
     1
 90
        1
176
     1
 90
        1
176
     1
 40
40.0
176
     1
 90
       11
176
     1
 62
     7
176
     1
 40
1.0
176
     1
 90
        1
176
     1
 90
        6
176
     1
 90
        2
176
     1
 62
     7
176
     1
 90
        6
176
     1
 90
        0
176
     1
 90
        0
176
     1
290
     0
176
     1
 90
        1
176
     1
 40
0.0
176
     1
 90
        0
176
     1
290
     0
176
     1
290
     1
176
     1
290
     1
176
     1
290
     0
176
     1
290
     0
176
     1
290
     0
176
     1
290
     0
176
     1
290
     0
176
     1
290
     0
176
     1
 90
       50
176
     1
 40
0.0
176
     1
 40
1.0
176
     1
 90
        0
176
     1
 62
    18
176
     1
 90
       50
176
     1
 90
        3
176
     1
 62
     5
420
      255
176
     1
290
     0
176
     1
 90
       50
176
     1
 90
       50
176
     1
 90
       50
176
     1
290
     0
176
     1
 90
       50
176
     1
 62
   256
176
     0
 40
1.0
176
     0
 90
        2
176
     1
  1
strokes_ogs.tif
176
     1
290
     0
176
     1
 40
1.0
176
     1
 40
1.0
176
     1
  0
VISUALSTYLE
  5
10029
102
{ACAD_REACTORS
330
1001C
102
}
330
1001C
100
AcDbVisualStyle
  2
Thicken
 70
    13
177
     3
291
     1
 70
    58
 90
        2
176
     1
 90
        2
176
     1
 90
        0
176
     1
 90
        0
176
     1
 40
0.6
176
     1
 40
30.0
176
     1
 62
     7
420
 16777215
176
     1
 90
        1
176
     1
 90
        4
176
     1
 62
     7
176
     1
 62
   257
176
     1
 90
        1
176
     1
 90
        1
176
     1
 40
1.0
176
     1
 90
       12
176
     1
 62
     7
176
     1
 40
1.0
176
     1
 90
        1
176
     1
 90
        6
176
     1
 90
        2
176
     1
 62
     7
176
     1
 90
        5
176
     1
 90
        0
176
     1
 90
        0
176
     1
290
     0
176
     1
 90
        1
176
     1
 40
0.0
176
     1
 90
        0
176
     1
290
     0
176
     1
290
     1
176
     1
290
     1
176
     1
290
     0
176
     1
290
     0
176
     1
290
     0
176
     1
290
     0
176
     1
290
     0
176
     1
290
     0
176
     1
 90
       50
176
     1
 40
0.0
176
     1
 40
1.0
176
     1
 90
        0
176
     1
 62
    18
176
     1
 90
       50
176
     1
 90
        3
176
     1
 62
     5
420
      255
176
     1
290
     0
176
     1
 90
       50
176
     1
 90
       50
176
     1
 90
       50
176
     1
290
     0
176
     1
 90
       50
176
     1
 62
   256
176
     0
 40
1.0
176
     0
 90
        2
176
     1
  1
strokes_ogs.tif
176
     1
290
     0
176
     1
 40
1.0
176
     1
 40
1.0
176
     1
  0
VISUALSTYLE
  5
10023
102
{ACAD_REACTORS
330
1001C
102
}
330
1001C
100
AcDbVisualStyle
  2
Wireframe
 70
     5
177
     3
291
     0
 70
    58
 90
        0
176
     1
 90
        2
176
     1
 90
        0
176
     1
 90
        0
176
     1
 40
0.6
176
     1
 40
30.0
176
     1
 62
     7
420
 16777215
176
     1
 90
        1
176
     1
 90
        4
176
     1
 62
     7
176
     1
 62
   257
176
     1
 90
        1
176
     1
 90
        1
176
     1
 40
1.0
176
     1
 90
        0
176
     1
 62
   257
176
     1
 40
1.0
176
     1
 90
        1
176
     1
 90
        6
176
     1
 90
        2
176
     1
 62
     7
176
     1
 90
        3
176
     1
 90
        0
176
     1
 90
        0
176
     1
290
     0
176
     1
 90
        1
176
     1
 40
0.0
176
     1
 90
        0
176
     1
290
     0
176
     1
290
     1
176
     1
290
     1
176
     1
290
     0
176
     1
290
     0
176
     1
290
     0
176
     1
290
     0
176
     1
290
     0
176
     1
290
     0
176
     1
 90
       50
176
     1
 40
0.0
176
     1
 40
1.0
176
     1
 90
        0
176
     1
 62
    18
176
     1
 90
       50
176
     1
 90
        3
176
     1
 62
     5
420
      255
176
     1
290
     0
176
     1
 90
       50
176
     1
 90
       50
176
     1
 90
       50
176
     1
290
     0
176
     1
 90
       50
176
     1
 62
   256
176
     0
 40
1.0
176
     0
 90
        2
176
     1
  1
strokes_ogs.tif
176
     1
290
     0
176
     1
 40
1.0
176
     1
 40
1.0
176
     1
  0
VISUALSTYLE
  5
1002F
102
{ACAD_REACTORS
330
1001C
102
}
330
1001C
100
AcDbVisualStyle
  2
X-Ray
 70
    25
177
     3
291
     0
 70
    58
 90
        2
176
     1
 90
        2
176
     1
 90
        1
176
     1
 90
        1
176
     1
 40
0.5
176
     1
 40
30.0
176
     1
 62
     7
420
 16777215
176
     1
 90
        1
176
     1
 90
        0
176
     1
 62
     7
176
     1
 62
   257
176
     1
 90
        1
176
     1
 90
        1
176
     1
 40
1.0
176
     1
 90
        8
176
     1
 62
     7
176
     1
 40
1.0
176
     1
 90
        1
176
     1
 90
        6
176
     1
 90
        2
176
     1
 62
     7
176
     1
 90
        3
176
     1
 90
        0
176
     1
 90
        0
176
     1
290
     0
176
     1
 90
       13
176
     1
 40
0.0
176
     1
 90
        0
176
     1
290
     0
176
     1
290
     1
176
     1
290
     1
176
     1
290
     0
176
     1
290
     0
176
     1
290
     0
176
     1
290
     0
176
     1
290
     0
176
     1
290
     0
176
     1
 90
       50
176
     1
 40
0.0
176
     1
 40
1.0
176
     1
 90
        0
176
     1
 62
    18
176
     1
 90
       50
176
     1
 90
        3
176
     1
 62
     5
420
      255
176
     1
290
     0
176
     1
 90
       50
176
     1
 90
       50
176
     1
 90
       50
176
     1
290
     0
176
     1
 90
       50
176
     1
 62
   256
176
     0
 40
1.0
176
     0
 90
        2
176
     1
  1
strokes_ogs.tif
176
     1
290
     0
176
     1
 40
1.0
176
     1
 40
1.0
176
     1
  0
DICTIONARYVAR
  5
103C1
102
{ACAD_REACTORS
330
1005B
102
}
330
1005B
100
DictionaryVariables
280
     0
  1
0
  0
DICTIONARYVAR
  5
10061
102
{ACAD_REACTORS
330
1005B
102
}
330
1005B
100
DictionaryVariables
280
     0
  1
1:1
  0
DICTIONARYVAR
  5
1005D
102
{ACAD_REACTORS
330
1005B
102
}
330
1005B
100
DictionaryVariables
280
     0
  1
STANDARD
  0
DICTIONARYVAR
  5
1005C
102
{ACAD_REACTORS
330
1005B
102
}
330
1005B
100
DictionaryVariables
280
     0
  1
STANDARD
  0
DICTIONARYVAR
  5
1005E
102
{ACAD_REACTORS
330
1005B
102
}
330
1005B
100
DictionaryVariables
280
     0
  1
Metric50
  0
DICTIONARYVAR
  5
1005F
102
{ACAD_REACTORS
330
1005B
102
}
330
1005B
100
DictionaryVariables
280
     0
  1
Metric50
  0
DICTIONARYVAR
  5
10063
102
{ACAD_REACTORS
330
1005B
102
}
330
1005B
100
DictionaryVariables
280
     0
  1
1
  0
DICTIONARYVAR
  5
10064
102
{ACAD_REACTORS
330
1005B
102
}
330
1005B
100
DictionaryVariables
280
     0
  1
15
  0
DICTIONARYVAR
  5
10062
102
{ACAD_REACTORS
330
1005B
102
}
330
1005B
100
DictionaryVariables
280
     0
  1
0
  0
DICTIONARYVAR
  5
10060
102
{ACAD_REACTORS
330
1005B
102
}
330
1005B
100
DictionaryVariables
280
     0
  1
0
  0
DICTIONARY
  5
1000D
330
1000C
100
AcDbDictionary
280
     1
281
     1
  3
BUMPTILE
360
1000F
  3
DIFFUSETILE
360
1000E
  3
OPACITYTILE
360
10012
  3
REFLECTIONTILE
360
10011
  3
REFRACTIONTILE
360
10013
  3
SPECULARTILE
360
10010
  0
DICTIONARY
  5
10005
330
10004
100
AcDbDictionary
280
     1
281
     1
  3
BUMPTILE
360
10007
  3
DIFFUSETILE
360
10006
  3
OPACITYTILE
360
1000A
  3
REFLECTIONTILE
360
10009
  3
REFRACTIONTILE
360
1000B
  3
SPECULARTILE
360
10008
  0
DICTIONARY
  5
10015
330
10014
100
AcDbDictionary
280
     1
281
     1
  3
BUMPTILE
360
10017
  3
DIFFUSETILE
360
10016
  3
OPACITYTILE
360
1001A
  3
REFLECTIONTILE
360
10019
  3
REFRACTIONTILE
360
1001B
  3
SPECULARTILE
360
10018
  0
DICTIONARY
  5
10066
330
10038
100
AcDbDictionary
280
     1
281
     1
  3
ACAD_ROUNDTRIP_2008_TABLESTYLE_CELLSTYLEMAP
360
12184
  0
XRECORD
  5
1000F
102
{ACAD_REACTORS
330
1000D
102
}
330
1000D
100
AcDbXrecord
280
     1
270
     1
271
     1
  0
XRECORD
  5
1000E
102
{ACAD_REACTORS
330
1000D
102
}
330
1000D
100
AcDbXrecord
280
     1
270
     1
271
     1
  0
XRECORD
  5
10012
102
{ACAD_REACTORS
330
1000D
102
}
330
1000D
100
AcDbXrecord
280
     1
270
     1
271
     1
  0
XRECORD
  5
10011
102
{ACAD_REACTORS
330
1000D
102
}
330
1000D
100
AcDbXrecord
280
     1
270
     1
271
     1
  0
XRECORD
  5
10013
102
{ACAD_REACTORS
330
1000D
102
}
330
1000D
100
AcDbXrecord
280
     1
270
     1
271
     1
  0
XRECORD
  5
10010
102
{ACAD_REACTORS
330
1000D
102
}
330
1000D
100
AcDbXrecord
280
     1
270
     1
271
     1
  0
XRECORD
  5
10007
102
{ACAD_REACTORS
330
10005
102
}
330
10005
100
AcDbXrecord
280
     1
270
     1
271
     1
  0
XRECORD
  5
10006
102
{ACAD_REACTORS
330
10005
102
}
330
10005
100
AcDbXrecord
280
     1
270
     1
271
     1
  0
XRECORD
  5
1000A
102
{ACAD_REACTORS
330
10005
102
}
330
10005
100
AcDbXrecord
280
     1
270
     1
271
     1
  0
XRECORD
  5
10009
102
{ACAD_REACTORS
330
10005
102
}
330
10005
100
AcDbXrecord
280
     1
270
     1
271
     1
  0
XRECORD
  5
1000B
102
{ACAD_REACTORS
330
10005
102
}
330
10005
100
AcDbXrecord
280
     1
270
     1
271
     1
  0
XRECORD
  5
10008
102
{ACAD_REACTORS
330
10005
102
}
330
10005
100
AcDbXrecord
280
     1
270
     1
271
     1
  0
XRECORD
  5
10017
102
{ACAD_REACTORS
330
10015
102
}
330
10015
100
AcDbXrecord
280
     1
270
     1
271
     1
  0
XRECORD
  5
10016
102
{ACAD_REACTORS
330
10015
102
}
330
10015
100
AcDbXrecord
280
     1
270
     1
271
     1
  0
XRECORD
  5
1001A
102
{ACAD_REACTORS
330
10015
102
}
330
10015
100
AcDbXrecord
280
     1
270
     1
271
     1
  0
XRECORD
  5
10019
102
{ACAD_REACTORS
330
10015
102
}
330
10015
100
AcDbXrecord
280
     1
270
     1
271
     1
  0
XRECORD
  5
1001B
102
{ACAD_REACTORS
330
10015
102
}
330
10015
100
AcDbXrecord
280
     1
270
     1
271
     1
  0
XRECORD
  5
10018
102
{ACAD_REACTORS
330
10015
102
}
330
10015
100
AcDbXrecord
280
     1
270
     1
271
     1
  0
CELLSTYLEMAP
  5
12184
102
{ACAD_REACTORS
330
10066
102
}
330
10066
100
AcDbCellStyleMap
 90
        3
300
CELLSTYLE
  1
TABLEFORMAT_BEGIN
 90
        5
170
     1
 91
        0
 92
    32768
 62
   257
 93
        1
300
CONTENTFORMAT
  1
CONTENTFORMAT_BEGIN
 90
        0
 91
        0
 92
      512
 93
        0
300

 40
0.0
140
1.0
 94
        5
 62
     0
340
11
144
6.0
309
CONTENTFORMAT_END
171
     1
301
MARGIN
  1
CELLMARGIN_BEGIN
 40
1.5
 40
1.5
 40
1.5
 40
1.5
 40
0.18
 40
0.18
309
CELLMARGIN_END
 94
        6
 95
        1
302
GRIDFORMAT
  1
GRIDFORMAT_BEGIN
 90
        0
 91
        1
 62
     0
 92
       -2
340
0
 93
        0
 40
1.125
309
GRIDFORMAT_END
 95
        2
302
GRIDFORMAT
  1
GRIDFORMAT_BEGIN
 90
        0
 91
        1
 62
     0
 92
       -2
340
0
 93
        0
 40
1.125
309
GRIDFORMAT_END
 95
        4
302
GRIDFORMAT
  1
GRIDFORMAT_BEGIN
 90
        0
 91
        1
 62
     0
 92
       -2
340
0
 93
        0
 40
1.125
309
GRIDFORMAT_END
 95
        8
302
GRIDFORMAT
  1
GRIDFORMAT_BEGIN
 90
        0
 91
        1
 62
     0
 92
       -2
340
0
 93
        0
 40
1.125
309
GRIDFORMAT_END
 95
       16
302
GRIDFORMAT
  1
GRIDFORMAT_BEGIN
 90
        0
 91
        1
 62
     0
 92
       -2
340
0
 93
        0
 40
1.125
309
GRIDFORMAT_END
 95
       32
302
GRIDFORMAT
  1
GRIDFORMAT_BEGIN
 90
        0
 91
        1
 62
     0
 92
       -2
340
0
 93
        0
 40
1.125
309
GRIDFORMAT_END
309
TABLEFORMAT_END
  1
CELLSTYLE_BEGIN
 90
        1
 91
        1
300
_TITLE
309
CELLSTYLE_END
300
CELLSTYLE
  1
TABLEFORMAT_BEGIN
 90
        5
170
     1
 91
        0
 92
        0
 62
   257
 93
        1
300
CONTENTFORMAT
  1
CONTENTFORMAT_BEGIN
 90
        0
 91
        0
 92
      512
 93
        0
300

 40
0.0
140
1.0
 94
        5
 62
     0
340
11
144
4.5
309
CONTENTFORMAT_END
171
     1
301
MARGIN
  1
CELLMARGIN_BEGIN
 40
1.5
 40
1.5
 40
1.5
 40
1.5
 40
0.18
 40
0.18
309
CELLMARGIN_END
 94
        6
 95
        1
302
GRIDFORMAT
  1
GRIDFORMAT_BEGIN
 90
        0
 91
        1
 62
     0
 92
       -2
340
0
 93
        0
 40
1.125
309
GRIDFORMAT_END
 95
        2
302
GRIDFORMAT
  1
GRIDFORMAT_BEGIN
 90
        0
 91
        1
 62
     0
 92
       -2
340
0
 93
        0
 40
1.125
309
GRIDFORMAT_END
 95
        4
302
GRIDFORMAT
  1
GRIDFORMAT_BEGIN
 90
        0
 91
        1
 62
     0
 92
       -2
340
0
 93
        0
 40
1.125
309
GRIDFORMAT_END
 95
        8
302
GRIDFORMAT
  1
GRIDFORMAT_BEGIN
 90
        0
 91
        1
 62
     0
 92
       -2
340
0
 93
        0
 40
1.125
309
GRIDFORMAT_END
 95
       16
302
GRIDFORMAT
  1
GRIDFORMAT_BEGIN
 90
        0
 91
        1
 62
     0
 92
       -2
340
0
 93
        0
 40
1.125
309
GRIDFORMAT_END
 95
       32
302
GRIDFORMAT
  1
GRIDFORMAT_BEGIN
 90
        0
 91
        1
 62
     0
 92
       -2
340
0
 93
        0
 40
1.125
309
GRIDFORMAT_END
309
TABLEFORMAT_END
  1
CELLSTYLE_BEGIN
 90
        2
 91
        1
300
_HEADER
309
CELLSTYLE_END
300
CELLSTYLE
  1
TABLEFORMAT_BEGIN
 90
        5
170
     1
 91
        0
 92
        0
 62
   257
 93
        1
300
CONTENTFORMAT
  1
CONTENTFORMAT_BEGIN
 90
        0
 91
        0
 92
      512
 93
        0
300

 40
0.0
140
1.0
 94
        2
 62
     0
340
11
144
4.5
309
CONTENTFORMAT_END
171
     1
301
MARGIN
  1
CELLMARGIN_BEGIN
 40
1.5
 40
1.5
 40
1.5
 40
1.5
 40
0.18
 40
0.18
309
CELLMARGIN_END
 94
        6
 95
        1
302
GRIDFORMAT
  1
GRIDFORMAT_BEGIN
 90
        0
 91
        1
 62
     0
 92
       -2
340
0
 93
        0
 40
1.125
309
GRIDFORMAT_END
 95
        2
302
GRIDFORMAT
  1
GRIDFORMAT_BEGIN
 90
        0
 91
        1
 62
     0
 92
       -2
340
0
 93
        0
 40
1.125
309
GRIDFORMAT_END
 95
        4
302
GRIDFORMAT
  1
GRIDFORMAT_BEGIN
 90
        0
 91
        1
 62
     0
 92
       -2
340
0
 93
        0
 40
1.125
309
GRIDFORMAT_END
 95
        8
302
GRIDFORMAT
  1
GRIDFORMAT_BEGIN
 90
        0
 91
        1
 62
     0
 92
       -2
340
0
 93
        0
 40
1.125
309
GRIDFORMAT_END
 95
       16
302
GRIDFORMAT
  1
GRIDFORMAT_BEGIN
 90
        0
 91
        1
 62
     0
 92
       -2
340
0
 93
        0
 40
1.125
309
GRIDFORMAT_END
 95
       32
302
GRIDFORMAT
  1
GRIDFORMAT_BEGIN
 90
        0
 91
        1
 62
     0
 92
       -2
340
0
 93
        0
 40
1.125
309
GRIDFORMAT_END
309
TABLEFORMAT_END
  1
CELLSTYLE_BEGIN
 90
        3
 91
        2
300
_DATA
309
CELLSTYLE_END
  0
ENDSEC
  0
SECTION
  2
ACDSDATA
 70
     2
 71
     8
  0
ACDSSCHEMA
 90
        0
  1
AcDb_Thumbnail_Schema
  2
AcDbDs::ID
280
    10
 91
        8
  2
Thumbnail_Data
280
    15
 91
        0
101
ACDSRECORD
 95
        0
 90
        1
  2
AcDbDs::TreatedAsObjectData
280
     1
291
     1
101
ACDSRECORD
 95
        0
 90
        2
  2
AcDbDs::Legacy
280
     1
291
     1
101
ACDSRECORD
  1
AcDbDs::ID
 90
        3
  2
AcDs:Indexable
280
     1
291
     1
101
ACDSRECORD
  1
AcDbDs::ID
 90
        4
  2
AcDbDs::HandleAttribute
280
     7
282
     1
  0
ACDSSCHEMA
 90
        1
  1
AcDbDs::TreatedAsObjectDataSchema
  2
AcDbDs::TreatedAsObjectData
280
     1
 91
        0
  0
ACDSSCHEMA
 90
        2
  1
AcDbDs::LegacySchema
  2
AcDbDs::Legacy
280
     1
 91
        0
  0
ACDSSCHEMA
 90
        3
  1
AcDbDs::IndexedPropertySchema
  2
AcDs:Indexable
280
     1
 91
        0
  0
ACDSSCHEMA
 90
        4
  1
AcDbDs::HandleAttributeSchema
  2
AcDbDs::HandleAttribute
280
     7
 91
        1
284
     1
  0
ACDSRECORD
 90
        0
  2
AcDbDs::ID
280
    10
320
10052
  2
Thumbnail_Data
280
    15
 94
     2628
310
89504E470D0A1A0A0000000D49484452000001000000005508030000009198CAA400000300504C5445212830FFFFFF2128300000000000000000000000000000000000000000000000000000330000660000990000CC0000FF0033000033330033660033990033CC0033FF0066000066330066660066990066CC0066FF0099
310
000099330099660099990099CC0099FF00CC0000CC3300CC6600CC9900CCCC00CCFF00FF0000FF3300FF6600FF9900FFCC00FFFF3300003300333300663300993300CC3300FF3333003333333333663333993333CC3333FF3366003366333366663366993366CC3366FF3399003399333399663399993399CC3399FF33CC00
310
33CC3333CC6633CC9933CCCC33CCFF33FF0033FF3333FF6633FF9933FFCC33FFFF6600006600336600666600996600CC6600FF6633006633336633666633996633CC6633FF6666006666336666666666996666CC6666FF6699006699336699666699996699CC6699FF66CC0066CC3366CC6666CC9966CCCC66CCFF66FF0066
310
FF3366FF6666FF9966FFCC66FFFF9900009900339900669900999900CC9900FF9933009933339933669933999933CC9933FF9966009966339966669966999966CC9966FF9999009999339999669999999999CC9999FF99CC0099CC3399CC6699CC9999CCCC99CCFF99FF0099FF3399FF6699FF9999FFCC99FFFFCC0000CC00
310
33CC0066CC0099CC00CCCC00FFCC3300CC3333CC3366CC3399CC33CCCC33FFCC6600CC6633CC6666CC6699CC66CCCC66FFCC9900CC9933CC9966CC9999CC99CCCC99FFCCCC00CCCC33CCCC66CCCC99CCCCCCCCCCFFCCFF00CCFF33CCFF66CCFF99CCFFCCCCFFFFFF0000FF0033FF0066FF0099FF00CCFF00FFFF3300FF3333
310
FF3366FF3399FF33CCFF33FFFF6600FF6633FF6666FF6699FF66CCFF66FFFF9900FF9933FF9966FF9999FF99CCFF99FFFFCC00FFCC33FFCC66FFCC99FFCCCCFFCCFFFFFF00FFFF33FFFF66FFFF99FFFFCCFFFFFF0000000D0D0D1A1A1A2828283535354343435050505D5D5D6B6B6B787878868686939393A1A1A1AEAEAEBB
310
BBBBC9C9C9D6D6D6E4E4E4F1F1F1FFFFFF0000000000000000000000000000000000000000000000000000000000002E4550F1000002034944415478DAED5BCB0EC2300CCBFFFFAFEF80F66AD7573A76B11B0B6D088D49F55CC74DC12C1008040281402030057CF13BD875407EF87E284DC0EF85E354BCB78D940DB204DC9F
310
BAA587FD6CA712500533011E852417E3C96DA809309C03C79A04ECE3C6B204ACAE80CBE2443D605C058EC860A2048C73403A463502C649F056EA3757407283550848E2D0150DF6B7E21E902741310544127C9203D6524025096A79808F805C016B115026C1354D10AAFD006719146D8CCD27C105A13EF4E32937D560990054
310
267FF27CD1990276F4C6AF38881B79CBE81BB52F40A321E01B3D32C5EC22615742B6D8E9CE938480930FA4A42CAC00EA9CF08207DCC23163159CB90C55015157034F1944433267E794BC128E83508700509BE00B04B04F8263D1D7DC234877476A1EC06E82B351B8DA31D2ED8878A2307D47E4FF284C9D83E6A37085005E11
310
3C5040392F981BA3AF7800F72480AB0AB4A3F06984E43E38C801CD2024B018F82F09DA6D0F999680F60641CF342EA518F17AB8F7F88BFA26A7004C5E517685B9770761D30494FB02007957F4ADA8201A85BB06C1EDFF5E05B47F4DB89DC843806F2554AF91027F2A81A30CE26F159107210C1522BE853E9802609F031E05F4
310
4C90DD051D1EA05D06FD14450ED0CB01CE24289C03BC0A90CD01DE24A89B03C613583F097AA270D703C87F2DE70842C2653010080402814020100850E303CA45347CCBF803F10000000049454E44AE42608292FEE120B42982A3062CDB69D1668582507481DDC6A9A70175BF1EBF555DE5FF0E783D01044110044110044110
310
04411004911B7F1BA51F25FCC9ACE80000000049454E44AE42608279F16A18ECA6804793236D932B5F651B83AA10A0D9BB30BA9C0D707A8241CB61DEAE504F5F34788B818A802402D837EFB4F024F85B5940EDFB50A731744087A531E46D3F85279A53607C25C857424A30A8CB21CAE11E53C08F80CBCBAA23A5C1B2832EBD
310
26189CE37AA7C1E0CFF88534781C00B0E5B39F91C2352174A6721CB518AA0AA193B06330007204EC8490DE2C766086B82575E434488E1032BA8647A0FF0639B4D220F969106CCD782F84F23A390E6F0EFFCAF397EBF8A525CA649E6120E47C35028E32DE37FFBB00583A44FA5F07DA79692023C010422C027277B9C7B6BB47
310
48903C1D40AAC3ADA319A0B60E90EF63A29A16072341B86C660477C90E3535F08589D0619BE85E0819D486B280D0F0F1E599D061A3EC5E08397FE6C407F98E1E52494BBE262D0CB40E5042C82F02A8396D5E7EB5FC1F12B33380972B34D10000000049454E44AE426082720097E7C00E1A84784DAD1042E5CD83E63FBEA514
310
6C9F0A378450C1C150AF01A2C3BC30005A53E130341566860B2D1A6C2FB2753BBC632A0CDE44CE8590CB6BEF54783A021C00B0B91D9EA9016E20B85D07FC9D6BC50DF7CEFF03AFB712AD0C092CE30000000049454E44AE426082950675F80000000049454E44AE4260824AC106F7088FCD04B77CFB9D0B3C791835A8167078
310
8003819CB8F03C90B9B118D29EFAD662801980FA27DEC6D1E0A542700700C534B367A173D718CFF91F36266C82669934830000000049454E44AE4260828EAC151B544C00A42E7CFE47754894B4D5ED8FB100784E203C66B1488766A4AB3EB1D803622C0039681A9C1303622C70541E8004DBEFBF400E8DB2C03F2C40D48A7D
310
DD94C40000000049454E44AE426082D36EA6C2CD14B8A5B63F4D8589705A6D6EB9FE9354D8FCC99B6FA3C29E4F217D09156E334174934EB3C7FE0D5418DD4008FEE6532E3DBE900A77AA41B630B49E058799E0A207ACB3BE930F55EE1643E2EDB533B1122C8EFBA970BDE0271743FCC225E61C3A71EB4F240DECA1C2A05958
310
A4C25C8E369D02F4ACD9E4654F85519773D226992D2B00A0F3DF1694ED0F7E54B8ECAC18F0002C7900D0A1C2E57FF4E24785F33F3519A0A49698563DFA5418C53CF0A3C24C6F8D580C317D87CD3BEFE5F0AFA2C2091545F7A1C29848C1A97C16ED504E179F729F92F0BC06572A3C9F79AF96C26E6FA1DC6B64D155B3C80306
310
48187355D9FC2017A6AD0AE88AEA592638C47F51DC6359448351FAFF1400A62A201096B894168E53E1890A08D38CA00ECC475461F1F60AAD0A92A42CD08B86D52438A40A435B0D2AA7F184468273AA704D85354B63C244687ECDCF548529155E581831104C4FA8C28507A897C636AC0C6D5485914C3CC05A25DBA50A17DDE3
310
8797C64E53E1D34B63C799E0F1A5B1B0515FA9EFE980B91306006161616161616161616161616161616161616161616161616161A6F60F0F6BF3CF792039580000000049454E44AE4260826A7C2B5F012455768B5CE0F888902E3126996BC990BF3C3EB430921E42D15E9D3263D225969177BA8D0622AC4B8C2443A7D9E0B4
310
C2C82D5D62A5073496C7479605EEEB126B54846629BAF77589419AF48097F38065E5F14D99E08FE702CBB3C1B0B0B0B0B0B0B0B0B0B0B0B0B0B0B0B0B0B0B0B0DFB0FF00A86615C7E40D95680000000049454E44AE426082
  0
ENDSEC
  0
EOF
