  0
SECTION
  2
HEADER
  9
$ACADVER
  1
AC1032
  9
$ACADMAINTVER
 90
      230
  9
$DWGCODEPAGE
  3
ANSI_1252
  9
$LASTSAVEDBY
  1
kaligma@hotmail.com
  9
$REQUIREDVERSIONS
160
                 0
  9
$INSBASE
 10
0.0
 20
0.0
 30
0.0
  9
$EXTMIN
 10
-18.12665256406635
 20
-13.0
 30
0.0
  9
$EXTMAX
 10
384.0002308637374
 20
158.2311967635981
 30
0.0
  9
$LIMMIN
 10
0.0
 20
0.0
  9
$LIMMAX
 10
420.0
 20
297.0
  9
$ORTHOMODE
 70
     0
  9
$REGENMODE
 70
     1
  9
$FILLMODE
 70
     1
  9
$QTEXTMODE
 70
     0
  9
$MIRRTEXT
 70
     0
  9
$LTSCALE
 40
1.0
  9
$ATTMODE
 70
     0
  9
$TEXTSIZE
 40
1.0
  9
$TRACEWID
 40
15.68
  9
$TEXTSTYLE
  7
STANDARD
  9
$CLAYER
  8
LAYER_1
  9
$CELTYPE
  6
ByLayer
  9
$CECOLOR
 62
   256
  9
$CELTSCALE
 40
1.0
  9
$DISPSILH
 70
     0
  9
$DIMSCALE
 40
2.5
  9
$DIMASZ
 40
2.5
  9
$DIMEXO
 40
0.625
  9
$DIMDLI
 40
3.75
  9
$DIMRND
 40
0.0
  9
$DIMDLE
 40
0.0
  9
$DIMEXE
 40
1.25
  9
$DIMTP
 40
0.0
  9
$DIMTM
 40
0.0
  9
$DIMTXT
 40
2.5
  9
$DIMCEN
 40
2.5
  9
$DIMTSZ
 40
0.0
  9
$DIMTOL
 70
     0
  9
$DIMLIM
 70
     0
  9
$DIMTIH
 70
     0
  9
$DIMTOH
 70
     0
  9
$DIMSE1
 70
     0
  9
$DIMSE2
 70
     0
  9
$DIMTAD
 70
     1
  9
$DIMZIN
 70
     8
  9
$DIMBLK
  1

  9
$DIMASO
 70
     1
  9
$DIMSHO
 70
     1
  9
$DIMPOST
  1

  9
$DIMAPOST
  1

  9
$DIMALT
 70
     0
  9
$DIMALTD
 70
     3
  9
$DIMALTF
 40
0.03937
  9
$DIMLFAC
 40
1.0
  9
$DIMTOFL
 70
     1
  9
$DIMTVP
 40
0.0
  9
$DIMTIX
 70
     0
  9
$DIMSOXD
 70
     0
  9
$DIMSAH
 70
     0
  9
$DIMBLK1
  1

  9
$DIMBLK2
  1

  9
$DIMSTYLE
  2
STANDARD
  9
$DIMCLRD
 70
     0
  9
$DIMCLRE
 70
     0
  9
$DIMCLRT
 70
     0
  9
$DIMTFAC
 40
1.0
  9
$DIMGAP
 40
0.625
  9
$DIMJUST
 70
     0
  9
$DIMSD1
 70
     0
  9
$DIMSD2
 70
     0
  9
$DIMTOLJ
 70
     1
  9
$DIMTZIN
 70
     0
  9
$DIMALTZ
 70
     0
  9
$DIMALTTZ
 70
     0
  9
$DIMUPT
 70
     0
  9
$DIMDEC
 70
     4
  9
$DIMTDEC
 70
     4
  9
$DIMALTU
 70
     2
  9
$DIMALTTD
 70
     2
  9
$DIMTXSTY
  7
STANDARD
  9
$DIMAUNIT
 70
     0
  9
$DIMADEC
 70
     0
  9
$DIMALTRND
 40
0.0
  9
$DIMAZIN
 70
     0
  9
$DIMDSEP
 70
    46
  9
$DIMATFIT
 70
     3
  9
$DIMFRAC
 70
     0
  9
$DIMLDRBLK
  1

  9
$DIMLUNIT
 70
     2
  9
$DIMLWD
 70
    -2
  9
$DIMLWE
 70
    -2
  9
$DIMTMOVE
 70
     0
  9
$DIMFXL
 40
1.0
  9
$DIMFXLON
 70
     0
  9
$DIMJOGANG
 40
0.7853981633974483
  9
$DIMTFILL
 70
     0
  9
$DIMTFILLCLR
 70
     0
  9
$DIMARCSYM
 70
     0
  9
$DIMLTYPE
  6

  9
$DIMLTEX1
  6

  9
$DIMLTEX2
  6

  9
$DIMTXTDIRECTION
 70
     0
  9
$LUNITS
 70
     2
  9
$LUPREC
 70
     4
  9
$SKETCHINC
 40
1.0
  9
$FILLETRAD
 40
6.0
  9
$AUNITS
 70
     0
  9
$AUPREC
 70
     2
  9
$MENU
  1
.
  9
$ELEVATION
 40
0.0
  9
$PELEVATION
 40
0.0
  9
$THICKNESS
 40
0.0
  9
$LIMCHECK
 70
     0
  9
$CHAMFERA
 40
0.0
  9
$CHAMFERB
 40
0.0
  9
$CHAMFERC
 40
0.0
  9
$CHAMFERD
 40
0.0
  9
$SKPOLY
 70
     0
  9
$TDCREATE
 40
2459329.565671296
  9
$TDUCREATE
 40
2459329.482337963
  9
$TDUPDATE
 40
2460085.828113426
  9
$TDUUPDATE
 40
2460085.744780093
  9
$TDINDWG
 40
0.1075115741
  9
$TDUSRTIMER
 40
0.1075115741
  9
$USRTIMER
 70
     1
  9
$ANGBASE
 50
0.0
  9
$ANGDIR
 70
     0
  9
$PDMODE
 70
    34
  9
$PDSIZE
 40
0.0
  9
$PLINEWID
 40
0.0
  9
$SPLFRAME
 70
     0
  9
$SPLINETYPE
 70
     6
  9
$SPLINESEGS
 70
     8
  9
$HANDSEED
  5
20D0C
  9
$SURFTAB1
 70
     6
  9
$SURFTAB2
 70
     6
  9
$SURFTYPE
 70
     6
  9
$SURFU
 70
     6
  9
$SURFV
 70
     6
  9
$UCSBASE
  2

  9
$UCSNAME
  2

  9
$UCSORG
 10
0.0
 20
0.0
 30
0.0
  9
$UCSXDIR
 10
1.0
 20
0.0
 30
0.0
  9
$UCSYDIR
 10
0.0
 20
1.0
 30
0.0
  9
$UCSORTHOREF
  2

  9
$UCSORTHOVIEW
 70
     0
  9
$UCSORGTOP
 10
0.0
 20
0.0
 30
0.0
  9
$UCSORGBOTTOM
 10
0.0
 20
0.0
 30
0.0
  9
$UCSORGLEFT
 10
0.0
 20
0.0
 30
0.0
  9
$UCSORGRIGHT
 10
0.0
 20
0.0
 30
0.0
  9
$UCSORGFRONT
 10
0.0
 20
0.0
 30
0.0
  9
$UCSORGBACK
 10
0.0
 20
0.0
 30
0.0
  9
$PUCSBASE
  2

  9
$PUCSNAME
  2

  9
$PUCSORG
 10
0.0
 20
0.0
 30
0.0
  9
$PUCSXDIR
 10
1.0
 20
0.0
 30
0.0
  9
$PUCSYDIR
 10
0.0
 20
1.0
 30
0.0
  9
$PUCSORTHOREF
  2

  9
$PUCSORTHOVIEW
 70
     0
  9
$PUCSORGTOP
 10
0.0
 20
0.0
 30
0.0
  9
$PUCSORGBOTTOM
 10
0.0
 20
0.0
 30
0.0
  9
$PUCSORGLEFT
 10
0.0
 20
0.0
 30
0.0
  9
$PUCSORGRIGHT
 10
0.0
 20
0.0
 30
0.0
  9
$PUCSORGFRONT
 10
0.0
 20
0.0
 30
0.0
  9
$PUCSORGBACK
 10
0.0
 20
0.0
 30
0.0
  9
$USERI1
 70
     0
  9
$USERI2
 70
     0
  9
$USERI3
 70
     0
  9
$USERI4
 70
     0
  9
$USERI5
 70
     0
  9
$USERR1
 40
0.0
  9
$USERR2
 40
0.0
  9
$USERR3
 40
0.0
  9
$USERR4
 40
0.0
  9
$USERR5
 40
0.0
  9
$WORLDVIEW
 70
     1
  9
$SHADEDGE
 70
     3
  9
$SHADEDIF
 70
    70
  9
$TILEMODE
 70
     1
  9
$MAXACTVP
 70
    64
  9
$PINSBASE
 10
0.0
 20
0.0
 30
0.0
  9
$PLIMCHECK
 70
     0
  9
$PEXTMIN
 10
0.0
 20
0.0
 30
0.0
  9
$PEXTMAX
 10
0.0
 20
0.0
 30
0.0
  9
$PLIMMIN
 10
0.0
 20
0.0
  9
$PLIMMAX
 10
210.0
 20
297.0
  9
$UNITMODE
 70
     0
  9
$VISRETAIN
 70
     1
  9
$PLINEGEN
 70
     0
  9
$PSLTSCALE
 70
     1
  9
$TREEDEPTH
 70
  3020
  9
$CMLSTYLE
  2
Standard
  9
$CMLJUST
 70
     0
  9
$CMLSCALE
 40
1.0
  9
$PROXYGRAPHICS
 70
     1
  9
$MEASUREMENT
 70
     0
  9
$CELWEIGHT
370
    -1
  9
$ENDCAPS
280
     0
  9
$JOINSTYLE
280
     0
  9
$LWDISPLAY
290
     0
  9
$INSUNITS
 70
     0
  9
$HYPERLINKBASE
  1

  9
$STYLESHEET
  1

  9
$XEDIT
290
     1
  9
$CEPSNTYPE
380
     0
  9
$PSTYLEMODE
290
     1
  9
$FINGERPRINTGUID
  2
{7364DB0D-F254-1C46-A69C-97994312681A}
  9
$VERSIONGUID
  2
{BE1EC84E-6FAC-F04F-B9BF-DCEC51814EB6}
  9
$EXTNAMES
290
     1
  9
$PSVPSCALE
 40
0.0
  9
$OLESTARTUP
290
     0
  9
$SORTENTS
280
   127
  9
$INDEXCTL
280
     0
  9
$HIDETEXT
280
     0
  9
$XCLIPFRAME
280
     2
  9
$HALOGAP
280
     0
  9
$OBSCOLOR
 70
   257
  9
$OBSLTYPE
280
     0
  9
$INTERSECTIONDISPLAY
280
     0
  9
$INTERSECTIONCOLOR
 70
   257
  9
$DIMASSOC
280
     1
  9
$PROJECTNAME
  1

  9
$CAMERADISPLAY
290
     0
  9
$LENSLENGTH
 40
50.0
  9
$CAMERAHEIGHT
 40
0.0
  9
$STEPSPERSEC
 40
2.0
  9
$STEPSIZE
 40
6.0
  9
$3DDWFPREC
 40
2.0
  9
$PSOLWIDTH
 40
0.25
  9
$PSOLHEIGHT
 40
4.0
  9
$LOFTANG1
 40
1.570796326794896
  9
$LOFTANG2
 40
1.570796326794896
  9
$LOFTMAG1
 40
0.0
  9
$LOFTMAG2
 40
0.0
  9
$LOFTPARAM
 70
     7
  9
$LOFTNORMALS
280
     1
  9
$LATITUDE
 40
37.795
  9
$LONGITUDE
 40
-122.394
  9
$NORTHDIRECTION
 40
0.0
  9
$TIMEZONE
 70
 -8000
  9
$LIGHTGLYPHDISPLAY
280
     1
  9
$TILEMODELIGHTSYNCH
280
     1
  9
$CMATERIAL
347
20294
  9
$SOLIDHIST
280
     0
  9
$SHOWHIST
280
     1
  9
$DWFFRAME
280
     2
  9
$DGNFRAME
280
     0
  9
$REALWORLDSCALE
290
     1
  9
$INTERFERECOLOR
 62
     1
  9
$INTERFEREOBJVS
345
202B6
  9
$INTERFEREVPVS
346
202B3
  9
$CSHADOW
280
     0
  9
$SHADOWPLANELOCATION
 40
0.0
  0
ENDSEC
  0
SECTION
  2
CLASSES
  0
CLASS
  1
ACDBDICTIONARYWDFLT
  2
AcDbDictionaryWithDefault
  3
ObjectDBX Classes
 90
        0
 91
        1
280
     0
281
     0
  0
CLASS
  1
MATERIAL
  2
AcDbMaterial
  3
ObjectDBX Classes
 90
     1153
 91
        3
280
     0
281
     0
  0
CLASS
  1
VISUALSTYLE
  2
AcDbVisualStyle
  3
ObjectDBX Classes
 90
     4095
 91
       24
280
     0
281
     0
  0
CLASS
  1
SCALE
  2
AcDbScale
  3
ObjectDBX Classes
 90
     1153
 91
       17
280
     0
281
     0
  0
CLASS
  1
TABLESTYLE
  2
AcDbTableStyle
  3
ObjectDBX Classes
 90
     4095
 91
        1
280
     0
281
     0
  0
CLASS
  1
MLEADERSTYLE
  2
AcDbMLeaderStyle
  3
ACDB_MLEADERSTYLE_CLASS
 90
     4095
 91
        1
280
     0
281
     0
  0
CLASS
  1
ACDBSECTIONVIEWSTYLE
  2
AcDbSectionViewStyle
  3
ObjectDBX Classes
 90
     1025
 91
        1
280
     0
281
     0
  0
CLASS
  1
ACDBDETAILVIEWSTYLE
  2
AcDbDetailViewStyle
  3
ObjectDBX Classes
 90
     1025
 91
        1
280
     0
281
     0
  0
CLASS
  1
DICTIONARYVAR
  2
AcDbDictionaryVar
  3
ObjectDBX Classes
 90
        0
 91
        9
280
     0
281
     0
  0
CLASS
  1
SORTENTSTABLE
  2
AcDbSortentsTable
  3
ObjectDBX Classes
 90
        0
 91
        1
280
     0
281
     0
  0
CLASS
  1
CELLSTYLEMAP
  2
AcDbCellStyleMap
  3
ObjectDBX Classes
 90
     1152
 91
        1
280
     0
281
     0
  0
ENDSEC
  0
SECTION
  2
TABLES
  0
TABLE
  2
VPORT
  5
2028B
330
0
100
AcDbSymbolTable
 70
     1
  0
VPORT
  5
202F7
330
2028B
100
AcDbSymbolTableRecord
100
AcDbViewportTableRecord
  2
*ACTIVE
 70
     0
 10
0.0
 20
0.0
 11
1.0
 21
1.0
 12
156.7709033126503
 22
72.19948241970428
 13
0.0
 23
0.0
 14
1.0
 24
1.0
 15
10.0
 25
10.0
 16
0.0
 26
0.0
 36
1.0
 17
0.0
 27
0.0
 37
0.0
 40
212.0654513754312
 41
2.675109170305677
 42
50.0
 43
0.0
 44
0.0
 50
0.0
 51
0.0
 71
     0
 72
   100
 73
     1
 74
     3
 75
     1
 76
     1
 77
     0
 78
     0
281
     0
 65
     1
110
0.0
120
0.0
130
0.0
111
1.0
121
0.0
131
0.0
112
0.0
122
1.0
132
0.0
 79
     0
146
0.0
348
202B2
 60
     3
 61
     5
292
     1
282
     0
141
0.0
142
0.0
 63
   250
421
  3355443
1001
ACAD_NAV_VCDISPLAY
1070
     3
  0
ENDTAB
  0
TABLE
  2
LTYPE
  5
20288
330
0
100
AcDbSymbolTable
 70
    26
  0
LTYPE
  5
202DD
330
20288
100
AcDbSymbolTableRecord
100
AcDbLinetypeTableRecord
  2
ByBlock
 70
     0
  3

 72
    65
 73
     0
 40
0.0
  0
LTYPE
  5
202DE
330
20288
100
AcDbSymbolTableRecord
100
AcDbLinetypeTableRecord
  2
ByLayer
 70
     0
  3

 72
    65
 73
     0
 40
0.0
  0
LTYPE
  5
202DF
330
20288
100
AcDbSymbolTableRecord
100
AcDbLinetypeTableRecord
  2
CONTINUOUS
 70
     0
  3
Solid line
 72
    65
 73
     0
 40
0.0
  0
LTYPE
  5
202F8
330
20288
100
AcDbSymbolTableRecord
100
AcDbLinetypeTableRecord
  2
DOT
 70
     0
  3
Dot . . . . . . . . . . . . . . . . . . . . . .
 72
    65
 73
     2
 40
6.349999999999997
 49
0.0
 74
     0
 49
-6.349999999999997
 74
     0
  0
LTYPE
  5
202F9
330
20288
100
AcDbSymbolTableRecord
100
AcDbLinetypeTableRecord
  2
DOTTINY
 70
     0
  3
Dot (.15x) .....................................
 72
    65
 73
     2
 40
0.9525
 49
0.0
 74
     0
 49
-0.9525
 74
     0
  0
LTYPE
  5
202FA
330
20288
100
AcDbSymbolTableRecord
100
AcDbLinetypeTableRecord
  2
DOT2
 70
     0
  3
Dot (.5x) .....................................
 72
    65
 73
     2
 40
3.174999999999998
 49
0.0
 74
     0
 49
-3.174999999999998
 74
     0
  0
LTYPE
  5
202FB
330
20288
100
AcDbSymbolTableRecord
100
AcDbLinetypeTableRecord
  2
DOTX2
 70
     0
  3
Dot (2x) .  .  .  .  .  .  .  .  .  .  .  .  .
 72
    65
 73
     2
 40
12.7
 49
0.0
 74
     0
 49
-12.7
 74
     0
  0
LTYPE
  5
202FC
330
20288
100
AcDbSymbolTableRecord
100
AcDbLinetypeTableRecord
  2
DASHED
 70
     0
  3
Dashed _ _ _ _ _ _ _ _ _ _ _ _ _ _ _ _ _
 72
    65
 73
     2
 40
19.05
 49
12.7
 74
     0
 49
-6.349999999999997
 74
     0
  0
LTYPE
  5
202FD
330
20288
100
AcDbSymbolTableRecord
100
AcDbLinetypeTableRecord
  2
DASHEDTINY
 70
     0
  3
Dashed (.15x) _ _ _ _ _ _ _ _ _ _ _ _ _ _ _ _ _
 72
    65
 73
     2
 40
2.857499999999998
 49
1.905
 74
     0
 49
-0.9525
 74
     0
  0
LTYPE
  5
202FE
330
20288
100
AcDbSymbolTableRecord
100
AcDbLinetypeTableRecord
  2
DASHED2
 70
     0
  3
Dashed (.5x) _ _ _ _ _ _ _ _ _ _ _ _ _ _ _ _ _
 72
    65
 73
     2
 40
9.525
 49
6.349999999999997
 74
     0
 49
-3.174999999999998
 74
     0
  0
LTYPE
  5
202FF
330
20288
100
AcDbSymbolTableRecord
100
AcDbLinetypeTableRecord
  2
DASHEDX2
 70
     0
  3
Dashed (2x) ____  ____  ____  ____  ____  ___
 72
    65
 73
     2
 40
38.1
 49
25.4
 74
     0
 49
-12.7
 74
     0
  0
LTYPE
  5
20300
330
20288
100
AcDbSymbolTableRecord
100
AcDbLinetypeTableRecord
  2
DASHDOT
 70
     0
  3
Dash dot __ . __ . __ . __ . __ . __ . __ . __
 72
    65
 73
     4
 40
25.4
 49
12.7
 74
     0
 49
-6.349999999999997
 74
     0
 49
0.0
 74
     0
 49
-6.349999999999997
 74
     0
  0
LTYPE
  5
20301
330
20288
100
AcDbSymbolTableRecord
100
AcDbLinetypeTableRecord
  2
DASHDOTTINY
 70
     0
  3
Dash dot (.15x) _._._._._._._._._._._._._._._.
 72
    65
 73
     4
 40
3.81
 49
1.905
 74
     0
 49
-0.9525
 74
     0
 49
0.0
 74
     0
 49
-0.9525
 74
     0
  0
LTYPE
  5
20302
330
20288
100
AcDbSymbolTableRecord
100
AcDbLinetypeTableRecord
  2
DASHDOT2
 70
     0
  3
Dash dot (.5x) _._._._._._._._._._._._._._._.
 72
    65
 73
     4
 40
12.7
 49
6.349999999999997
 74
     0
 49
-3.174999999999998
 74
     0
 49
0.0
 74
     0
 49
-3.174999999999998
 74
     0
  0
LTYPE
  5
20303
330
20288
100
AcDbSymbolTableRecord
100
AcDbLinetypeTableRecord
  2
DASHDOTX2
 70
     0
  3
Dash dot (2x) ____  .  ____  .  ____  .  ___
 72
    65
 73
     4
 40
50.8
 49
25.4
 74
     0
 49
-12.7
 74
     0
 49
0.0
 74
     0
 49
-12.7
 74
     0
  0
LTYPE
  5
20304
330
20288
100
AcDbSymbolTableRecord
100
AcDbLinetypeTableRecord
  2
DIVIDE
 70
     0
  3
Divide ____ . . ____ . . ____ . . ____ . . ____
 72
    65
 73
     6
 40
31.75
 49
12.7
 74
     0
 49
-6.349999999999997
 74
     0
 49
0.0
 74
     0
 49
-6.349999999999997
 74
     0
 49
0.0
 74
     0
 49
-6.349999999999997
 74
     0
  0
LTYPE
  5
20305
330
20288
100
AcDbSymbolTableRecord
100
AcDbLinetypeTableRecord
  2
DIVIDETINY
 70
     0
  3
Divide (.15x) __..__..__..__..__..__..__..__.._
 72
    65
 73
     6
 40
4.7625
 49
1.905
 74
     0
 49
-0.9525
 74
     0
 49
0.0
 74
     0
 49
-0.9525
 74
     0
 49
0.0
 74
     0
 49
-0.9525
 74
     0
  0
LTYPE
  5
20306
330
20288
100
AcDbSymbolTableRecord
100
AcDbLinetypeTableRecord
  2
DIVIDE2
 70
     0
  3
Divide (.5x) __..__..__..__..__..__..__..__.._
 72
    65
 73
     6
 40
15.875
 49
6.349999999999997
 74
     0
 49
-3.174999999999998
 74
     0
 49
0.0
 74
     0
 49
-3.174999999999998
 74
     0
 49
0.0
 74
     0
 49
-3.174999999999998
 74
     0
  0
LTYPE
  5
20307
330
20288
100
AcDbSymbolTableRecord
100
AcDbLinetypeTableRecord
  2
DIVIDEX2
 70
     0
  3
Divide (2x) ________  .  .  ________  .  .  _
 72
    65
 73
     6
 40
63.5
 49
25.4
 74
     0
 49
-12.7
 74
     0
 49
0.0
 74
     0
 49
-12.7
 74
     0
 49
0.0
 74
     0
 49
-12.7
 74
     0
  0
LTYPE
  5
20308
330
20288
100
AcDbSymbolTableRecord
100
AcDbLinetypeTableRecord
  2
BORDER
 70
     0
  3
Border __ __ . __ __ . __ __ . __ __ . __ __ .
 72
    65
 73
     6
 40
44.45
 49
12.7
 74
     0
 49
-6.349999999999997
 74
     0
 49
12.7
 74
     0
 49
-6.349999999999997
 74
     0
 49
0.0
 74
     0
 49
-6.349999999999997
 74
     0
  0
LTYPE
  5
20309
330
20288
100
AcDbSymbolTableRecord
100
AcDbLinetypeTableRecord
  2
BORDERTINY
 70
     0
  3
Border (.15x) __.__.__.__.__.__.__.__.__.__.__.
 72
    65
 73
     6
 40
6.6675
 49
1.905
 74
     0
 49
-0.9525
 74
     0
 49
1.905
 74
     0
 49
-0.9525
 74
     0
 49
0.0
 74
     0
 49
-0.9525
 74
     0
  0
LTYPE
  5
2030A
330
20288
100
AcDbSymbolTableRecord
100
AcDbLinetypeTableRecord
  2
BORDER2
 70
     0
  3
Border (.5x) __.__.__.__.__.__.__.__.__.__.__.
 72
    65
 73
     6
 40
22.225
 49
6.349999999999997
 74
     0
 49
-3.174999999999998
 74
     0
 49
6.349999999999997
 74
     0
 49
-3.174999999999998
 74
     0
 49
0.0
 74
     0
 49
-3.174999999999998
 74
     0
  0
LTYPE
  5
2030B
330
20288
100
AcDbSymbolTableRecord
100
AcDbLinetypeTableRecord
  2
BORDERX2
 70
     0
  3
Border (2x) ____  ____  .  ____  ____  .  ___
 72
    65
 73
     6
 40
88.89999999999998
 49
25.4
 74
     0
 49
-12.7
 74
     0
 49
25.4
 74
     0
 49
-12.7
 74
     0
 49
0.0
 74
     0
 49
-12.7
 74
     0
  0
LTYPE
  5
2030C
330
20288
100
AcDbSymbolTableRecord
100
AcDbLinetypeTableRecord
  2
CENTER
 70
     0
  3
Center ____ _ ____ _ ____ _ ____ _ ____ _ ____
 72
    65
 73
     4
 40
50.8
 49
31.75
 74
     0
 49
-6.349999999999997
 74
     0
 49
6.349999999999997
 74
     0
 49
-6.349999999999997
 74
     0
  0
LTYPE
  5
2030D
330
20288
100
AcDbSymbolTableRecord
100
AcDbLinetypeTableRecord
  2
CENTERTINY
 70
     0
  3
Center (.15x) ___ _ ___ _ ___ _ ___ _ ___ _ ___
 72
    65
 73
     4
 40
7.62
 49
4.7625
 74
     0
 49
-0.9525
 74
     0
 49
0.9525
 74
     0
 49
-0.9525
 74
     0
  0
LTYPE
  5
2030E
330
20288
100
AcDbSymbolTableRecord
100
AcDbLinetypeTableRecord
  2
CENTER2
 70
     0
  3
Center (.5x) ___ _ ___ _ ___ _ ___ _ ___ _ ___
 72
    65
 73
     4
 40
28.575
 49
19.05
 74
     0
 49
-3.174999999999998
 74
     0
 49
3.174999999999998
 74
     0
 49
-3.174999999999998
 74
     0
  0
LTYPE
  5
2030F
330
20288
100
AcDbSymbolTableRecord
100
AcDbLinetypeTableRecord
  2
CENTERX2
 70
     0
  3
Center (2x) ________  __  ________  __  _____
 72
    65
 73
     4
 40
101.6
 49
63.5
 74
     0
 49
-12.7
 74
     0
 49
12.7
 74
     0
 49
-12.7
 74
     0
  0
ENDTAB
  0
TABLE
  2
LAYER
  5
20285
102
{ACAD_XDICTIONARY
360
20367
102
}
330
0
100
AcDbSymbolTable
 70
     3
  0
LAYER
  5
202D7
102
{ACAD_XDICTIONARY
360
2033E
102
}
330
20285
100
AcDbSymbolTableRecord
100
AcDbLayerTableRecord
  2
0
 70
     0
 62
     7
  6
CONTINUOUS
370
    -3
390
20292
347
202A4
348
0
  0
LAYER
  5
202F6
102
{ACAD_XDICTIONARY
360
20340
102
}
330
20285
100
AcDbSymbolTableRecord
100
AcDbLayerTableRecord
  2
LAYER_1
 70
     0
 62
     7
  6
CONTINUOUS
370
    -3
390
20292
347
202A4
348
0
  0
LAYER
  5
20331
102
{ACAD_XDICTIONARY
360
20342
102
}
330
20285
100
AcDbSymbolTableRecord
100
AcDbLayerTableRecord
  2
Ausschnitt Rückseite
 70
     0
 62
    70
  6
CONTINUOUS
370
    -3
390
20292
347
202A4
348
0
1001
AcAecLayerStandard
1000

1000

1001
AcCmTransparency
1071
        0
  0
ENDTAB
  0
TABLE
  2
STYLE
  5
20286
330
0
100
AcDbSymbolTable
 70
     2
  0
STYLE
  5
202D8
330
20286
100
AcDbSymbolTableRecord
100
AcDbTextStyleTableRecord
  2
STANDARD
 70
     0
 40
0.0
 41
1.0
 50
0.0
 71
     0
 42
1.0
  3
txt
  4

  0
STYLE
  5
202DC
330
20286
100
AcDbSymbolTableRecord
100
AcDbTextStyleTableRecord
  2
ANNOTATIVE
 70
     0
 40
0.0
 41
1.0
 50
0.0
 71
     0
 42
0.2
  3
txt
  4

1001
ACADANNOTATIVE
1000
AnnotativeData
1002
{
1070
     1
1070
     1
1002
}
  0
ENDTAB
  0
TABLE
  2
VIEW
  5
20289
330
0
100
AcDbSymbolTable
 70
     1
  0
ENDTAB
  0
TABLE
  2
UCS
  5
2028A
330
0
100
AcDbSymbolTable
 70
     0
  0
ENDTAB
  0
TABLE
  2
APPID
  5
2028C
330
0
100
AcDbSymbolTable
 70
    10
  0
APPID
  5
202D9
330
2028C
100
AcDbSymbolTableRecord
100
AcDbRegAppTableRecord
  2
ACAD
 70
     0
  0
APPID
  5
202E0
330
2028C
100
AcDbSymbolTableRecord
100
AcDbRegAppTableRecord
  2
ACADANNOTATIVE
 70
     0
  0
APPID
  5
20310
330
2028C
100
AcDbSymbolTableRecord
100
AcDbRegAppTableRecord
  2
LIBRECAD
 70
     0
  0
APPID
  5
20311
330
2028C
100
AcDbSymbolTableRecord
100
AcDbRegAppTableRecord
  2
ACAD_NAV_VCDISPLAY
 70
     0
  0
APPID
  5
20312
330
2028C
100
AcDbSymbolTableRecord
100
AcDbRegAppTableRecord
  2
ACAD_MLEADERVER
 70
     0
  0
APPID
  5
20313
330
2028C
100
AcDbSymbolTableRecord
100
AcDbRegAppTableRecord
  2
ACAD_EXEMPT_FROM_CAD_STANDARDS
 70
     0
  0
APPID
  5
20314
330
2028C
100
AcDbSymbolTableRecord
100
AcDbRegAppTableRecord
  2
ACAD_TC
 70
     0
  0
APPID
  5
20330
330
2028C
100
AcDbSymbolTableRecord
100
AcDbRegAppTableRecord
  2
ACAD_DSTYLE_DIMRADIAL_EXTENSION
 70
     0
  0
APPID
  5
20332
330
2028C
100
AcDbSymbolTableRecord
100
AcDbRegAppTableRecord
  2
AcAecLayerStandard
 70
     0
  0
APPID
  5
20333
330
2028C
100
AcDbSymbolTableRecord
100
AcDbRegAppTableRecord
  2
AcCmTransparency
 70
     0
  0
ENDTAB
  0
TABLE
  2
DIMSTYLE
  5
2028D
330
0
100
AcDbSymbolTable
 70
     3
100
AcDbDimStyleTable
 71
     1
340
202DA
  0
DIMSTYLE
105
202DA
330
2028D
100
AcDbSymbolTableRecord
100
AcDbDimStyleTableRecord
  2
STANDARD
 70
     0
 40
2.5
 41
2.5
 42
0.625
 44
1.25
 73
     0
 78
     8
140
2.5
147
0.625
274
     3
279
     2
284
     8
285
     8
286
     8
340
202D8
  0
DIMSTYLE
105
202DB
330
2028D
100
AcDbSymbolTableRecord
100
AcDbDimStyleTableRecord
  2
ANNOTATIVE
 70
     0
274
     3
279
     2
284
     8
285
     8
286
     8
340
202D8
1001
ACADANNOTATIVE
1000
AnnotativeData
1002
{
1070
     1
1070
     1
1002
}
  0
ENDTAB
  0
TABLE
  2
BLOCK_RECORD
  5
20284
330
0
100
AcDbSymbolTable
 70
     3
  0
BLOCK_RECORD
  5
202F2
102
{ACAD_XDICTIONARY
360
20335
102
}
330
20284
100
AcDbSymbolTableRecord
100
AcDbBlockTableRecord
  2
*Model_Space
340
202F5
 70
     0
280
     1
281
     0
  0
BLOCK_RECORD
  5
202EE
330
20284
100
AcDbSymbolTableRecord
100
AcDbBlockTableRecord
  2
*Paper_Space
340
202F1
 70
     0
280
     1
281
     0
  0
BLOCK_RECORD
  5
20316
330
20284
100
AcDbSymbolTableRecord
100
AcDbBlockTableRecord
  2
$MODEL_SPACE
340
0
 70
     0
280
     1
281
     0
  0
BLOCK_RECORD
  5
20318
330
20284
100
AcDbSymbolTableRecord
100
AcDbBlockTableRecord
  2
$PAPER_SPACE
340
0
 70
     0
280
     1
281
     0
  0
ENDTAB
  0
ENDSEC
  0
SECTION
  2
BLOCKS
  0
BLOCK
  5
202F3
330
202F2
100
AcDbEntity
  8
0
100
AcDbBlockBegin
  2
*Model_Space
 70
     0
 10
0.0
 20
0.0
 30
0.0
  3
*Model_Space
  1

  0
ENDBLK
  5
202F4
330
202F2
100
AcDbEntity
  8
0
100
AcDbBlockEnd
  0
BLOCK
  5
202EF
330
202EE
100
AcDbEntity
 67
     1
  8
0
100
AcDbBlockBegin
  2
*Paper_Space
 70
     0
 10
0.0
 20
0.0
 30
0.0
  3
*Paper_Space
  1

  0
ENDBLK
  5
202F0
330
202EE
100
AcDbEntity
 67
     1
  8
0
100
AcDbBlockEnd
  0
BLOCK
  5
20317
330
20316
100
AcDbEntity
  8
0
100
AcDbBlockBegin
  2
$MODEL_SPACE
 70
     0
 10
0.0
 20
0.0
 30
0.0
  3
$MODEL_SPACE
  1

  0
ENDBLK
  5
20131
330
20316
100
AcDbEntity
  8
0
100
AcDbBlockEnd
  0
BLOCK
  5
20319
330
20318
100
AcDbEntity
  8
0
100
AcDbBlockBegin
  2
$PAPER_SPACE
 70
     0
 10
0.0
 20
0.0
 30
0.0
  3
$PAPER_SPACE
  1

  0
ENDBLK
  5
2012D
330
20318
100
AcDbEntity
  8
0
100
AcDbBlockEnd
  0
ENDSEC
  0
SECTION
  2
ENTITIES
  0
ARC
  5
4E
330
202F2
100
AcDbEntity
  8
LAYER_1
100
AcDbCircle
 10
157.0
 20
13.0
 30
0.0
 40
3.0
100
AcDbArc
 50
270.0
 51
0.0
  0
ARC
  5
4F
330
202F2
100
AcDbEntity
  8
LAYER_1
100
AcDbCircle
 10
13.0
 20
47.0
 30
0.0
 40
3.0
100
AcDbArc
 50
90.0
 51
180.0
  0
ARC
  5
50
330
202F2
100
AcDbEntity
  8
LAYER_1
100
AcDbCircle
 10
160.0
 20
50.0
 30
0.0
 40
10.0
100
AcDbArc
 50
0.0
 51
90.0
  0
LINE
  5
51
330
202F2
100
AcDbEntity
  8
LAYER_1
100
AcDbLine
 10
170.0
 20
50.0
 30
0.0
 11
170.0
 21
10.0
 31
0.0
  0
ARC
  5
52
330
202F2
100
AcDbEntity
  8
LAYER_1
100
AcDbCircle
 10
160.0
 20
10.0
 30
0.0
 40
10.0
100
AcDbArc
 50
270.0
 51
0.0
  0
LINE
  5
53
330
202F2
100
AcDbEntity
  8
LAYER_1
100
AcDbLine
 10
160.0
 20
0.0
 30
0.0
 11
10.0
 21
0.0
 31
0.0
  0
ARC
  5
54
330
202F2
100
AcDbEntity
  8
LAYER_1
100
AcDbCircle
 10
10.0
 20
10.0
 30
0.0
 40
10.0
100
AcDbArc
 50
180.0
 51
270.0
  0
LINE
  5
55
330
202F2
100
AcDbEntity
  8
LAYER_1
100
AcDbLine
 10
0.0
 20
10.0
 30
0.0
 11
0.0
 21
50.0
 31
0.0
  0
ARC
  5
56
330
202F2
100
AcDbEntity
  8
LAYER_1
100
AcDbCircle
 10
10.0
 20
50.0
 30
0.0
 40
10.0
100
AcDbArc
 50
90.0
 51
180.0
  0
LINE
  5
5A
330
202F2
100
AcDbEntity
  8
LAYER_1
100
AcDbLine
 10
10.0
 20
60.0
 30
0.0
 11
160.0
 21
60.0
 31
0.0
  0
CIRCLE
  5
65
330
202F2
100
AcDbEntity
  8
LAYER_1
100
AcDbCircle
 10
160.0
 20
50.0
 30
0.0
 40
2.0
  0
CIRCLE
  5
66
330
202F2
100
AcDbEntity
  8
LAYER_1
100
AcDbCircle
 10
10.0
 20
10.0
 30
0.0
 40
2.0
  0
ARC
  5
67
330
202F2
100
AcDbEntity
  8
LAYER_1
  6
Continuous
 62
     7
100
AcDbCircle
 10
342.0
 20
47.0
 30
0.0
 40
3.0
100
AcDbArc
 50
0.0
 51
90.0
  0
ARC
  5
68
330
202F2
100
AcDbEntity
  8
LAYER_1
  6
Continuous
 62
     7
100
AcDbCircle
 10
198.0
 20
13.0
 30
0.0
 40
3.0
100
AcDbArc
 50
180.0
 51
270.0
  0
ARC
  5
69
330
202F2
100
AcDbEntity
  8
LAYER_1
  6
Continuous
 62
     7
100
AcDbCircle
 10
345.0
 20
10.0
 30
0.0
 40
10.0
100
AcDbArc
 50
270.0
 51
0.0
  0
LINE
  5
6A
330
202F2
100
AcDbEntity
  8
LAYER_1
  6
Continuous
 62
     7
100
AcDbLine
 10
355.0
 20
10.0
 30
0.0
 11
355.0
 21
50.0
 31
0.0
  0
ARC
  5
6B
330
202F2
100
AcDbEntity
  8
LAYER_1
  6
Continuous
 62
     7
100
AcDbCircle
 10
345.0
 20
50.0
 30
0.0
 40
10.0
100
AcDbArc
 50
0.0
 51
90.0
  0
LINE
  5
6C
330
202F2
100
AcDbEntity
  8
LAYER_1
  6
Continuous
 62
     7
100
AcDbLine
 10
345.0
 20
60.0
 30
0.0
 11
195.0
 21
60.0
 31
0.0
  0
ARC
  5
6D
330
202F2
100
AcDbEntity
  8
LAYER_1
  6
Continuous
 62
     7
100
AcDbCircle
 10
195.0
 20
50.0
 30
0.0
 40
10.0
100
AcDbArc
 50
90.0
 51
180.0
  0
LINE
  5
6E
330
202F2
100
AcDbEntity
  8
LAYER_1
  6
Continuous
 62
     7
100
AcDbLine
 10
185.0
 20
50.0
 30
0.0
 11
185.0
 21
10.0
 31
0.0
  0
ARC
  5
6F
330
202F2
100
AcDbEntity
  8
LAYER_1
  6
Continuous
 62
     7
100
AcDbCircle
 10
195.0
 20
10.0
 30
0.0
 40
10.0
100
AcDbArc
 50
180.0
 51
270.0
  0
LINE
  5
73
330
202F2
100
AcDbEntity
  8
LAYER_1
100
AcDbLine
 10
195.0
 20
0.0
 30
0.0
 11
345.0
 21
0.0
 31
0.0
  0
CIRCLE
  5
7E
330
202F2
100
AcDbEntity
  8
LAYER_1
100
AcDbCircle
 10
345.0
 20
10.0
 30
0.0
 40
2.0
  0
CIRCLE
  5
7F
330
202F2
100
AcDbEntity
  8
LAYER_1
100
AcDbCircle
 10
195.0
 20
50.0
 30
0.0
 40
2.0
  0
LINE
  5
80
330
202F2
100
AcDbEntity
  8
LAYER_1
100
AcDbLine
 10
195.0
 20
40.0
 30
0.0
 11
195.0
 21
13.0
 31
0.0
  0
LINE
  5
81
330
202F2
100
AcDbEntity
  8
LAYER_1
100
AcDbLine
 10
205.0
 20
50.0
 30
0.0
 11
342.0
 21
50.0
 31
0.0
  0
ARC
  5
82
330
202F2
100
AcDbEntity
  8
LAYER_1
100
AcDbCircle
 10
205.0
 20
40.0
 30
0.0
 40
10.0
100
AcDbArc
 50
90.0
 51
180.0
  0
LINE
  5
83
330
202F2
100
AcDbEntity
  8
LAYER_1
100
AcDbLine
 10
345.0
 20
47.0
 30
0.0
 11
345.0
 21
20.00000000000001
 31
0.0
  0
LINE
  5
84
330
202F2
100
AcDbEntity
  8
LAYER_1
100
AcDbLine
 10
198.0
 20
10.0
 30
0.0
 11
335.0
 21
10.00000000000001
 31
0.0
  0
ARC
  5
85
330
202F2
100
AcDbEntity
  8
LAYER_1
100
AcDbCircle
 10
335.0
 20
20.00000000000001
 30
0.0
 40
10.0
100
AcDbArc
 50
270.0
 51
0.0
  0
LINE
  5
86
330
202F2
100
AcDbEntity
  8
LAYER_1
100
AcDbLine
 10
160.0
 20
13.0
 30
0.0
 11
160.0
 21
40.0
 31
0.0
  0
LINE
  5
87
330
202F2
100
AcDbEntity
  8
LAYER_1
100
AcDbLine
 10
13.0
 20
50.0
 30
0.0
 11
150.0
 21
50.0
 31
0.0
  0
ARC
  5
88
330
202F2
100
AcDbEntity
  8
LAYER_1
100
AcDbCircle
 10
150.0
 20
40.0
 30
0.0
 40
10.0
100
AcDbArc
 50
0.0000000000000407
 51
90.0
  0
LINE
  5
89
330
202F2
100
AcDbEntity
  8
LAYER_1
100
AcDbLine
 10
10.0
 20
20.00000000000001
 30
0.0
 11
10.0
 21
47.0
 31
0.0
  0
LINE
  5
8A
330
202F2
100
AcDbEntity
  8
LAYER_1
100
AcDbLine
 10
20.0
 20
10.00000000000001
 30
0.0
 11
157.0
 21
10.0
 31
0.0
  0
ARC
  5
8B
330
202F2
100
AcDbEntity
  8
LAYER_1
100
AcDbCircle
 10
20.0
 20
20.00000000000001
 30
0.0
 40
10.0
100
AcDbArc
 50
180.0
 51
270.0
  0
ARC
  5
2015F
330
202F2
100
AcDbEntity
  8
LAYER_1
100
AcDbCircle
 10
24.87334743593365
 20
30.0
 30
0.0
 40
40.0
100
AcDbArc
 50
48.59037789072915
 51
311.4096221092709
  0
ARC
  5
20213
330
202F2
100
AcDbEntity
  8
LAYER_1
100
AcDbCircle
 10
160.0
 20
98.2311967635981
 30
0.0
 40
10.0
100
AcDbArc
 50
270.0
 51
0.0
  0
LINE
  5
20214
330
202F2
100
AcDbEntity
  8
LAYER_1
100
AcDbLine
 10
170.0
 20
98.2311967635981
 30
0.0
 11
170.0
 21
138.2311967635981
 31
0.0
  0
ARC
  5
20215
330
202F2
100
AcDbEntity
  8
LAYER_1
100
AcDbCircle
 10
160.0
 20
138.2311967635981
 30
0.0
 40
10.0
100
AcDbArc
 50
0.0
 51
90.00000000000003
  0
LINE
  5
20216
330
202F2
100
AcDbEntity
  8
LAYER_1
100
AcDbLine
 10
160.0
 20
148.2311967635981
 30
0.0
 11
51.33086054657955
 21
148.2311967635981
 31
0.0
  0
LINE
  5
2021D
330
202F2
100
AcDbEntity
  8
LAYER_1
100
AcDbLine
 10
51.33086054657957
 20
88.23119676359814
 30
0.0
 11
160.0
 21
88.2311967635981
 31
0.0
  0
ARC
  5
2022E
330
202F2
100
AcDbEntity
  8
LAYER_1
100
AcDbCircle
 10
24.87334743593365
 20
118.2311967635981
 30
0.0
 40
40.0
100
AcDbArc
 50
48.59037789072917
 51
311.4096221092709
  0
LWPOLYLINE
  5
20352
330
202F2
100
AcDbEntity
  8
LAYER_1
100
AcDbPolyline
 90
        4
 70
     0
 43
0.0
 10
73.0
 20
60.0
 42
0.4142135623730951
 10
76.0
 20
57.0
 10
94.0
 20
57.0
 42
0.4142135623730951
 10
97.00000000000002
 20
60.0
  0
LWPOLYLINE
  5
20353
330
202F2
100
AcDbEntity
  8
LAYER_1
100
AcDbPolyline
 90
        4
 70
     0
 43
0.0
 10
282.0
 20
-0.0000000000000013
 42
0.4142135623730951
 10
279.0
 20
2.999999999999999
 10
261.0
 20
3.0
 42
0.4142135623730951
 10
258.0
 20
0.0000000000000018
  0
POLYLINE
  5
20583
330
202F2
100
AcDbEntity
  8
LAYER_1
 62
     4
370
     0
100
AcDb2dPolyline
 66
     1
 10
0.0
 20
0.0
 30
0.0
  0
VERTEX
  5
20584
330
20583
100
AcDbEntity
  8
LAYER_1
 62
     4
370
     0
100
AcDbVertex
100
AcDb2dVertex
 10
233.0245161470662
 20
73.0016429441277
 30
0.0
  0
VERTEX
  5
20585
330
20583
100
AcDbEntity
  8
LAYER_1
 62
     4
370
     0
100
AcDbVertex
100
AcDb2dVertex
 10
234.582640116687
 20
73.0016429441277
 30
0.0
  0
SEQEND
  5
20586
330
20583
100
AcDbEntity
  8
LAYER_1
 62
     4
370
     0
  0
POLYLINE
  5
20587
330
202F2
100
AcDbEntity
  8
LAYER_1
 62
     4
370
     0
100
AcDb2dPolyline
 66
     1
 10
0.0
 20
0.0
 30
0.0
  0
VERTEX
  5
20588
330
20587
100
AcDbEntity
  8
LAYER_1
 62
     4
370
     0
100
AcDbVertex
100
AcDb2dVertex
 10
233.8121392525888
 20
73.0016429441277
 30
0.0
  0
VERTEX
  5
20589
330
20587
100
AcDbEntity
  8
LAYER_1
 62
     4
370
     0
100
AcDbVertex
100
AcDb2dVertex
 10
233.8121392525888
 20
70.67301811040884
 30
0.0
  0
SEQEND
  5
2058A
330
20587
100
AcDbEntity
  8
LAYER_1
 62
     4
370
     0
  0
POLYLINE
  5
2058B
330
202F2
100
AcDbEntity
  8
LAYER_1
 62
     4
370
     0
100
AcDb2dPolyline
 66
     1
 10
0.0
 20
0.0
 30
0.0
  0
VERTEX
  5
2058C
330
2058B
100
AcDbEntity
  8
LAYER_1
 62
     4
370
     0
100
AcDbVertex
100
AcDb2dVertex
 10
235.3531409807851
 20
71.4606412159314
 30
0.0
  0
VERTEX
  5
2058D
330
2058B
100
AcDbEntity
  8
LAYER_1
 62
     4
370
     0
100
AcDbVertex
100
AcDb2dVertex
 10
236.5174533976445
 20
71.4606412159314
 30
0.0
  0
VERTEX
  5
2058E
330
2058B
100
AcDbEntity
  8
LAYER_1
 62
     4
370
     0
100
AcDbVertex
100
AcDb2dVertex
 10
236.9112649504058
 20
71.83733052726828
 30
0.0
  0
VERTEX
  5
2058F
330
2058B
100
AcDbEntity
  8
LAYER_1
 62
     4
370
     0
100
AcDbVertex
100
AcDb2dVertex
 10
236.5174533976445
 20
72.23114208002954
 30
0.0
  0
VERTEX
  5
20590
330
2058B
100
AcDbEntity
  8
LAYER_1
 62
     4
370
     0
100
AcDbVertex
100
AcDb2dVertex
 10
235.7469525335464
 20
72.23114208002954
 30
0.0
  0
VERTEX
  5
20591
330
2058B
100
AcDbEntity
  8
LAYER_1
 62
     4
370
     0
100
AcDbVertex
100
AcDb2dVertex
 10
235.3531409807851
 20
71.83733052726828
 30
0.0
  0
VERTEX
  5
20592
330
2058B
100
AcDbEntity
  8
LAYER_1
 62
     4
370
     0
100
AcDbVertex
100
AcDb2dVertex
 10
235.3531409807851
 20
71.06682966317013
 30
0.0
  0
VERTEX
  5
20593
330
2058B
100
AcDbEntity
  8
LAYER_1
 62
     4
370
     0
100
AcDbVertex
100
AcDb2dVertex
 10
235.7469525335464
 20
70.67301811040884
 30
0.0
  0
VERTEX
  5
20594
330
2058B
100
AcDbEntity
  8
LAYER_1
 62
     4
370
     0
100
AcDbVertex
100
AcDb2dVertex
 10
236.5174533976445
 20
70.67301811040884
 30
0.0
  0
SEQEND
  5
20595
330
2058B
100
AcDbEntity
  8
LAYER_1
 62
     4
370
     0
  0
POLYLINE
  5
20596
330
202F2
100
AcDbEntity
  8
LAYER_1
 62
     4
370
     0
100
AcDb2dPolyline
 66
     1
 10
0.0
 20
0.0
 30
0.0
  0
VERTEX
  5
20597
330
20596
100
AcDbEntity
  8
LAYER_1
 62
     4
370
     0
100
AcDbVertex
100
AcDb2dVertex
 10
237.6817658145039
 20
70.67301811040884
 30
0.0
  0
VERTEX
  5
20598
330
20596
100
AcDbEntity
  8
LAYER_1
 62
     4
370
     0
100
AcDbVertex
100
AcDb2dVertex
 10
238.8460782313633
 20
70.67301811040884
 30
0.0
  0
VERTEX
  5
20599
330
20596
100
AcDbEntity
  8
LAYER_1
 62
     4
370
     0
100
AcDbVertex
100
AcDb2dVertex
 10
239.2398897841246
 20
71.06682966317013
 30
0.0
  0
VERTEX
  5
2059A
330
20596
100
AcDbEntity
  8
LAYER_1
 62
     4
370
     0
100
AcDbVertex
100
AcDb2dVertex
 10
238.8460782313633
 20
71.4606412159314
 30
0.0
  0
VERTEX
  5
2059B
330
20596
100
AcDbEntity
  8
LAYER_1
 62
     4
370
     0
100
AcDbVertex
100
AcDb2dVertex
 10
238.0755773672652
 20
71.4606412159314
 30
0.0
  0
VERTEX
  5
2059C
330
20596
100
AcDbEntity
  8
LAYER_1
 62
     4
370
     0
100
AcDbVertex
100
AcDb2dVertex
 10
237.6817658145039
 20
71.83733052726828
 30
0.0
  0
VERTEX
  5
2059D
330
20596
100
AcDbEntity
  8
LAYER_1
 62
     4
370
     0
100
AcDbVertex
100
AcDb2dVertex
 10
238.0755773672652
 20
72.23114208002954
 30
0.0
  0
VERTEX
  5
2059E
330
20596
100
AcDbEntity
  8
LAYER_1
 62
     4
370
     0
100
AcDbVertex
100
AcDb2dVertex
 10
239.2398897841246
 20
72.23114208002954
 30
0.0
  0
SEQEND
  5
2059F
330
20596
100
AcDbEntity
  8
LAYER_1
 62
     4
370
     0
  0
POLYLINE
  5
205A0
330
202F2
100
AcDbEntity
  8
LAYER_1
 62
     4
370
     0
100
AcDb2dPolyline
 66
     1
 10
0.0
 20
0.0
 30
0.0
  0
VERTEX
  5
205A1
330
205A0
100
AcDbEntity
  8
LAYER_1
 62
     4
370
     0
100
AcDbVertex
100
AcDb2dVertex
 10
240.0103906482228
 20
72.23114208002954
 30
0.0
  0
VERTEX
  5
205A2
330
205A0
100
AcDbEntity
  8
LAYER_1
 62
     4
370
     0
100
AcDbVertex
100
AcDb2dVertex
 10
241.5685146178434
 20
72.23114208002954
 30
0.0
  0
SEQEND
  5
205A3
330
205A0
100
AcDbEntity
  8
LAYER_1
 62
     4
370
     0
  0
POLYLINE
  5
205A4
330
202F2
100
AcDbEntity
  8
LAYER_1
 62
     4
370
     0
100
AcDb2dPolyline
 66
     1
 10
0.0
 20
0.0
 30
0.0
  0
VERTEX
  5
205A5
330
205A4
100
AcDbEntity
  8
LAYER_1
 62
     4
370
     0
100
AcDbVertex
100
AcDb2dVertex
 10
240.7980137537454
 20
73.0016429441277
 30
0.0
  0
VERTEX
  5
205A6
330
205A4
100
AcDbEntity
  8
LAYER_1
 62
     4
370
     0
100
AcDbVertex
100
AcDb2dVertex
 10
240.7980137537454
 20
71.06682966317013
 30
0.0
  0
VERTEX
  5
205A7
330
205A4
100
AcDbEntity
  8
LAYER_1
 62
     4
370
     0
100
AcDbVertex
100
AcDb2dVertex
 10
241.1747030650822
 20
70.67301811040884
 30
0.0
  0
VERTEX
  5
205A8
330
205A4
100
AcDbEntity
  8
LAYER_1
 62
     4
370
     0
100
AcDbVertex
100
AcDb2dVertex
 10
241.5685146178434
 20
71.06682966317013
 30
0.0
  0
SEQEND
  5
205A9
330
205A4
100
AcDbEntity
  8
LAYER_1
 62
     4
370
     0
  0
POLYLINE
  5
205AA
330
202F2
100
AcDbEntity
  8
LAYER_1
 62
     4
370
     0
100
AcDb2dPolyline
 66
     1
 10
0.0
 20
0.0
 30
0.0
  0
VERTEX
  5
205AB
330
205AA
100
AcDbEntity
  8
LAYER_1
 62
     4
370
     0
100
AcDbVertex
100
AcDb2dVertex
 10
242.3390154819416
 20
72.23114208002954
 30
0.0
  0
VERTEX
  5
205AC
330
205AA
100
AcDbEntity
  8
LAYER_1
 62
     4
370
     0
100
AcDbVertex
100
AcDb2dVertex
 10
242.3390154819416
 20
71.83733052726828
 30
0.0
  0
SEQEND
  5
205AD
330
205AA
100
AcDbEntity
  8
LAYER_1
 62
     4
370
     0
  0
POLYLINE
  5
205AE
330
202F2
100
AcDbEntity
  8
LAYER_1
 62
     4
370
     0
100
AcDb2dPolyline
 66
     1
 10
0.0
 20
0.0
 30
0.0
  0
VERTEX
  5
205AF
330
205AE
100
AcDbEntity
  8
LAYER_1
 62
     4
370
     0
100
AcDbVertex
100
AcDb2dVertex
 10
242.3390154819416
 20
71.4606412159314
 30
0.0
  0
VERTEX
  5
205B0
330
205AE
100
AcDbEntity
  8
LAYER_1
 62
     4
370
     0
100
AcDbVertex
100
AcDb2dVertex
 10
242.3390154819416
 20
71.06682966317013
 30
0.0
  0
SEQEND
  5
205B1
330
205AE
100
AcDbEntity
  8
LAYER_1
 62
     4
370
     0
  0
POLYLINE
  5
205B2
330
202F2
100
AcDbEntity
  8
LAYER_1
 62
     4
370
     0
100
AcDb2dPolyline
 66
     1
 10
0.0
 20
0.0
 30
0.0
 70
     1
  0
VERTEX
  5
205B3
330
205B2
100
AcDbEntity
  8
LAYER_1
 62
     4
370
     0
100
AcDbVertex
100
AcDb2dVertex
 10
245.8319527325199
 20
70.67301811040884
 30
0.0
  0
VERTEX
  5
205B4
330
205B2
100
AcDbEntity
  8
LAYER_1
 62
     4
370
     0
100
AcDbVertex
100
AcDb2dVertex
 10
245.455263421183
 20
71.06682966317013
 30
0.0
  0
VERTEX
  5
205B5
330
205B2
100
AcDbEntity
  8
LAYER_1
 62
     4
370
     0
100
AcDbVertex
100
AcDb2dVertex
 10
245.455263421183
 20
72.62495363279082
 30
0.0
  0
VERTEX
  5
205B6
330
205B2
100
AcDbEntity
  8
LAYER_1
 62
     4
370
     0
100
AcDbVertex
100
AcDb2dVertex
 10
245.8319527325199
 20
73.0016429441277
 30
0.0
  0
VERTEX
  5
205B7
330
205B2
100
AcDbEntity
  8
LAYER_1
 62
     4
370
     0
100
AcDbVertex
100
AcDb2dVertex
 10
246.2257642852812
 20
73.0016429441277
 30
0.0
  0
VERTEX
  5
205B8
330
205B2
100
AcDbEntity
  8
LAYER_1
 62
     4
370
     0
100
AcDbVertex
100
AcDb2dVertex
 10
246.6195758380425
 20
72.62495363279082
 30
0.0
  0
VERTEX
  5
205B9
330
205B2
100
AcDbEntity
  8
LAYER_1
 62
     4
370
     0
100
AcDbVertex
100
AcDb2dVertex
 10
246.6195758380425
 20
71.06682966317013
 30
0.0
  0
VERTEX
  5
205BA
330
205B2
100
AcDbEntity
  8
LAYER_1
 62
     4
370
     0
100
AcDbVertex
100
AcDb2dVertex
 10
246.2257642852812
 20
70.67301811040884
 30
0.0
  0
VERTEX
  5
205BB
330
205B2
100
AcDbEntity
  8
LAYER_1
 62
     4
370
     0
100
AcDbVertex
100
AcDb2dVertex
 10
245.8319527325199
 20
70.67301811040884
 30
0.0
  0
SEQEND
  5
205BC
330
205B2
100
AcDbEntity
  8
LAYER_1
 62
     4
370
     0
  0
POLYLINE
  5
205BD
330
202F2
100
AcDbEntity
  8
LAYER_1
 62
     4
370
     0
100
AcDb2dPolyline
 66
     1
 10
0.0
 20
0.0
 30
0.0
  0
VERTEX
  5
205BE
330
205BD
100
AcDbEntity
  8
LAYER_1
 62
     4
370
     0
100
AcDbVertex
100
AcDb2dVertex
 10
247.3900767021406
 20
70.67301811040884
 30
0.0
  0
VERTEX
  5
205BF
330
205BD
100
AcDbEntity
  8
LAYER_1
 62
     4
370
     0
100
AcDbVertex
100
AcDb2dVertex
 10
247.3900767021406
 20
71.06682966317013
 30
0.0
  0
SEQEND
  5
205C0
330
205BD
100
AcDbEntity
  8
LAYER_1
 62
     4
370
     0
  0
POLYLINE
  5
205C1
330
202F2
100
AcDbEntity
  8
LAYER_1
 62
     4
370
     0
100
AcDb2dPolyline
 66
     1
 10
0.0
 20
0.0
 30
0.0
  0
VERTEX
  5
205C2
330
205C1
100
AcDbEntity
  8
LAYER_1
 62
     4
370
     0
100
AcDbVertex
100
AcDb2dVertex
 10
248.1605775662388
 20
71.06682966317013
 30
0.0
  0
VERTEX
  5
205C3
330
205C1
100
AcDbEntity
  8
LAYER_1
 62
     4
370
     0
100
AcDbVertex
100
AcDb2dVertex
 10
248.554389119
 20
70.67301811040884
 30
0.0
  0
VERTEX
  5
205C4
330
205C1
100
AcDbEntity
  8
LAYER_1
 62
     4
370
     0
100
AcDbVertex
100
AcDb2dVertex
 10
249.3248899830982
 20
70.67301811040884
 30
0.0
  0
VERTEX
  5
205C5
330
205C1
100
AcDbEntity
  8
LAYER_1
 62
     4
370
     0
100
AcDbVertex
100
AcDb2dVertex
 10
249.7187015358595
 20
71.06682966317013
 30
0.0
  0
VERTEX
  5
205C6
330
205C1
100
AcDbEntity
  8
LAYER_1
 62
     4
370
     0
100
AcDbVertex
100
AcDb2dVertex
 10
249.7187015358595
 20
71.83733052726828
 30
0.0
  0
VERTEX
  5
205C7
330
205C1
100
AcDbEntity
  8
LAYER_1
 62
     4
370
     0
100
AcDbVertex
100
AcDb2dVertex
 10
249.3248899830982
 20
72.23114208002954
 30
0.0
  0
VERTEX
  5
205C8
330
205C1
100
AcDbEntity
  8
LAYER_1
 62
     4
370
     0
100
AcDbVertex
100
AcDb2dVertex
 10
248.1605775662388
 20
72.23114208002954
 30
0.0
  0
VERTEX
  5
205C9
330
205C1
100
AcDbEntity
  8
LAYER_1
 62
     4
370
     0
100
AcDbVertex
100
AcDb2dVertex
 10
248.1605775662388
 20
73.0016429441277
 30
0.0
  0
VERTEX
  5
205CA
330
205C1
100
AcDbEntity
  8
LAYER_1
 62
     4
370
     0
100
AcDbVertex
100
AcDb2dVertex
 10
249.7187015358595
 20
73.0016429441277
 30
0.0
  0
SEQEND
  5
205CB
330
205C1
100
AcDbEntity
  8
LAYER_1
 62
     4
370
     0
  0
POLYLINE
  5
205CC
330
202F2
100
AcDbEntity
  8
LAYER_1
 62
     4
370
     0
100
AcDb2dPolyline
 66
     1
 10
0.0
 20
0.0
 30
0.0
  0
VERTEX
  5
205CD
330
205CC
100
AcDbEntity
  8
LAYER_1
 62
     4
370
     0
100
AcDbVertex
100
AcDb2dVertex
 10
250.4892023999576
 20
70.67301811040884
 30
0.0
  0
VERTEX
  5
205CE
330
205CC
100
AcDbEntity
  8
LAYER_1
 62
     4
370
     0
100
AcDbVertex
100
AcDb2dVertex
 10
250.4892023999576
 20
72.23114208002954
 30
0.0
  0
SEQEND
  5
205CF
330
205CC
100
AcDbEntity
  8
LAYER_1
 62
     4
370
     0
  0
POLYLINE
  5
205D0
330
202F2
100
AcDbEntity
  8
LAYER_1
 62
     4
370
     0
100
AcDb2dPolyline
 66
     1
 10
0.0
 20
0.0
 30
0.0
  0
VERTEX
  5
205D1
330
205D0
100
AcDbEntity
  8
LAYER_1
 62
     4
370
     0
100
AcDbVertex
100
AcDb2dVertex
 10
250.4892023999576
 20
71.83733052726828
 30
0.0
  0
VERTEX
  5
205D2
330
205D0
100
AcDbEntity
  8
LAYER_1
 62
     4
370
     0
100
AcDbVertex
100
AcDb2dVertex
 10
250.8830139527189
 20
72.23114208002954
 30
0.0
  0
VERTEX
  5
205D3
330
205D0
100
AcDbEntity
  8
LAYER_1
 62
     4
370
     0
100
AcDbVertex
100
AcDb2dVertex
 10
251.2597032640558
 20
71.83733052726828
 30
0.0
  0
VERTEX
  5
205D4
330
205D0
100
AcDbEntity
  8
LAYER_1
 62
     4
370
     0
100
AcDbVertex
100
AcDb2dVertex
 10
251.2597032640558
 20
71.4606412159314
 30
0.0
  0
SEQEND
  5
205D5
330
205D0
100
AcDbEntity
  8
LAYER_1
 62
     4
370
     0
  0
POLYLINE
  5
205D6
330
202F2
100
AcDbEntity
  8
LAYER_1
 62
     4
370
     0
100
AcDb2dPolyline
 66
     1
 10
0.0
 20
0.0
 30
0.0
  0
VERTEX
  5
205D7
330
205D6
100
AcDbEntity
  8
LAYER_1
 62
     4
370
     0
100
AcDbVertex
100
AcDb2dVertex
 10
251.2597032640558
 20
71.83733052726828
 30
0.0
  0
VERTEX
  5
205D8
330
205D6
100
AcDbEntity
  8
LAYER_1
 62
     4
370
     0
100
AcDbVertex
100
AcDb2dVertex
 10
251.653514816817
 20
72.23114208002954
 30
0.0
  0
VERTEX
  5
205D9
330
205D6
100
AcDbEntity
  8
LAYER_1
 62
     4
370
     0
100
AcDbVertex
100
AcDb2dVertex
 10
252.0473263695783
 20
71.83733052726828
 30
0.0
  0
VERTEX
  5
205DA
330
205D6
100
AcDbEntity
  8
LAYER_1
 62
     4
370
     0
100
AcDbVertex
100
AcDb2dVertex
 10
252.0473263695783
 20
70.67301811040884
 30
0.0
  0
SEQEND
  5
205DB
330
205D6
100
AcDbEntity
  8
LAYER_1
 62
     4
370
     0
  0
POLYLINE
  5
205DC
330
202F2
100
AcDbEntity
  8
LAYER_1
 62
     4
370
     0
100
AcDb2dPolyline
 66
     1
 10
0.0
 20
0.0
 30
0.0
  0
VERTEX
  5
205DD
330
205DC
100
AcDbEntity
  8
LAYER_1
 62
     4
370
     0
100
AcDbVertex
100
AcDb2dVertex
 10
252.8178272336764
 20
70.67301811040884
 30
0.0
  0
VERTEX
  5
205DE
330
205DC
100
AcDbEntity
  8
LAYER_1
 62
     4
370
     0
100
AcDbVertex
100
AcDb2dVertex
 10
252.8178272336764
 20
72.23114208002954
 30
0.0
  0
SEQEND
  5
205DF
330
205DC
100
AcDbEntity
  8
LAYER_1
 62
     4
370
     0
  0
POLYLINE
  5
205E0
330
202F2
100
AcDbEntity
  8
LAYER_1
 62
     4
370
     0
100
AcDb2dPolyline
 66
     1
 10
0.0
 20
0.0
 30
0.0
  0
VERTEX
  5
205E1
330
205E0
100
AcDbEntity
  8
LAYER_1
 62
     4
370
     0
100
AcDbVertex
100
AcDb2dVertex
 10
252.8178272336764
 20
71.83733052726828
 30
0.0
  0
VERTEX
  5
205E2
330
205E0
100
AcDbEntity
  8
LAYER_1
 62
     4
370
     0
100
AcDbVertex
100
AcDb2dVertex
 10
253.2116387864377
 20
72.23114208002954
 30
0.0
  0
VERTEX
  5
205E3
330
205E0
100
AcDbEntity
  8
LAYER_1
 62
     4
370
     0
100
AcDbVertex
100
AcDb2dVertex
 10
253.5883280977746
 20
71.83733052726828
 30
0.0
  0
VERTEX
  5
205E4
330
205E0
100
AcDbEntity
  8
LAYER_1
 62
     4
370
     0
100
AcDbVertex
100
AcDb2dVertex
 10
253.5883280977746
 20
71.4606412159314
 30
0.0
  0
SEQEND
  5
205E5
330
205E0
100
AcDbEntity
  8
LAYER_1
 62
     4
370
     0
  0
POLYLINE
  5
205E6
330
202F2
100
AcDbEntity
  8
LAYER_1
 62
     4
370
     0
100
AcDb2dPolyline
 66
     1
 10
0.0
 20
0.0
 30
0.0
  0
VERTEX
  5
205E7
330
205E6
100
AcDbEntity
  8
LAYER_1
 62
     4
370
     0
100
AcDbVertex
100
AcDb2dVertex
 10
253.5883280977746
 20
71.83733052726828
 30
0.0
  0
VERTEX
  5
205E8
330
205E6
100
AcDbEntity
  8
LAYER_1
 62
     4
370
     0
100
AcDbVertex
100
AcDb2dVertex
 10
253.9821396505359
 20
72.23114208002954
 30
0.0
  0
VERTEX
  5
205E9
330
205E6
100
AcDbEntity
  8
LAYER_1
 62
     4
370
     0
100
AcDbVertex
100
AcDb2dVertex
 10
254.3759512032972
 20
71.83733052726828
 30
0.0
  0
VERTEX
  5
205EA
330
205E6
100
AcDbEntity
  8
LAYER_1
 62
     4
370
     0
100
AcDbVertex
100
AcDb2dVertex
 10
254.3759512032972
 20
70.67301811040884
 30
0.0
  0
SEQEND
  5
205EB
330
205E6
100
AcDbEntity
  8
LAYER_1
 62
     4
370
     0
  0
POLYLINE
  5
205EC
330
202F2
100
AcDbEntity
  8
LAYER_1
 62
     4
370
     0
100
AcDb2dPolyline
 66
     1
 10
0.0
 20
0.0
 30
0.0
  0
VERTEX
  5
205ED
330
205EC
100
AcDbEntity
  8
LAYER_1
 62
     4
370
     0
100
AcDbVertex
100
AcDb2dVertex
 10
257.4750769011142
 20
70.29632879907197
 30
0.0
  0
VERTEX
  5
205EE
330
205EC
100
AcDbEntity
  8
LAYER_1
 62
     4
370
     0
100
AcDbVertex
100
AcDb2dVertex
 10
257.8688884538755
 20
69.90251724631069
 30
0.0
  0
VERTEX
  5
205EF
330
205EC
100
AcDbEntity
  8
LAYER_1
 62
     4
370
     0
100
AcDbVertex
100
AcDb2dVertex
 10
258.6393893179736
 20
69.90251724631069
 30
0.0
  0
VERTEX
  5
205F0
330
205EC
100
AcDbEntity
  8
LAYER_1
 62
     4
370
     0
100
AcDbVertex
100
AcDb2dVertex
 10
259.0332008707349
 20
70.29632879907197
 30
0.0
  0
VERTEX
  5
205F1
330
205EC
100
AcDbEntity
  8
LAYER_1
 62
     4
370
     0
100
AcDbVertex
100
AcDb2dVertex
 10
259.0332008707349
 20
71.83733052726828
 30
0.0
  0
VERTEX
  5
205F2
330
205EC
100
AcDbEntity
  8
LAYER_1
 62
     4
370
     0
100
AcDbVertex
100
AcDb2dVertex
 10
258.6393893179736
 20
72.23114208002954
 30
0.0
  0
VERTEX
  5
205F3
330
205EC
100
AcDbEntity
  8
LAYER_1
 62
     4
370
     0
100
AcDbVertex
100
AcDb2dVertex
 10
257.8688884538755
 20
72.23114208002954
 30
0.0
  0
VERTEX
  5
205F4
330
205EC
100
AcDbEntity
  8
LAYER_1
 62
     4
370
     0
100
AcDbVertex
100
AcDb2dVertex
 10
257.4750769011142
 20
71.83733052726828
 30
0.0
  0
VERTEX
  5
205F5
330
205EC
100
AcDbEntity
  8
LAYER_1
 62
     4
370
     0
100
AcDbVertex
100
AcDb2dVertex
 10
257.4750769011142
 20
71.06682966317013
 30
0.0
  0
VERTEX
  5
205F6
330
205EC
100
AcDbEntity
  8
LAYER_1
 62
     4
370
     0
100
AcDbVertex
100
AcDb2dVertex
 10
257.8688884538755
 20
70.67301811040884
 30
0.0
  0
VERTEX
  5
205F7
330
205EC
100
AcDbEntity
  8
LAYER_1
 62
     4
370
     0
100
AcDbVertex
100
AcDb2dVertex
 10
259.0332008707349
 20
70.67301811040884
 30
0.0
  0
SEQEND
  5
205F8
330
205EC
100
AcDbEntity
  8
LAYER_1
 62
     4
370
     0
  0
POLYLINE
  5
205F9
330
202F2
100
AcDbEntity
  8
LAYER_1
 62
     4
370
     0
100
AcDb2dPolyline
 66
     1
 10
0.0
 20
0.0
 30
0.0
  0
VERTEX
  5
205FA
330
205F9
100
AcDbEntity
  8
LAYER_1
 62
     4
370
     0
100
AcDbVertex
100
AcDb2dVertex
 10
259.803701734833
 20
70.67301811040884
 30
0.0
  0
VERTEX
  5
205FB
330
205F9
100
AcDbEntity
  8
LAYER_1
 62
     4
370
     0
100
AcDbVertex
100
AcDb2dVertex
 10
259.803701734833
 20
72.23114208002954
 30
0.0
  0
SEQEND
  5
205FC
330
205F9
100
AcDbEntity
  8
LAYER_1
 62
     4
370
     0
  0
POLYLINE
  5
205FD
330
202F2
100
AcDbEntity
  8
LAYER_1
 62
     4
370
     0
100
AcDb2dPolyline
 66
     1
 10
0.0
 20
0.0
 30
0.0
  0
VERTEX
  5
205FE
330
205FD
100
AcDbEntity
  8
LAYER_1
 62
     4
370
     0
100
AcDbVertex
100
AcDb2dVertex
 10
259.803701734833
 20
71.4606412159314
 30
0.0
  0
VERTEX
  5
205FF
330
205FD
100
AcDbEntity
  8
LAYER_1
 62
     4
370
     0
100
AcDbVertex
100
AcDb2dVertex
 10
260.5742025989311
 20
72.23114208002954
 30
0.0
  0
VERTEX
  5
20600
330
205FD
100
AcDbEntity
  8
LAYER_1
 62
     4
370
     0
100
AcDbVertex
100
AcDb2dVertex
 10
260.9680141516924
 20
72.23114208002954
 30
0.0
  0
VERTEX
  5
20601
330
205FD
100
AcDbEntity
  8
LAYER_1
 62
     4
370
     0
100
AcDbVertex
100
AcDb2dVertex
 10
261.3618257044537
 20
71.83733052726828
 30
0.0
  0
SEQEND
  5
20602
330
205FD
100
AcDbEntity
  8
LAYER_1
 62
     4
370
     0
  0
POLYLINE
  5
20603
330
202F2
100
AcDbEntity
  8
LAYER_1
 62
     4
370
     0
100
AcDb2dPolyline
 66
     1
 10
0.0
 20
0.0
 30
0.0
  0
VERTEX
  5
20604
330
20603
100
AcDbEntity
  8
LAYER_1
 62
     4
370
     0
100
AcDbVertex
100
AcDb2dVertex
 10
263.2966389854113
 20
70.67301811040884
 30
0.0
  0
VERTEX
  5
20605
330
20603
100
AcDbEntity
  8
LAYER_1
 62
     4
370
     0
100
AcDbVertex
100
AcDb2dVertex
 10
262.5261381213131
 20
70.67301811040884
 30
0.0
  0
VERTEX
  5
20606
330
20603
100
AcDbEntity
  8
LAYER_1
 62
     4
370
     0
100
AcDbVertex
100
AcDb2dVertex
 10
262.1323265685518
 20
71.06682966317013
 30
0.0
  0
VERTEX
  5
20607
330
20603
100
AcDbEntity
  8
LAYER_1
 62
     4
370
     0
100
AcDbVertex
100
AcDb2dVertex
 10
262.1323265685518
 20
71.83733052726828
 30
0.0
  0
SEQEND
  5
20608
330
20603
100
AcDbEntity
  8
LAYER_1
 62
     4
370
     0
  0
POLYLINE
  5
20609
330
202F2
100
AcDbEntity
  8
LAYER_1
 62
     4
370
     0
100
AcDb2dPolyline
 66
     1
 10
0.0
 20
0.0
 30
0.0
  0
VERTEX
  5
2060A
330
20609
100
AcDbEntity
  8
LAYER_1
 62
     4
370
     0
100
AcDbVertex
100
AcDb2dVertex
 10
262.1323265685518
 20
73.0016429441277
 30
0.0
  0
VERTEX
  5
2060B
330
20609
100
AcDbEntity
  8
LAYER_1
 62
     4
370
     0
100
AcDbVertex
100
AcDb2dVertex
 10
262.1323265685518
 20
72.62495363279082
 30
0.0
  0
SEQEND
  5
2060C
330
20609
100
AcDbEntity
  8
LAYER_1
 62
     4
370
     0
  0
POLYLINE
  5
2060D
330
202F2
100
AcDbEntity
  8
LAYER_1
 62
     4
370
     0
100
AcDb2dPolyline
 66
     1
 10
0.0
 20
0.0
 30
0.0
  0
VERTEX
  5
2060E
330
2060D
100
AcDbEntity
  8
LAYER_1
 62
     4
370
     0
100
AcDbVertex
100
AcDb2dVertex
 10
263.6733282967481
 20
72.62495363279082
 30
0.0
  0
VERTEX
  5
2060F
330
2060D
100
AcDbEntity
  8
LAYER_1
 62
     4
370
     0
100
AcDbVertex
100
AcDb2dVertex
 10
263.6733282967481
 20
73.0016429441277
 30
0.0
  0
SEQEND
  5
20610
330
2060D
100
AcDbEntity
  8
LAYER_1
 62
     4
370
     0
  0
POLYLINE
  5
20611
330
202F2
100
AcDbEntity
  8
LAYER_1
 62
     4
370
     0
100
AcDb2dPolyline
 66
     1
 10
0.0
 20
0.0
 30
0.0
  0
VERTEX
  5
20612
330
20611
100
AcDbEntity
  8
LAYER_1
 62
     4
370
     0
100
AcDbVertex
100
AcDb2dVertex
 10
262.1323265685518
 20
71.83733052726828
 30
0.0
  0
VERTEX
  5
20613
330
20611
100
AcDbEntity
  8
LAYER_1
 62
     4
370
     0
100
AcDbVertex
100
AcDb2dVertex
 10
262.5261381213131
 20
72.23114208002954
 30
0.0
  0
VERTEX
  5
20614
330
20611
100
AcDbEntity
  8
LAYER_1
 62
     4
370
     0
100
AcDbVertex
100
AcDb2dVertex
 10
263.2966389854113
 20
72.23114208002954
 30
0.0
  0
VERTEX
  5
20615
330
20611
100
AcDbEntity
  8
LAYER_1
 62
     4
370
     0
100
AcDbVertex
100
AcDb2dVertex
 10
263.6733282967481
 20
71.83733052726828
 30
0.0
  0
VERTEX
  5
20616
330
20611
100
AcDbEntity
  8
LAYER_1
 62
     4
370
     0
100
AcDbVertex
100
AcDb2dVertex
 10
263.6733282967481
 20
71.06682966317013
 30
0.0
  0
VERTEX
  5
20617
330
20611
100
AcDbEntity
  8
LAYER_1
 62
     4
370
     0
100
AcDbVertex
100
AcDb2dVertex
 10
263.2966389854113
 20
70.67301811040884
 30
0.0
  0
SEQEND
  5
20618
330
20611
100
AcDbEntity
  8
LAYER_1
 62
     4
370
     0
  0
POLYLINE
  5
20619
330
202F2
100
AcDbEntity
  8
LAYER_1
 62
     4
370
     0
100
AcDb2dPolyline
 66
     1
 10
0.0
 20
0.0
 30
0.0
  0
VERTEX
  5
2061A
330
20619
100
AcDbEntity
  8
LAYER_1
 62
     4
370
     0
100
AcDbVertex
100
AcDb2dVertex
 10
264.4609514022707
 20
70.67301811040884
 30
0.0
  0
VERTEX
  5
2061B
330
20619
100
AcDbEntity
  8
LAYER_1
 62
     4
370
     0
100
AcDbVertex
100
AcDb2dVertex
 10
264.8376407136076
 20
71.06682966317013
 30
0.0
  0
VERTEX
  5
2061C
330
20619
100
AcDbEntity
  8
LAYER_1
 62
     4
370
     0
100
AcDbVertex
100
AcDb2dVertex
 10
264.8376407136076
 20
72.62495363279082
 30
0.0
  0
VERTEX
  5
2061D
330
20619
100
AcDbEntity
  8
LAYER_1
 62
     4
370
     0
100
AcDbVertex
100
AcDb2dVertex
 10
265.2314522663689
 20
73.0016429441277
 30
0.0
  0
VERTEX
  5
2061E
330
20619
100
AcDbEntity
  8
LAYER_1
 62
     4
370
     0
100
AcDbVertex
100
AcDb2dVertex
 10
265.6252638191301
 20
73.0016429441277
 30
0.0
  0
VERTEX
  5
2061F
330
20619
100
AcDbEntity
  8
LAYER_1
 62
     4
370
     0
100
AcDbVertex
100
AcDb2dVertex
 10
266.001953130467
 20
72.62495363279082
 30
0.0
  0
VERTEX
  5
20620
330
20619
100
AcDbEntity
  8
LAYER_1
 62
     4
370
     0
100
AcDbVertex
100
AcDb2dVertex
 10
266.001953130467
 20
72.23114208002954
 30
0.0
  0
VERTEX
  5
20621
330
20619
100
AcDbEntity
  8
LAYER_1
 62
     4
370
     0
100
AcDbVertex
100
AcDb2dVertex
 10
265.6252638191301
 20
71.83733052726828
 30
0.0
  0
VERTEX
  5
20622
330
20619
100
AcDbEntity
  8
LAYER_1
 62
     4
370
     0
100
AcDbVertex
100
AcDb2dVertex
 10
266.001953130467
 20
71.4606412159314
 30
0.0
  0
VERTEX
  5
20623
330
20619
100
AcDbEntity
  8
LAYER_1
 62
     4
370
     0
100
AcDbVertex
100
AcDb2dVertex
 10
266.001953130467
 20
71.06682966317013
 30
0.0
  0
VERTEX
  5
20624
330
20619
100
AcDbEntity
  8
LAYER_1
 62
     4
370
     0
100
AcDbVertex
100
AcDb2dVertex
 10
265.6252638191301
 20
70.67301811040884
 30
0.0
  0
VERTEX
  5
20625
330
20619
100
AcDbEntity
  8
LAYER_1
 62
     4
370
     0
100
AcDbVertex
100
AcDb2dVertex
 10
265.2314522663689
 20
70.67301811040884
 30
0.0
  0
SEQEND
  5
20626
330
20619
100
AcDbEntity
  8
LAYER_1
 62
     4
370
     0
  0
POLYLINE
  5
20627
330
202F2
100
AcDbEntity
  8
LAYER_1
 62
     4
370
     0
100
AcDb2dPolyline
 66
     1
 10
0.0
 20
0.0
 30
0.0
  0
VERTEX
  5
20628
330
20627
100
AcDbEntity
  8
LAYER_1
 62
     4
370
     0
100
AcDbVertex
100
AcDb2dVertex
 10
266.7895762359896
 20
71.4606412159314
 30
0.0
  0
VERTEX
  5
20629
330
20627
100
AcDbEntity
  8
LAYER_1
 62
     4
370
     0
100
AcDbVertex
100
AcDb2dVertex
 10
267.953888652849
 20
71.4606412159314
 30
0.0
  0
VERTEX
  5
2062A
330
20627
100
AcDbEntity
  8
LAYER_1
 62
     4
370
     0
100
AcDbVertex
100
AcDb2dVertex
 10
268.3305779641859
 20
71.83733052726828
 30
0.0
  0
VERTEX
  5
2062B
330
20627
100
AcDbEntity
  8
LAYER_1
 62
     4
370
     0
100
AcDbVertex
100
AcDb2dVertex
 10
267.953888652849
 20
72.23114208002954
 30
0.0
  0
VERTEX
  5
2062C
330
20627
100
AcDbEntity
  8
LAYER_1
 62
     4
370
     0
100
AcDbVertex
100
AcDb2dVertex
 10
267.1662655473264
 20
72.23114208002954
 30
0.0
  0
VERTEX
  5
2062D
330
20627
100
AcDbEntity
  8
LAYER_1
 62
     4
370
     0
100
AcDbVertex
100
AcDb2dVertex
 10
266.7895762359896
 20
71.83733052726828
 30
0.0
  0
VERTEX
  5
2062E
330
20627
100
AcDbEntity
  8
LAYER_1
 62
     4
370
     0
100
AcDbVertex
100
AcDb2dVertex
 10
266.7895762359896
 20
71.06682966317013
 30
0.0
  0
VERTEX
  5
2062F
330
20627
100
AcDbEntity
  8
LAYER_1
 62
     4
370
     0
100
AcDbVertex
100
AcDb2dVertex
 10
267.1662655473264
 20
70.67301811040884
 30
0.0
  0
VERTEX
  5
20630
330
20627
100
AcDbEntity
  8
LAYER_1
 62
     4
370
     0
100
AcDbVertex
100
AcDb2dVertex
 10
267.953888652849
 20
70.67301811040884
 30
0.0
  0
SEQEND
  5
20631
330
20627
100
AcDbEntity
  8
LAYER_1
 62
     4
370
     0
  0
POLYLINE
  5
20632
330
202F2
100
AcDbEntity
  8
LAYER_1
 62
     4
370
     0
100
AcDb2dPolyline
 66
     1
 10
0.0
 20
0.0
 30
0.0
  0
VERTEX
  5
20633
330
20632
100
AcDbEntity
  8
LAYER_1
 62
     4
370
     0
100
AcDbVertex
100
AcDb2dVertex
 10
269.1182010697084
 20
70.67301811040884
 30
0.0
  0
VERTEX
  5
20634
330
20632
100
AcDbEntity
  8
LAYER_1
 62
     4
370
     0
100
AcDbVertex
100
AcDb2dVertex
 10
269.1182010697084
 20
72.23114208002954
 30
0.0
  0
SEQEND
  5
20635
330
20632
100
AcDbEntity
  8
LAYER_1
 62
     4
370
     0
  0
POLYLINE
  5
20636
330
202F2
100
AcDbEntity
  8
LAYER_1
 62
     4
370
     0
100
AcDb2dPolyline
 66
     1
 10
0.0
 20
0.0
 30
0.0
  0
VERTEX
  5
20637
330
20636
100
AcDbEntity
  8
LAYER_1
 62
     4
370
     0
100
AcDbVertex
100
AcDb2dVertex
 10
269.1182010697084
 20
71.4606412159314
 30
0.0
  0
VERTEX
  5
20638
330
20636
100
AcDbEntity
  8
LAYER_1
 62
     4
370
     0
100
AcDbVertex
100
AcDb2dVertex
 10
269.8887019338065
 20
72.23114208002954
 30
0.0
  0
VERTEX
  5
20639
330
20636
100
AcDbEntity
  8
LAYER_1
 62
     4
370
     0
100
AcDbVertex
100
AcDb2dVertex
 10
270.2825134865678
 20
72.23114208002954
 30
0.0
  0
VERTEX
  5
2063A
330
20636
100
AcDbEntity
  8
LAYER_1
 62
     4
370
     0
100
AcDbVertex
100
AcDb2dVertex
 10
270.6592027979047
 20
71.83733052726828
 30
0.0
  0
SEQEND
  5
2063B
330
20636
100
AcDbEntity
  8
LAYER_1
 62
     4
370
     0
  0
POLYLINE
  5
2063C
330
202F2
100
AcDbEntity
  8
LAYER_1
 62
     4
370
     0
100
AcDb2dPolyline
 66
     1
 10
0.0
 20
0.0
 30
0.0
  0
VERTEX
  5
2063D
330
2063C
100
AcDbEntity
  8
LAYER_1
 62
     4
370
     0
100
AcDbVertex
100
AcDb2dVertex
 10
271.4468259034273
 20
71.4606412159314
 30
0.0
  0
VERTEX
  5
2063E
330
2063C
100
AcDbEntity
  8
LAYER_1
 62
     4
370
     0
100
AcDbVertex
100
AcDb2dVertex
 10
272.6111383202867
 20
71.4606412159314
 30
0.0
  0
VERTEX
  5
2063F
330
2063C
100
AcDbEntity
  8
LAYER_1
 62
     4
370
     0
100
AcDbVertex
100
AcDb2dVertex
 10
272.9878276316236
 20
71.83733052726828
 30
0.0
  0
VERTEX
  5
20640
330
2063C
100
AcDbEntity
  8
LAYER_1
 62
     4
370
     0
100
AcDbVertex
100
AcDb2dVertex
 10
272.6111383202867
 20
72.23114208002954
 30
0.0
  0
VERTEX
  5
20641
330
2063C
100
AcDbEntity
  8
LAYER_1
 62
     4
370
     0
100
AcDbVertex
100
AcDb2dVertex
 10
271.8235152147641
 20
72.23114208002954
 30
0.0
  0
VERTEX
  5
20642
330
2063C
100
AcDbEntity
  8
LAYER_1
 62
     4
370
     0
100
AcDbVertex
100
AcDb2dVertex
 10
271.4468259034273
 20
71.83733052726828
 30
0.0
  0
VERTEX
  5
20643
330
2063C
100
AcDbEntity
  8
LAYER_1
 62
     4
370
     0
100
AcDbVertex
100
AcDb2dVertex
 10
271.4468259034273
 20
71.06682966317013
 30
0.0
  0
VERTEX
  5
20644
330
2063C
100
AcDbEntity
  8
LAYER_1
 62
     4
370
     0
100
AcDbVertex
100
AcDb2dVertex
 10
271.8235152147641
 20
70.67301811040884
 30
0.0
  0
VERTEX
  5
20645
330
2063C
100
AcDbEntity
  8
LAYER_1
 62
     4
370
     0
100
AcDbVertex
100
AcDb2dVertex
 10
272.6111383202867
 20
70.67301811040884
 30
0.0
  0
SEQEND
  5
20646
330
2063C
100
AcDbEntity
  8
LAYER_1
 62
     4
370
     0
  0
POLYLINE
  5
20647
330
202F2
100
AcDbEntity
  8
LAYER_1
 62
     4
370
     0
100
AcDb2dPolyline
 66
     1
 10
0.0
 20
0.0
 30
0.0
  0
VERTEX
  5
20648
330
20647
100
AcDbEntity
  8
LAYER_1
 62
     4
370
     0
100
AcDbVertex
100
AcDb2dVertex
 10
273.7754507371461
 20
70.67301811040884
 30
0.0
  0
VERTEX
  5
20649
330
20647
100
AcDbEntity
  8
LAYER_1
 62
     4
370
     0
100
AcDbVertex
100
AcDb2dVertex
 10
273.7754507371461
 20
72.23114208002954
 30
0.0
  0
SEQEND
  5
2064A
330
20647
100
AcDbEntity
  8
LAYER_1
 62
     4
370
     0
  0
POLYLINE
  5
2064B
330
202F2
100
AcDbEntity
  8
LAYER_1
 62
     4
370
     0
100
AcDb2dPolyline
 66
     1
 10
0.0
 20
0.0
 30
0.0
  0
VERTEX
  5
2064C
330
2064B
100
AcDbEntity
  8
LAYER_1
 62
     4
370
     0
100
AcDbVertex
100
AcDb2dVertex
 10
273.7754507371461
 20
71.4606412159314
 30
0.0
  0
VERTEX
  5
2064D
330
2064B
100
AcDbEntity
  8
LAYER_1
 62
     4
370
     0
100
AcDbVertex
100
AcDb2dVertex
 10
274.5459516012443
 20
72.23114208002954
 30
0.0
  0
VERTEX
  5
2064E
330
2064B
100
AcDbEntity
  8
LAYER_1
 62
     4
370
     0
100
AcDbVertex
100
AcDb2dVertex
 10
274.9397631540055
 20
72.23114208002954
 30
0.0
  0
VERTEX
  5
2064F
330
2064B
100
AcDbEntity
  8
LAYER_1
 62
     4
370
     0
100
AcDbVertex
100
AcDb2dVertex
 10
275.3164524653424
 20
71.83733052726828
 30
0.0
  0
SEQEND
  5
20650
330
2064B
100
AcDbEntity
  8
LAYER_1
 62
     4
370
     0
  0
POLYLINE
  5
20651
330
202F2
100
AcDbEntity
  8
LAYER_1
 62
     4
370
     0
100
AcDb2dPolyline
 66
     1
 10
0.0
 20
0.0
 30
0.0
  0
VERTEX
  5
20652
330
20651
100
AcDbEntity
  8
LAYER_1
 62
     4
370
     0
100
AcDbVertex
100
AcDb2dVertex
 10
278.4155781631594
 20
70.67301811040884
 30
0.0
  0
VERTEX
  5
20653
330
20651
100
AcDbEntity
  8
LAYER_1
 62
     4
370
     0
100
AcDbVertex
100
AcDb2dVertex
 10
278.4155781631594
 20
71.4606412159314
 30
0.0
  0
VERTEX
  5
20654
330
20651
100
AcDbEntity
  8
LAYER_1
 62
     4
370
     0
100
AcDbVertex
100
AcDb2dVertex
 10
279.203201268682
 20
73.0016429441277
 30
0.0
  0
VERTEX
  5
20655
330
20651
100
AcDbEntity
  8
LAYER_1
 62
     4
370
     0
100
AcDbVertex
100
AcDb2dVertex
 10
279.9737021327801
 20
71.4606412159314
 30
0.0
  0
VERTEX
  5
20656
330
20651
100
AcDbEntity
  8
LAYER_1
 62
     4
370
     0
100
AcDbVertex
100
AcDb2dVertex
 10
279.9737021327801
 20
70.67301811040884
 30
0.0
  0
SEQEND
  5
20657
330
20651
100
AcDbEntity
  8
LAYER_1
 62
     4
370
     0
  0
POLYLINE
  5
20658
330
202F2
100
AcDbEntity
  8
LAYER_1
 62
     4
370
     0
100
AcDb2dPolyline
 66
     1
 10
0.0
 20
0.0
 30
0.0
  0
VERTEX
  5
20659
330
20658
100
AcDbEntity
  8
LAYER_1
 62
     4
370
     0
100
AcDbVertex
100
AcDb2dVertex
 10
278.4155781631594
 20
71.4606412159314
 30
0.0
  0
VERTEX
  5
2065A
330
20658
100
AcDbEntity
  8
LAYER_1
 62
     4
370
     0
100
AcDbVertex
100
AcDb2dVertex
 10
279.9737021327801
 20
71.4606412159314
 30
0.0
  0
SEQEND
  5
2065B
330
20658
100
AcDbEntity
  8
LAYER_1
 62
     4
370
     0
  0
POLYLINE
  5
2065C
330
202F2
100
AcDbEntity
  8
LAYER_1
 62
     4
370
     0
100
AcDb2dPolyline
 66
     1
 10
0.0
 20
0.0
 30
0.0
  0
VERTEX
  5
2065D
330
2065C
100
AcDbEntity
  8
LAYER_1
 62
     4
370
     0
100
AcDbVertex
100
AcDb2dVertex
 10
280.7442029968783
 20
72.23114208002954
 30
0.0
  0
VERTEX
  5
2065E
330
2065C
100
AcDbEntity
  8
LAYER_1
 62
     4
370
     0
100
AcDbVertex
100
AcDb2dVertex
 10
280.7442029968783
 20
71.06682966317013
 30
0.0
  0
VERTEX
  5
2065F
330
2065C
100
AcDbEntity
  8
LAYER_1
 62
     4
370
     0
100
AcDbVertex
100
AcDb2dVertex
 10
281.1380145496396
 20
70.67301811040884
 30
0.0
  0
VERTEX
  5
20660
330
2065C
100
AcDbEntity
  8
LAYER_1
 62
     4
370
     0
100
AcDbVertex
100
AcDb2dVertex
 10
281.5318261024008
 20
70.67301811040884
 30
0.0
  0
VERTEX
  5
20661
330
2065C
100
AcDbEntity
  8
LAYER_1
 62
     4
370
     0
100
AcDbVertex
100
AcDb2dVertex
 10
282.302326966499
 20
71.4606412159314
 30
0.0
  0
SEQEND
  5
20662
330
2065C
100
AcDbEntity
  8
LAYER_1
 62
     4
370
     0
  0
POLYLINE
  5
20663
330
202F2
100
AcDbEntity
  8
LAYER_1
 62
     4
370
     0
100
AcDb2dPolyline
 66
     1
 10
0.0
 20
0.0
 30
0.0
  0
VERTEX
  5
20664
330
20663
100
AcDbEntity
  8
LAYER_1
 62
     4
370
     0
100
AcDbVertex
100
AcDb2dVertex
 10
282.302326966499
 20
72.23114208002954
 30
0.0
  0
VERTEX
  5
20665
330
20663
100
AcDbEntity
  8
LAYER_1
 62
     4
370
     0
100
AcDbVertex
100
AcDb2dVertex
 10
282.302326966499
 20
70.67301811040884
 30
0.0
  0
SEQEND
  5
20666
330
20663
100
AcDbEntity
  8
LAYER_1
 62
     4
370
     0
  0
POLYLINE
  5
20667
330
202F2
100
AcDbEntity
  8
LAYER_1
 62
     4
370
     0
100
AcDb2dPolyline
 66
     1
 10
0.0
 20
0.0
 30
0.0
  0
VERTEX
  5
20668
330
20667
100
AcDbEntity
  8
LAYER_1
 62
     4
370
     0
100
AcDbVertex
100
AcDb2dVertex
 10
283.0728278305971
 20
70.67301811040884
 30
0.0
  0
VERTEX
  5
20669
330
20667
100
AcDbEntity
  8
LAYER_1
 62
     4
370
     0
100
AcDbVertex
100
AcDb2dVertex
 10
284.2371402474565
 20
70.67301811040884
 30
0.0
  0
VERTEX
  5
2066A
330
20667
100
AcDbEntity
  8
LAYER_1
 62
     4
370
     0
100
AcDbVertex
100
AcDb2dVertex
 10
284.6309518002178
 20
71.06682966317013
 30
0.0
  0
VERTEX
  5
2066B
330
20667
100
AcDbEntity
  8
LAYER_1
 62
     4
370
     0
100
AcDbVertex
100
AcDb2dVertex
 10
284.2371402474565
 20
71.4606412159314
 30
0.0
  0
VERTEX
  5
2066C
330
20667
100
AcDbEntity
  8
LAYER_1
 62
     4
370
     0
100
AcDbVertex
100
AcDb2dVertex
 10
283.4666393833584
 20
71.4606412159314
 30
0.0
  0
VERTEX
  5
2066D
330
20667
100
AcDbEntity
  8
LAYER_1
 62
     4
370
     0
100
AcDbVertex
100
AcDb2dVertex
 10
283.0728278305971
 20
71.83733052726828
 30
0.0
  0
VERTEX
  5
2066E
330
20667
100
AcDbEntity
  8
LAYER_1
 62
     4
370
     0
100
AcDbVertex
100
AcDb2dVertex
 10
283.4666393833584
 20
72.23114208002954
 30
0.0
  0
VERTEX
  5
2066F
330
20667
100
AcDbEntity
  8
LAYER_1
 62
     4
370
     0
100
AcDbVertex
100
AcDb2dVertex
 10
284.6309518002178
 20
72.23114208002954
 30
0.0
  0
SEQEND
  5
20670
330
20667
100
AcDbEntity
  8
LAYER_1
 62
     4
370
     0
  0
POLYLINE
  5
20671
330
202F2
100
AcDbEntity
  8
LAYER_1
 62
     4
370
     0
100
AcDb2dPolyline
 66
     1
 10
0.0
 20
0.0
 30
0.0
  0
VERTEX
  5
20672
330
20671
100
AcDbEntity
  8
LAYER_1
 62
     4
370
     0
100
AcDbVertex
100
AcDb2dVertex
 10
285.401452664316
 20
70.67301811040884
 30
0.0
  0
VERTEX
  5
20673
330
20671
100
AcDbEntity
  8
LAYER_1
 62
     4
370
     0
100
AcDbVertex
100
AcDb2dVertex
 10
286.5657650811754
 20
70.67301811040884
 30
0.0
  0
VERTEX
  5
20674
330
20671
100
AcDbEntity
  8
LAYER_1
 62
     4
370
     0
100
AcDbVertex
100
AcDb2dVertex
 10
286.9595766339367
 20
71.06682966317013
 30
0.0
  0
VERTEX
  5
20675
330
20671
100
AcDbEntity
  8
LAYER_1
 62
     4
370
     0
100
AcDbVertex
100
AcDb2dVertex
 10
286.5657650811754
 20
71.4606412159314
 30
0.0
  0
VERTEX
  5
20676
330
20671
100
AcDbEntity
  8
LAYER_1
 62
     4
370
     0
100
AcDbVertex
100
AcDb2dVertex
 10
285.7952642170772
 20
71.4606412159314
 30
0.0
  0
VERTEX
  5
20677
330
20671
100
AcDbEntity
  8
LAYER_1
 62
     4
370
     0
100
AcDbVertex
100
AcDb2dVertex
 10
285.401452664316
 20
71.83733052726828
 30
0.0
  0
VERTEX
  5
20678
330
20671
100
AcDbEntity
  8
LAYER_1
 62
     4
370
     0
100
AcDbVertex
100
AcDb2dVertex
 10
285.7952642170772
 20
72.23114208002954
 30
0.0
  0
VERTEX
  5
20679
330
20671
100
AcDbEntity
  8
LAYER_1
 62
     4
370
     0
100
AcDbVertex
100
AcDb2dVertex
 10
286.9595766339367
 20
72.23114208002954
 30
0.0
  0
SEQEND
  5
2067A
330
20671
100
AcDbEntity
  8
LAYER_1
 62
     4
370
     0
  0
POLYLINE
  5
2067B
330
202F2
100
AcDbEntity
  8
LAYER_1
 62
     4
370
     0
100
AcDb2dPolyline
 66
     1
 10
0.0
 20
0.0
 30
0.0
  0
VERTEX
  5
2067C
330
2067B
100
AcDbEntity
  8
LAYER_1
 62
     4
370
     0
100
AcDbVertex
100
AcDb2dVertex
 10
289.2882014676555
 20
72.23114208002954
 30
0.0
  0
VERTEX
  5
2067D
330
2067B
100
AcDbEntity
  8
LAYER_1
 62
     4
370
     0
100
AcDbVertex
100
AcDb2dVertex
 10
288.1238890507961
 20
72.23114208002954
 30
0.0
  0
VERTEX
  5
2067E
330
2067B
100
AcDbEntity
  8
LAYER_1
 62
     4
370
     0
100
AcDbVertex
100
AcDb2dVertex
 10
287.7300774980348
 20
71.83733052726828
 30
0.0
  0
VERTEX
  5
2067F
330
2067B
100
AcDbEntity
  8
LAYER_1
 62
     4
370
     0
100
AcDbVertex
100
AcDb2dVertex
 10
287.7300774980348
 20
71.06682966317013
 30
0.0
  0
VERTEX
  5
20680
330
2067B
100
AcDbEntity
  8
LAYER_1
 62
     4
370
     0
100
AcDbVertex
100
AcDb2dVertex
 10
288.1238890507961
 20
70.67301811040884
 30
0.0
  0
VERTEX
  5
20681
330
2067B
100
AcDbEntity
  8
LAYER_1
 62
     4
370
     0
100
AcDbVertex
100
AcDb2dVertex
 10
289.2882014676555
 20
70.67301811040884
 30
0.0
  0
SEQEND
  5
20682
330
2067B
100
AcDbEntity
  8
LAYER_1
 62
     4
370
     0
  0
POLYLINE
  5
20683
330
202F2
100
AcDbEntity
  8
LAYER_1
 62
     4
370
     0
100
AcDb2dPolyline
 66
     1
 10
0.0
 20
0.0
 30
0.0
  0
VERTEX
  5
20684
330
20683
100
AcDbEntity
  8
LAYER_1
 62
     4
370
     0
100
AcDbVertex
100
AcDb2dVertex
 10
290.0587023317537
 20
70.67301811040884
 30
0.0
  0
VERTEX
  5
20685
330
20683
100
AcDbEntity
  8
LAYER_1
 62
     4
370
     0
100
AcDbVertex
100
AcDb2dVertex
 10
290.0587023317537
 20
73.0016429441277
 30
0.0
  0
SEQEND
  5
20686
330
20683
100
AcDbEntity
  8
LAYER_1
 62
     4
370
     0
  0
POLYLINE
  5
20687
330
202F2
100
AcDbEntity
  8
LAYER_1
 62
     4
370
     0
100
AcDb2dPolyline
 66
     1
 10
0.0
 20
0.0
 30
0.0
  0
VERTEX
  5
20688
330
20687
100
AcDbEntity
  8
LAYER_1
 62
     4
370
     0
100
AcDbVertex
100
AcDb2dVertex
 10
290.0587023317537
 20
71.4606412159314
 30
0.0
  0
VERTEX
  5
20689
330
20687
100
AcDbEntity
  8
LAYER_1
 62
     4
370
     0
100
AcDbVertex
100
AcDb2dVertex
 10
290.8463254372762
 20
72.23114208002954
 30
0.0
  0
VERTEX
  5
2068A
330
20687
100
AcDbEntity
  8
LAYER_1
 62
     4
370
     0
100
AcDbVertex
100
AcDb2dVertex
 10
291.2230147486131
 20
72.23114208002954
 30
0.0
  0
VERTEX
  5
2068B
330
20687
100
AcDbEntity
  8
LAYER_1
 62
     4
370
     0
100
AcDbVertex
100
AcDb2dVertex
 10
291.6168263013744
 20
71.83733052726828
 30
0.0
  0
VERTEX
  5
2068C
330
20687
100
AcDbEntity
  8
LAYER_1
 62
     4
370
     0
100
AcDbVertex
100
AcDb2dVertex
 10
291.6168263013744
 20
70.67301811040884
 30
0.0
  0
SEQEND
  5
2068D
330
20687
100
AcDbEntity
  8
LAYER_1
 62
     4
370
     0
  0
POLYLINE
  5
2068E
330
202F2
100
AcDbEntity
  8
LAYER_1
 62
     4
370
     0
100
AcDb2dPolyline
 66
     1
 10
0.0
 20
0.0
 30
0.0
  0
VERTEX
  5
2068F
330
2068E
100
AcDbEntity
  8
LAYER_1
 62
     4
370
     0
100
AcDbVertex
100
AcDb2dVertex
 10
292.3873271654725
 20
70.67301811040884
 30
0.0
  0
VERTEX
  5
20690
330
2068E
100
AcDbEntity
  8
LAYER_1
 62
     4
370
     0
100
AcDbVertex
100
AcDb2dVertex
 10
292.3873271654725
 20
72.23114208002954
 30
0.0
  0
SEQEND
  5
20691
330
2068E
100
AcDbEntity
  8
LAYER_1
 62
     4
370
     0
  0
POLYLINE
  5
20692
330
202F2
100
AcDbEntity
  8
LAYER_1
 62
     4
370
     0
100
AcDb2dPolyline
 66
     1
 10
0.0
 20
0.0
 30
0.0
  0
VERTEX
  5
20693
330
20692
100
AcDbEntity
  8
LAYER_1
 62
     4
370
     0
100
AcDbVertex
100
AcDb2dVertex
 10
292.3873271654725
 20
71.4606412159314
 30
0.0
  0
VERTEX
  5
20694
330
20692
100
AcDbEntity
  8
LAYER_1
 62
     4
370
     0
100
AcDbVertex
100
AcDb2dVertex
 10
293.174950270995
 20
72.23114208002954
 30
0.0
  0
VERTEX
  5
20695
330
20692
100
AcDbEntity
  8
LAYER_1
 62
     4
370
     0
100
AcDbVertex
100
AcDb2dVertex
 10
293.551639582332
 20
72.23114208002954
 30
0.0
  0
VERTEX
  5
20696
330
20692
100
AcDbEntity
  8
LAYER_1
 62
     4
370
     0
100
AcDbVertex
100
AcDb2dVertex
 10
293.9454511350932
 20
71.83733052726828
 30
0.0
  0
VERTEX
  5
20697
330
20692
100
AcDbEntity
  8
LAYER_1
 62
     4
370
     0
100
AcDbVertex
100
AcDb2dVertex
 10
293.9454511350932
 20
70.67301811040884
 30
0.0
  0
SEQEND
  5
20698
330
20692
100
AcDbEntity
  8
LAYER_1
 62
     4
370
     0
  0
POLYLINE
  5
20699
330
202F2
100
AcDbEntity
  8
LAYER_1
 62
     4
370
     0
100
AcDb2dPolyline
 66
     1
 10
0.0
 20
0.0
 30
0.0
  0
VERTEX
  5
2069A
330
20699
100
AcDbEntity
  8
LAYER_1
 62
     4
370
     0
100
AcDbVertex
100
AcDb2dVertex
 10
294.7159519991913
 20
70.67301811040884
 30
0.0
  0
VERTEX
  5
2069B
330
20699
100
AcDbEntity
  8
LAYER_1
 62
     4
370
     0
100
AcDbVertex
100
AcDb2dVertex
 10
294.7159519991913
 20
72.23114208002954
 30
0.0
  0
SEQEND
  5
2069C
330
20699
100
AcDbEntity
  8
LAYER_1
 62
     4
370
     0
  0
POLYLINE
  5
2069D
330
202F2
100
AcDbEntity
  8
LAYER_1
 62
     4
370
     0
100
AcDb2dPolyline
 66
     1
 10
0.0
 20
0.0
 30
0.0
  0
VERTEX
  5
2069E
330
2069D
100
AcDbEntity
  8
LAYER_1
 62
     4
370
     0
100
AcDbVertex
100
AcDb2dVertex
 10
294.7159519991913
 20
72.62495363279082
 30
0.0
  0
VERTEX
  5
2069F
330
2069D
100
AcDbEntity
  8
LAYER_1
 62
     4
370
     0
100
AcDbVertex
100
AcDb2dVertex
 10
294.7159519991913
 20
73.0016429441277
 30
0.0
  0
SEQEND
  5
206A0
330
2069D
100
AcDbEntity
  8
LAYER_1
 62
     4
370
     0
  0
POLYLINE
  5
206A1
330
202F2
100
AcDbEntity
  8
LAYER_1
 62
     4
370
     0
100
AcDb2dPolyline
 66
     1
 10
0.0
 20
0.0
 30
0.0
  0
VERTEX
  5
206A2
330
206A1
100
AcDbEntity
  8
LAYER_1
 62
     4
370
     0
100
AcDbVertex
100
AcDb2dVertex
 10
295.4864528632895
 20
72.23114208002954
 30
0.0
  0
VERTEX
  5
206A3
330
206A1
100
AcDbEntity
  8
LAYER_1
 62
     4
370
     0
100
AcDbVertex
100
AcDb2dVertex
 10
297.0445768329103
 20
72.23114208002954
 30
0.0
  0
SEQEND
  5
206A4
330
206A1
100
AcDbEntity
  8
LAYER_1
 62
     4
370
     0
  0
POLYLINE
  5
206A5
330
202F2
100
AcDbEntity
  8
LAYER_1
 62
     4
370
     0
100
AcDb2dPolyline
 66
     1
 10
0.0
 20
0.0
 30
0.0
  0
VERTEX
  5
206A6
330
206A5
100
AcDbEntity
  8
LAYER_1
 62
     4
370
     0
100
AcDbVertex
100
AcDb2dVertex
 10
296.2740759688121
 20
73.0016429441277
 30
0.0
  0
VERTEX
  5
206A7
330
206A5
100
AcDbEntity
  8
LAYER_1
 62
     4
370
     0
100
AcDbVertex
100
AcDb2dVertex
 10
296.2740759688121
 20
71.06682966317013
 30
0.0
  0
VERTEX
  5
206A8
330
206A5
100
AcDbEntity
  8
LAYER_1
 62
     4
370
     0
100
AcDbVertex
100
AcDb2dVertex
 10
296.650765280149
 20
70.67301811040884
 30
0.0
  0
VERTEX
  5
206A9
330
206A5
100
AcDbEntity
  8
LAYER_1
 62
     4
370
     0
100
AcDbVertex
100
AcDb2dVertex
 10
297.0445768329103
 20
71.06682966317013
 30
0.0
  0
SEQEND
  5
206AA
330
206A5
100
AcDbEntity
  8
LAYER_1
 62
     4
370
     0
  0
POLYLINE
  5
206AB
330
202F2
100
AcDbEntity
  8
LAYER_1
 62
     4
370
     0
100
AcDb2dPolyline
 66
     1
 10
0.0
 20
0.0
 30
0.0
  0
VERTEX
  5
206AC
330
206AB
100
AcDbEntity
  8
LAYER_1
 62
     4
370
     0
100
AcDbVertex
100
AcDb2dVertex
 10
297.8150776970084
 20
72.23114208002954
 30
0.0
  0
VERTEX
  5
206AD
330
206AB
100
AcDbEntity
  8
LAYER_1
 62
     4
370
     0
100
AcDbVertex
100
AcDb2dVertex
 10
299.3732016666291
 20
72.23114208002954
 30
0.0
  0
SEQEND
  5
206AE
330
206AB
100
AcDbEntity
  8
LAYER_1
 62
     4
370
     0
  0
POLYLINE
  5
206AF
330
202F2
100
AcDbEntity
  8
LAYER_1
 62
     4
370
     0
100
AcDb2dPolyline
 66
     1
 10
0.0
 20
0.0
 30
0.0
  0
VERTEX
  5
206B0
330
206AF
100
AcDbEntity
  8
LAYER_1
 62
     4
370
     0
100
AcDbVertex
100
AcDb2dVertex
 10
298.6027008025309
 20
73.0016429441277
 30
0.0
  0
VERTEX
  5
206B1
330
206AF
100
AcDbEntity
  8
LAYER_1
 62
     4
370
     0
100
AcDbVertex
100
AcDb2dVertex
 10
298.6027008025309
 20
71.06682966317013
 30
0.0
  0
VERTEX
  5
206B2
330
206AF
100
AcDbEntity
  8
LAYER_1
 62
     4
370
     0
100
AcDbVertex
100
AcDb2dVertex
 10
298.9793901138678
 20
70.67301811040884
 30
0.0
  0
VERTEX
  5
206B3
330
206AF
100
AcDbEntity
  8
LAYER_1
 62
     4
370
     0
100
AcDbVertex
100
AcDb2dVertex
 10
299.3732016666291
 20
71.06682966317013
 30
0.0
  0
SEQEND
  5
206B4
330
206AF
100
AcDbEntity
  8
LAYER_1
 62
     4
370
     0
  0
POLYLINE
  5
206B5
330
202F2
100
AcDbEntity
  8
LAYER_1
 62
     4
370
     0
100
AcDb2dPolyline
 66
     1
 10
0.0
 20
0.0
 30
0.0
  0
VERTEX
  5
206B6
330
206B5
100
AcDbEntity
  8
LAYER_1
 62
     4
370
     0
100
AcDbVertex
100
AcDb2dVertex
 10
233.0245161470662
 20
67.96770396535312
 30
0.0
  0
VERTEX
  5
206B7
330
206B5
100
AcDbEntity
  8
LAYER_1
 62
     4
370
     0
100
AcDbVertex
100
AcDb2dVertex
 10
234.1888285639257
 20
67.96770396535312
 30
0.0
  0
SEQEND
  5
206B8
330
206B5
100
AcDbEntity
  8
LAYER_1
 62
     4
370
     0
  0
POLYLINE
  5
206B9
330
202F2
100
AcDbEntity
  8
LAYER_1
 62
     4
370
     0
100
AcDb2dPolyline
 66
     1
 10
0.0
 20
0.0
 30
0.0
  0
VERTEX
  5
206BA
330
206B9
100
AcDbEntity
  8
LAYER_1
 62
     4
370
     0
100
AcDbVertex
100
AcDb2dVertex
 10
234.582640116687
 20
68.73820482945127
 30
0.0
  0
VERTEX
  5
206BB
330
206B9
100
AcDbEntity
  8
LAYER_1
 62
     4
370
     0
100
AcDbVertex
100
AcDb2dVertex
 10
234.1888285639257
 20
69.13201638221254
 30
0.0
  0
VERTEX
  5
206BC
330
206B9
100
AcDbEntity
  8
LAYER_1
 62
     4
370
     0
100
AcDbVertex
100
AcDb2dVertex
 10
233.8121392525888
 20
69.13201638221254
 30
0.0
  0
VERTEX
  5
206BD
330
206B9
100
AcDbEntity
  8
LAYER_1
 62
     4
370
     0
100
AcDbVertex
100
AcDb2dVertex
 10
233.4183276998275
 20
68.73820482945127
 30
0.0
  0
VERTEX
  5
206BE
330
206B9
100
AcDbEntity
  8
LAYER_1
 62
     4
370
     0
100
AcDbVertex
100
AcDb2dVertex
 10
233.4183276998275
 20
66.80339154849369
 30
0.0
  0
SEQEND
  5
206BF
330
206B9
100
AcDbEntity
  8
LAYER_1
 62
     4
370
     0
  0
POLYLINE
  5
206C0
330
202F2
100
AcDbEntity
  8
LAYER_1
 62
     4
370
     0
100
AcDb2dPolyline
 66
     1
 10
0.0
 20
0.0
 30
0.0
  0
VERTEX
  5
206C1
330
206C0
100
AcDbEntity
  8
LAYER_1
 62
     4
370
     0
100
AcDbVertex
100
AcDb2dVertex
 10
235.7469525335464
 20
69.13201638221254
 30
0.0
  0
VERTEX
  5
206C2
330
206C0
100
AcDbEntity
  8
LAYER_1
 62
     4
370
     0
100
AcDbVertex
100
AcDb2dVertex
 10
235.7469525335464
 20
68.73820482945127
 30
0.0
  0
SEQEND
  5
206C3
330
206C0
100
AcDbEntity
  8
LAYER_1
 62
     4
370
     0
  0
POLYLINE
  5
206C4
330
202F2
100
AcDbEntity
  8
LAYER_1
 62
     4
370
     0
100
AcDb2dPolyline
 66
     1
 10
0.0
 20
0.0
 30
0.0
  0
VERTEX
  5
206C5
330
206C4
100
AcDbEntity
  8
LAYER_1
 62
     4
370
     0
100
AcDbVertex
100
AcDb2dVertex
 10
235.3531409807851
 20
68.34439327669
 30
0.0
  0
VERTEX
  5
206C6
330
206C4
100
AcDbEntity
  8
LAYER_1
 62
     4
370
     0
100
AcDbVertex
100
AcDb2dVertex
 10
235.3531409807851
 20
67.18008085983057
 30
0.0
  0
VERTEX
  5
206C7
330
206C4
100
AcDbEntity
  8
LAYER_1
 62
     4
370
     0
100
AcDbVertex
100
AcDb2dVertex
 10
235.7469525335464
 20
66.80339154849369
 30
0.0
  0
VERTEX
  5
206C8
330
206C4
100
AcDbEntity
  8
LAYER_1
 62
     4
370
     0
100
AcDbVertex
100
AcDb2dVertex
 10
236.1407640863076
 20
66.80339154849369
 30
0.0
  0
VERTEX
  5
206C9
330
206C4
100
AcDbEntity
  8
LAYER_1
 62
     4
370
     0
100
AcDbVertex
100
AcDb2dVertex
 10
236.9112649504058
 20
67.57389241259184
 30
0.0
  0
SEQEND
  5
206CA
330
206C4
100
AcDbEntity
  8
LAYER_1
 62
     4
370
     0
  0
POLYLINE
  5
206CB
330
202F2
100
AcDbEntity
  8
LAYER_1
 62
     4
370
     0
100
AcDb2dPolyline
 66
     1
 10
0.0
 20
0.0
 30
0.0
  0
VERTEX
  5
206CC
330
206CB
100
AcDbEntity
  8
LAYER_1
 62
     4
370
     0
100
AcDbVertex
100
AcDb2dVertex
 10
236.5174533976445
 20
69.13201638221254
 30
0.0
  0
VERTEX
  5
206CD
330
206CB
100
AcDbEntity
  8
LAYER_1
 62
     4
370
     0
100
AcDbVertex
100
AcDb2dVertex
 10
236.5174533976445
 20
68.73820482945127
 30
0.0
  0
SEQEND
  5
206CE
330
206CB
100
AcDbEntity
  8
LAYER_1
 62
     4
370
     0
  0
POLYLINE
  5
206CF
330
202F2
100
AcDbEntity
  8
LAYER_1
 62
     4
370
     0
100
AcDb2dPolyline
 66
     1
 10
0.0
 20
0.0
 30
0.0
  0
VERTEX
  5
206D0
330
206CF
100
AcDbEntity
  8
LAYER_1
 62
     4
370
     0
100
AcDbVertex
100
AcDb2dVertex
 10
236.9112649504058
 20
68.34439327669
 30
0.0
  0
VERTEX
  5
206D1
330
206CF
100
AcDbEntity
  8
LAYER_1
 62
     4
370
     0
100
AcDbVertex
100
AcDb2dVertex
 10
236.9112649504058
 20
66.80339154849369
 30
0.0
  0
SEQEND
  5
206D2
330
206CF
100
AcDbEntity
  8
LAYER_1
 62
     4
370
     0
  0
POLYLINE
  5
206D3
330
202F2
100
AcDbEntity
  8
LAYER_1
 62
     4
370
     0
100
AcDb2dPolyline
 66
     1
 10
0.0
 20
0.0
 30
0.0
  0
VERTEX
  5
206D4
330
206D3
100
AcDbEntity
  8
LAYER_1
 62
     4
370
     0
100
AcDbVertex
100
AcDb2dVertex
 10
237.6817658145039
 20
66.80339154849369
 30
0.0
  0
VERTEX
  5
206D5
330
206D3
100
AcDbEntity
  8
LAYER_1
 62
     4
370
     0
100
AcDbVertex
100
AcDb2dVertex
 10
237.6817658145039
 20
68.34439327669
 30
0.0
  0
SEQEND
  5
206D6
330
206D3
100
AcDbEntity
  8
LAYER_1
 62
     4
370
     0
  0
POLYLINE
  5
206D7
330
202F2
100
AcDbEntity
  8
LAYER_1
 62
     4
370
     0
100
AcDb2dPolyline
 66
     1
 10
0.0
 20
0.0
 30
0.0
  0
VERTEX
  5
206D8
330
206D7
100
AcDbEntity
  8
LAYER_1
 62
     4
370
     0
100
AcDbVertex
100
AcDb2dVertex
 10
237.6817658145039
 20
67.57389241259184
 30
0.0
  0
VERTEX
  5
206D9
330
206D7
100
AcDbEntity
  8
LAYER_1
 62
     4
370
     0
100
AcDbVertex
100
AcDb2dVertex
 10
238.4693889200264
 20
68.34439327669
 30
0.0
  0
VERTEX
  5
206DA
330
206D7
100
AcDbEntity
  8
LAYER_1
 62
     4
370
     0
100
AcDbVertex
100
AcDb2dVertex
 10
238.8460782313633
 20
68.34439327669
 30
0.0
  0
VERTEX
  5
206DB
330
206D7
100
AcDbEntity
  8
LAYER_1
 62
     4
370
     0
100
AcDbVertex
100
AcDb2dVertex
 10
239.2398897841246
 20
67.96770396535312
 30
0.0
  0
SEQEND
  5
206DC
330
206D7
100
AcDbEntity
  8
LAYER_1
 62
     4
370
     0
  0
POLYLINE
  5
206DD
330
202F2
100
AcDbEntity
  8
LAYER_1
 62
     4
370
     0
100
AcDb2dPolyline
 66
     1
 10
0.0
 20
0.0
 30
0.0
  0
VERTEX
  5
206DE
330
206DD
100
AcDbEntity
  8
LAYER_1
 62
     4
370
     0
100
AcDbVertex
100
AcDb2dVertex
 10
242.3390154819416
 20
66.80339154849369
 30
0.0
  0
VERTEX
  5
206DF
330
206DD
100
AcDbEntity
  8
LAYER_1
 62
     4
370
     0
100
AcDbVertex
100
AcDb2dVertex
 10
242.3390154819416
 20
69.13201638221254
 30
0.0
  0
SEQEND
  5
206E0
330
206DD
100
AcDbEntity
  8
LAYER_1
 62
     4
370
     0
  0
POLYLINE
  5
206E1
330
202F2
100
AcDbEntity
  8
LAYER_1
 62
     4
370
     0
100
AcDb2dPolyline
 66
     1
 10
0.0
 20
0.0
 30
0.0
 70
     1
  0
VERTEX
  5
206E2
330
206E1
100
AcDbEntity
  8
LAYER_1
 62
     4
370
     0
100
AcDbVertex
100
AcDb2dVertex
 10
242.3390154819416
 20
67.57389241259184
 30
0.0
  0
VERTEX
  5
206E3
330
206E1
100
AcDbEntity
  8
LAYER_1
 62
     4
370
     0
100
AcDbVertex
100
AcDb2dVertex
 10
243.1266385874642
 20
68.34439327669
 30
0.0
  0
VERTEX
  5
206E4
330
206E1
100
AcDbEntity
  8
LAYER_1
 62
     4
370
     0
100
AcDbVertex
100
AcDb2dVertex
 10
243.5033278988011
 20
68.34439327669
 30
0.0
  0
VERTEX
  5
206E5
330
206E1
100
AcDbEntity
  8
LAYER_1
 62
     4
370
     0
100
AcDbVertex
100
AcDb2dVertex
 10
243.8971394515623
 20
67.96770396535312
 30
0.0
  0
VERTEX
  5
206E6
330
206E1
100
AcDbEntity
  8
LAYER_1
 62
     4
370
     0
100
AcDbVertex
100
AcDb2dVertex
 10
243.8971394515623
 20
67.18008085983057
 30
0.0
  0
VERTEX
  5
206E7
330
206E1
100
AcDbEntity
  8
LAYER_1
 62
     4
370
     0
100
AcDbVertex
100
AcDb2dVertex
 10
243.5033278988011
 20
66.80339154849369
 30
0.0
  0
VERTEX
  5
206E8
330
206E1
100
AcDbEntity
  8
LAYER_1
 62
     4
370
     0
100
AcDbVertex
100
AcDb2dVertex
 10
243.1266385874642
 20
66.80339154849369
 30
0.0
  0
VERTEX
  5
206E9
330
206E1
100
AcDbEntity
  8
LAYER_1
 62
     4
370
     0
100
AcDbVertex
100
AcDb2dVertex
 10
242.3390154819416
 20
67.57389241259184
 30
0.0
  0
SEQEND
  5
206EA
330
206E1
100
AcDbEntity
  8
LAYER_1
 62
     4
370
     0
  0
POLYLINE
  5
206EB
330
202F2
100
AcDbEntity
  8
LAYER_1
 62
     4
370
     0
100
AcDb2dPolyline
 66
     1
 10
0.0
 20
0.0
 30
0.0
  0
VERTEX
  5
206EC
330
206EB
100
AcDbEntity
  8
LAYER_1
 62
     4
370
     0
100
AcDbVertex
100
AcDb2dVertex
 10
244.6676403156605
 20
67.57389241259184
 30
0.0
  0
VERTEX
  5
206ED
330
206EB
100
AcDbEntity
  8
LAYER_1
 62
     4
370
     0
100
AcDbVertex
100
AcDb2dVertex
 10
245.8319527325199
 20
67.57389241259184
 30
0.0
  0
VERTEX
  5
206EE
330
206EB
100
AcDbEntity
  8
LAYER_1
 62
     4
370
     0
100
AcDbVertex
100
AcDb2dVertex
 10
246.2257642852812
 20
67.96770396535312
 30
0.0
  0
VERTEX
  5
206EF
330
206EB
100
AcDbEntity
  8
LAYER_1
 62
     4
370
     0
100
AcDbVertex
100
AcDb2dVertex
 10
245.8319527325199
 20
68.34439327669
 30
0.0
  0
VERTEX
  5
206F0
330
206EB
100
AcDbEntity
  8
LAYER_1
 62
     4
370
     0
100
AcDbVertex
100
AcDb2dVertex
 10
245.0614518684217
 20
68.34439327669
 30
0.0
  0
VERTEX
  5
206F1
330
206EB
100
AcDbEntity
  8
LAYER_1
 62
     4
370
     0
100
AcDbVertex
100
AcDb2dVertex
 10
244.6676403156605
 20
67.96770396535312
 30
0.0
  0
VERTEX
  5
206F2
330
206EB
100
AcDbEntity
  8
LAYER_1
 62
     4
370
     0
100
AcDbVertex
100
AcDb2dVertex
 10
244.6676403156605
 20
67.18008085983057
 30
0.0
  0
VERTEX
  5
206F3
330
206EB
100
AcDbEntity
  8
LAYER_1
 62
     4
370
     0
100
AcDbVertex
100
AcDb2dVertex
 10
245.0614518684217
 20
66.80339154849369
 30
0.0
  0
VERTEX
  5
206F4
330
206EB
100
AcDbEntity
  8
LAYER_1
 62
     4
370
     0
100
AcDbVertex
100
AcDb2dVertex
 10
245.8319527325199
 20
66.80339154849369
 30
0.0
  0
SEQEND
  5
206F5
330
206EB
100
AcDbEntity
  8
LAYER_1
 62
     4
370
     0
  0
POLYLINE
  5
206F6
330
202F2
100
AcDbEntity
  8
LAYER_1
 62
     4
370
     0
100
AcDb2dPolyline
 66
     1
 10
0.0
 20
0.0
 30
0.0
  0
VERTEX
  5
206F7
330
206F6
100
AcDbEntity
  8
LAYER_1
 62
     4
370
     0
100
AcDbVertex
100
AcDb2dVertex
 10
246.9962651493793
 20
66.80339154849369
 30
0.0
  0
VERTEX
  5
206F8
330
206F6
100
AcDbEntity
  8
LAYER_1
 62
     4
370
     0
100
AcDbVertex
100
AcDb2dVertex
 10
248.1605775662388
 20
66.80339154849369
 30
0.0
  0
VERTEX
  5
206F9
330
206F6
100
AcDbEntity
  8
LAYER_1
 62
     4
370
     0
100
AcDbVertex
100
AcDb2dVertex
 10
248.554389119
 20
67.18008085983057
 30
0.0
  0
VERTEX
  5
206FA
330
206F6
100
AcDbEntity
  8
LAYER_1
 62
     4
370
     0
100
AcDbVertex
100
AcDb2dVertex
 10
248.1605775662388
 20
67.57389241259184
 30
0.0
  0
VERTEX
  5
206FB
330
206F6
100
AcDbEntity
  8
LAYER_1
 62
     4
370
     0
100
AcDbVertex
100
AcDb2dVertex
 10
247.3900767021406
 20
67.57389241259184
 30
0.0
  0
VERTEX
  5
206FC
330
206F6
100
AcDbEntity
  8
LAYER_1
 62
     4
370
     0
100
AcDbVertex
100
AcDb2dVertex
 10
246.9962651493793
 20
67.96770396535312
 30
0.0
  0
VERTEX
  5
206FD
330
206F6
100
AcDbEntity
  8
LAYER_1
 62
     4
370
     0
100
AcDbVertex
100
AcDb2dVertex
 10
247.3900767021406
 20
68.34439327669
 30
0.0
  0
VERTEX
  5
206FE
330
206F6
100
AcDbEntity
  8
LAYER_1
 62
     4
370
     0
100
AcDbVertex
100
AcDb2dVertex
 10
248.554389119
 20
68.34439327669
 30
0.0
  0
SEQEND
  5
206FF
330
206F6
100
AcDbEntity
  8
LAYER_1
 62
     4
370
     0
  0
POLYLINE
  5
20700
330
202F2
100
AcDbEntity
  8
LAYER_1
 62
     4
370
     0
100
AcDb2dPolyline
 66
     1
 10
0.0
 20
0.0
 30
0.0
  0
VERTEX
  5
20701
330
20700
100
AcDbEntity
  8
LAYER_1
 62
     4
370
     0
100
AcDbVertex
100
AcDb2dVertex
 10
249.3248899830982
 20
66.80339154849369
 30
0.0
  0
VERTEX
  5
20702
330
20700
100
AcDbEntity
  8
LAYER_1
 62
     4
370
     0
100
AcDbVertex
100
AcDb2dVertex
 10
250.4892023999576
 20
66.80339154849369
 30
0.0
  0
VERTEX
  5
20703
330
20700
100
AcDbEntity
  8
LAYER_1
 62
     4
370
     0
100
AcDbVertex
100
AcDb2dVertex
 10
250.8830139527189
 20
67.18008085983057
 30
0.0
  0
VERTEX
  5
20704
330
20700
100
AcDbEntity
  8
LAYER_1
 62
     4
370
     0
100
AcDbVertex
100
AcDb2dVertex
 10
250.4892023999576
 20
67.57389241259184
 30
0.0
  0
VERTEX
  5
20705
330
20700
100
AcDbEntity
  8
LAYER_1
 62
     4
370
     0
100
AcDbVertex
100
AcDb2dVertex
 10
249.7187015358595
 20
67.57389241259184
 30
0.0
  0
VERTEX
  5
20706
330
20700
100
AcDbEntity
  8
LAYER_1
 62
     4
370
     0
100
AcDbVertex
100
AcDb2dVertex
 10
249.3248899830982
 20
67.96770396535312
 30
0.0
  0
VERTEX
  5
20707
330
20700
100
AcDbEntity
  8
LAYER_1
 62
     4
370
     0
100
AcDbVertex
100
AcDb2dVertex
 10
249.7187015358595
 20
68.34439327669
 30
0.0
  0
VERTEX
  5
20708
330
20700
100
AcDbEntity
  8
LAYER_1
 62
     4
370
     0
100
AcDbVertex
100
AcDb2dVertex
 10
250.8830139527189
 20
68.34439327669
 30
0.0
  0
SEQEND
  5
20709
330
20700
100
AcDbEntity
  8
LAYER_1
 62
     4
370
     0
  0
POLYLINE
  5
2070A
330
202F2
100
AcDbEntity
  8
LAYER_1
 62
     4
370
     0
100
AcDb2dPolyline
 66
     1
 10
0.0
 20
0.0
 30
0.0
  0
VERTEX
  5
2070B
330
2070A
100
AcDbEntity
  8
LAYER_1
 62
     4
370
     0
100
AcDbVertex
100
AcDb2dVertex
 10
251.653514816817
 20
67.57389241259184
 30
0.0
  0
VERTEX
  5
2070C
330
2070A
100
AcDbEntity
  8
LAYER_1
 62
     4
370
     0
100
AcDbVertex
100
AcDb2dVertex
 10
252.8178272336764
 20
67.57389241259184
 30
0.0
  0
VERTEX
  5
2070D
330
2070A
100
AcDbEntity
  8
LAYER_1
 62
     4
370
     0
100
AcDbVertex
100
AcDb2dVertex
 10
253.2116387864377
 20
67.96770396535312
 30
0.0
  0
VERTEX
  5
2070E
330
2070A
100
AcDbEntity
  8
LAYER_1
 62
     4
370
     0
100
AcDbVertex
100
AcDb2dVertex
 10
252.8178272336764
 20
68.34439327669
 30
0.0
  0
VERTEX
  5
2070F
330
2070A
100
AcDbEntity
  8
LAYER_1
 62
     4
370
     0
100
AcDbVertex
100
AcDb2dVertex
 10
252.0473263695783
 20
68.34439327669
 30
0.0
  0
VERTEX
  5
20710
330
2070A
100
AcDbEntity
  8
LAYER_1
 62
     4
370
     0
100
AcDbVertex
100
AcDb2dVertex
 10
251.653514816817
 20
67.96770396535312
 30
0.0
  0
VERTEX
  5
20711
330
2070A
100
AcDbEntity
  8
LAYER_1
 62
     4
370
     0
100
AcDbVertex
100
AcDb2dVertex
 10
251.653514816817
 20
67.18008085983057
 30
0.0
  0
VERTEX
  5
20712
330
2070A
100
AcDbEntity
  8
LAYER_1
 62
     4
370
     0
100
AcDbVertex
100
AcDb2dVertex
 10
252.0473263695783
 20
66.80339154849369
 30
0.0
  0
VERTEX
  5
20713
330
2070A
100
AcDbEntity
  8
LAYER_1
 62
     4
370
     0
100
AcDbVertex
100
AcDb2dVertex
 10
252.8178272336764
 20
66.80339154849369
 30
0.0
  0
SEQEND
  5
20714
330
2070A
100
AcDbEntity
  8
LAYER_1
 62
     4
370
     0
  0
POLYLINE
  5
20715
330
202F2
100
AcDbEntity
  8
LAYER_1
 62
     4
370
     0
100
AcDb2dPolyline
 66
     1
 10
0.0
 20
0.0
 30
0.0
  0
VERTEX
  5
20716
330
20715
100
AcDbEntity
  8
LAYER_1
 62
     4
370
     0
100
AcDbVertex
100
AcDb2dVertex
 10
253.9821396505359
 20
66.80339154849369
 30
0.0
  0
VERTEX
  5
20717
330
20715
100
AcDbEntity
  8
LAYER_1
 62
     4
370
     0
100
AcDbVertex
100
AcDb2dVertex
 10
253.9821396505359
 20
68.34439327669
 30
0.0
  0
SEQEND
  5
20718
330
20715
100
AcDbEntity
  8
LAYER_1
 62
     4
370
     0
  0
POLYLINE
  5
20719
330
202F2
100
AcDbEntity
  8
LAYER_1
 62
     4
370
     0
100
AcDb2dPolyline
 66
     1
 10
0.0
 20
0.0
 30
0.0
  0
VERTEX
  5
2071A
330
20719
100
AcDbEntity
  8
LAYER_1
 62
     4
370
     0
100
AcDbVertex
100
AcDb2dVertex
 10
253.9821396505359
 20
67.57389241259184
 30
0.0
  0
VERTEX
  5
2071B
330
20719
100
AcDbEntity
  8
LAYER_1
 62
     4
370
     0
100
AcDbVertex
100
AcDb2dVertex
 10
254.752640514634
 20
68.34439327669
 30
0.0
  0
VERTEX
  5
2071C
330
20719
100
AcDbEntity
  8
LAYER_1
 62
     4
370
     0
100
AcDbVertex
100
AcDb2dVertex
 10
255.1464520673953
 20
68.34439327669
 30
0.0
  0
VERTEX
  5
2071D
330
20719
100
AcDbEntity
  8
LAYER_1
 62
     4
370
     0
100
AcDbVertex
100
AcDb2dVertex
 10
255.5402636201566
 20
67.96770396535312
 30
0.0
  0
SEQEND
  5
2071E
330
20719
100
AcDbEntity
  8
LAYER_1
 62
     4
370
     0
  0
POLYLINE
  5
2071F
330
202F2
100
AcDbEntity
  8
LAYER_1
 62
     4
370
     0
100
AcDb2dPolyline
 66
     1
 10
0.0
 20
0.0
 30
0.0
  0
VERTEX
  5
20720
330
2071F
100
AcDbEntity
  8
LAYER_1
 62
     4
370
     0
100
AcDbVertex
100
AcDb2dVertex
 10
256.3107644842547
 20
67.57389241259184
 30
0.0
  0
VERTEX
  5
20721
330
2071F
100
AcDbEntity
  8
LAYER_1
 62
     4
370
     0
100
AcDbVertex
100
AcDb2dVertex
 10
257.4750769011142
 20
67.57389241259184
 30
0.0
  0
VERTEX
  5
20722
330
2071F
100
AcDbEntity
  8
LAYER_1
 62
     4
370
     0
100
AcDbVertex
100
AcDb2dVertex
 10
257.8688884538755
 20
67.96770396535312
 30
0.0
  0
VERTEX
  5
20723
330
2071F
100
AcDbEntity
  8
LAYER_1
 62
     4
370
     0
100
AcDbVertex
100
AcDb2dVertex
 10
257.4750769011142
 20
68.34439327669
 30
0.0
  0
VERTEX
  5
20724
330
2071F
100
AcDbEntity
  8
LAYER_1
 62
     4
370
     0
100
AcDbVertex
100
AcDb2dVertex
 10
256.704576037016
 20
68.34439327669
 30
0.0
  0
VERTEX
  5
20725
330
2071F
100
AcDbEntity
  8
LAYER_1
 62
     4
370
     0
100
AcDbVertex
100
AcDb2dVertex
 10
256.3107644842547
 20
67.96770396535312
 30
0.0
  0
VERTEX
  5
20726
330
2071F
100
AcDbEntity
  8
LAYER_1
 62
     4
370
     0
100
AcDbVertex
100
AcDb2dVertex
 10
256.3107644842547
 20
67.18008085983057
 30
0.0
  0
VERTEX
  5
20727
330
2071F
100
AcDbEntity
  8
LAYER_1
 62
     4
370
     0
100
AcDbVertex
100
AcDb2dVertex
 10
256.704576037016
 20
66.80339154849369
 30
0.0
  0
VERTEX
  5
20728
330
2071F
100
AcDbEntity
  8
LAYER_1
 62
     4
370
     0
100
AcDbVertex
100
AcDb2dVertex
 10
257.4750769011142
 20
66.80339154849369
 30
0.0
  0
SEQEND
  5
20729
330
2071F
100
AcDbEntity
  8
LAYER_1
 62
     4
370
     0
  0
POLYLINE
  5
2072A
330
202F2
100
AcDbEntity
  8
LAYER_1
 62
     4
370
     0
100
AcDb2dPolyline
 66
     1
 10
0.0
 20
0.0
 30
0.0
  0
VERTEX
  5
2072B
330
2072A
100
AcDbEntity
  8
LAYER_1
 62
     4
370
     0
100
AcDbVertex
100
AcDb2dVertex
 10
260.9680141516924
 20
66.80339154849369
 30
0.0
  0
VERTEX
  5
2072C
330
2072A
100
AcDbEntity
  8
LAYER_1
 62
     4
370
     0
100
AcDbVertex
100
AcDb2dVertex
 10
260.9680141516924
 20
69.13201638221254
 30
0.0
  0
VERTEX
  5
2072D
330
2072A
100
AcDbEntity
  8
LAYER_1
 62
     4
370
     0
100
AcDbVertex
100
AcDb2dVertex
 10
262.1323265685518
 20
69.13201638221254
 30
0.0
  0
VERTEX
  5
2072E
330
2072A
100
AcDbEntity
  8
LAYER_1
 62
     4
370
     0
100
AcDbVertex
100
AcDb2dVertex
 10
262.5261381213131
 20
68.73820482945127
 30
0.0
  0
VERTEX
  5
2072F
330
2072A
100
AcDbEntity
  8
LAYER_1
 62
     4
370
     0
100
AcDbVertex
100
AcDb2dVertex
 10
262.5261381213131
 20
68.34439327669
 30
0.0
  0
VERTEX
  5
20730
330
2072A
100
AcDbEntity
  8
LAYER_1
 62
     4
370
     0
100
AcDbVertex
100
AcDb2dVertex
 10
262.1323265685518
 20
67.96770396535312
 30
0.0
  0
VERTEX
  5
20731
330
2072A
100
AcDbEntity
  8
LAYER_1
 62
     4
370
     0
100
AcDbVertex
100
AcDb2dVertex
 10
260.9680141516924
 20
67.96770396535312
 30
0.0
  0
SEQEND
  5
20732
330
2072A
100
AcDbEntity
  8
LAYER_1
 62
     4
370
     0
  0
POLYLINE
  5
20733
330
202F2
100
AcDbEntity
  8
LAYER_1
 62
     4
370
     0
100
AcDb2dPolyline
 66
     1
 10
0.0
 20
0.0
 30
0.0
 70
     1
  0
VERTEX
  5
20734
330
20733
100
AcDbEntity
  8
LAYER_1
 62
     4
370
     0
100
AcDbVertex
100
AcDb2dVertex
 10
264.0671398495094
 20
66.80339154849369
 30
0.0
  0
VERTEX
  5
20735
330
20733
100
AcDbEntity
  8
LAYER_1
 62
     4
370
     0
100
AcDbVertex
100
AcDb2dVertex
 10
263.6733282967481
 20
66.80339154849369
 30
0.0
  0
VERTEX
  5
20736
330
20733
100
AcDbEntity
  8
LAYER_1
 62
     4
370
     0
100
AcDbVertex
100
AcDb2dVertex
 10
263.2966389854113
 20
67.18008085983057
 30
0.0
  0
VERTEX
  5
20737
330
20733
100
AcDbEntity
  8
LAYER_1
 62
     4
370
     0
100
AcDbVertex
100
AcDb2dVertex
 10
263.2966389854113
 20
67.96770396535312
 30
0.0
  0
VERTEX
  5
20738
330
20733
100
AcDbEntity
  8
LAYER_1
 62
     4
370
     0
100
AcDbVertex
100
AcDb2dVertex
 10
263.6733282967481
 20
68.34439327669
 30
0.0
  0
VERTEX
  5
20739
330
20733
100
AcDbEntity
  8
LAYER_1
 62
     4
370
     0
100
AcDbVertex
100
AcDb2dVertex
 10
264.0671398495094
 20
68.34439327669
 30
0.0
  0
VERTEX
  5
2073A
330
20733
100
AcDbEntity
  8
LAYER_1
 62
     4
370
     0
100
AcDbVertex
100
AcDb2dVertex
 10
264.4609514022707
 20
67.96770396535312
 30
0.0
  0
VERTEX
  5
2073B
330
20733
100
AcDbEntity
  8
LAYER_1
 62
     4
370
     0
100
AcDbVertex
100
AcDb2dVertex
 10
264.4609514022707
 20
67.18008085983057
 30
0.0
  0
VERTEX
  5
2073C
330
20733
100
AcDbEntity
  8
LAYER_1
 62
     4
370
     0
100
AcDbVertex
100
AcDb2dVertex
 10
264.0671398495094
 20
66.80339154849369
 30
0.0
  0
SEQEND
  5
2073D
330
20733
100
AcDbEntity
  8
LAYER_1
 62
     4
370
     0
  0
LWPOLYLINE
  5
2073E
330
202F2
100
AcDbEntity
  8
LAYER_1
 62
     4
370
     0
100
AcDbPolyline
 90
        2
 70
     0
 43
0.0
 10
264.4609514022707
 20
67.18008085983057
 10
264.8376407136076
 20
66.80339154849369
  0
POLYLINE
  5
20742
330
202F2
100
AcDbEntity
  8
LAYER_1
 62
     4
370
     0
100
AcDb2dPolyline
 66
     1
 10
0.0
 20
0.0
 30
0.0
  0
VERTEX
  5
20743
330
20742
100
AcDbEntity
  8
LAYER_1
 62
     4
370
     0
100
AcDbVertex
100
AcDb2dVertex
 10
265.6252638191301
 20
66.80339154849369
 30
0.0
  0
VERTEX
  5
20744
330
20742
100
AcDbEntity
  8
LAYER_1
 62
     4
370
     0
100
AcDbVertex
100
AcDb2dVertex
 10
266.7895762359896
 20
66.80339154849369
 30
0.0
  0
VERTEX
  5
20745
330
20742
100
AcDbEntity
  8
LAYER_1
 62
     4
370
     0
100
AcDbVertex
100
AcDb2dVertex
 10
267.1662655473264
 20
67.18008085983057
 30
0.0
  0
VERTEX
  5
20746
330
20742
100
AcDbEntity
  8
LAYER_1
 62
     4
370
     0
100
AcDbVertex
100
AcDb2dVertex
 10
266.7895762359896
 20
67.57389241259184
 30
0.0
  0
VERTEX
  5
20747
330
20742
100
AcDbEntity
  8
LAYER_1
 62
     4
370
     0
100
AcDbVertex
100
AcDb2dVertex
 10
266.001953130467
 20
67.57389241259184
 30
0.0
  0
VERTEX
  5
20748
330
20742
100
AcDbEntity
  8
LAYER_1
 62
     4
370
     0
100
AcDbVertex
100
AcDb2dVertex
 10
265.6252638191301
 20
67.96770396535312
 30
0.0
  0
VERTEX
  5
20749
330
20742
100
AcDbEntity
  8
LAYER_1
 62
     4
370
     0
100
AcDbVertex
100
AcDb2dVertex
 10
266.001953130467
 20
68.34439327669
 30
0.0
  0
VERTEX
  5
2074A
330
20742
100
AcDbEntity
  8
LAYER_1
 62
     4
370
     0
100
AcDbVertex
100
AcDb2dVertex
 10
267.1662655473264
 20
68.34439327669
 30
0.0
  0
SEQEND
  5
2074B
330
20742
100
AcDbEntity
  8
LAYER_1
 62
     4
370
     0
  0
POLYLINE
  5
2074C
330
202F2
100
AcDbEntity
  8
LAYER_1
 62
     4
370
     0
100
AcDb2dPolyline
 66
     1
 10
0.0
 20
0.0
 30
0.0
  0
VERTEX
  5
2074D
330
2074C
100
AcDbEntity
  8
LAYER_1
 62
     4
370
     0
100
AcDbVertex
100
AcDb2dVertex
 10
267.953888652849
 20
66.80339154849369
 30
0.0
  0
VERTEX
  5
2074E
330
2074C
100
AcDbEntity
  8
LAYER_1
 62
     4
370
     0
100
AcDbVertex
100
AcDb2dVertex
 10
269.1182010697084
 20
66.80339154849369
 30
0.0
  0
VERTEX
  5
2074F
330
2074C
100
AcDbEntity
  8
LAYER_1
 62
     4
370
     0
100
AcDbVertex
100
AcDb2dVertex
 10
269.4948903810453
 20
67.18008085983057
 30
0.0
  0
VERTEX
  5
20750
330
2074C
100
AcDbEntity
  8
LAYER_1
 62
     4
370
     0
100
AcDbVertex
100
AcDb2dVertex
 10
269.1182010697084
 20
67.57389241259184
 30
0.0
  0
VERTEX
  5
20751
330
2074C
100
AcDbEntity
  8
LAYER_1
 62
     4
370
     0
100
AcDbVertex
100
AcDb2dVertex
 10
268.3305779641859
 20
67.57389241259184
 30
0.0
  0
VERTEX
  5
20752
330
2074C
100
AcDbEntity
  8
LAYER_1
 62
     4
370
     0
100
AcDbVertex
100
AcDb2dVertex
 10
267.953888652849
 20
67.96770396535312
 30
0.0
  0
VERTEX
  5
20753
330
2074C
100
AcDbEntity
  8
LAYER_1
 62
     4
370
     0
100
AcDbVertex
100
AcDb2dVertex
 10
268.3305779641859
 20
68.34439327669
 30
0.0
  0
VERTEX
  5
20754
330
2074C
100
AcDbEntity
  8
LAYER_1
 62
     4
370
     0
100
AcDbVertex
100
AcDb2dVertex
 10
269.4948903810453
 20
68.34439327669
 30
0.0
  0
SEQEND
  5
20755
330
2074C
100
AcDbEntity
  8
LAYER_1
 62
     4
370
     0
  0
POLYLINE
  5
20756
330
202F2
100
AcDbEntity
  8
LAYER_1
 62
     4
370
     0
100
AcDb2dPolyline
 66
     1
 10
0.0
 20
0.0
 30
0.0
  0
VERTEX
  5
20757
330
20756
100
AcDbEntity
  8
LAYER_1
 62
     4
370
     0
100
AcDbVertex
100
AcDb2dVertex
 10
270.2825134865678
 20
67.96770396535312
 30
0.0
  0
VERTEX
  5
20758
330
20756
100
AcDbEntity
  8
LAYER_1
 62
     4
370
     0
100
AcDbVertex
100
AcDb2dVertex
 10
271.4468259034273
 20
67.96770396535312
 30
0.0
  0
SEQEND
  5
20759
330
20756
100
AcDbEntity
  8
LAYER_1
 62
     4
370
     0
  0
POLYLINE
  5
2075A
330
202F2
100
AcDbEntity
  8
LAYER_1
 62
     4
370
     0
100
AcDb2dPolyline
 66
     1
 10
0.0
 20
0.0
 30
0.0
  0
VERTEX
  5
2075B
330
2075A
100
AcDbEntity
  8
LAYER_1
 62
     4
370
     0
100
AcDbVertex
100
AcDb2dVertex
 10
271.8235152147641
 20
68.73820482945127
 30
0.0
  0
VERTEX
  5
2075C
330
2075A
100
AcDbEntity
  8
LAYER_1
 62
     4
370
     0
100
AcDbVertex
100
AcDb2dVertex
 10
271.4468259034273
 20
69.13201638221254
 30
0.0
  0
VERTEX
  5
2075D
330
2075A
100
AcDbEntity
  8
LAYER_1
 62
     4
370
     0
100
AcDbVertex
100
AcDb2dVertex
 10
271.053014350666
 20
69.13201638221254
 30
0.0
  0
VERTEX
  5
2075E
330
2075A
100
AcDbEntity
  8
LAYER_1
 62
     4
370
     0
100
AcDbVertex
100
AcDb2dVertex
 10
270.6592027979047
 20
68.73820482945127
 30
0.0
  0
VERTEX
  5
2075F
330
2075A
100
AcDbEntity
  8
LAYER_1
 62
     4
370
     0
100
AcDbVertex
100
AcDb2dVertex
 10
270.6592027979047
 20
66.80339154849369
 30
0.0
  0
SEQEND
  5
20760
330
2075A
100
AcDbEntity
  8
LAYER_1
 62
     4
370
     0
  0
POLYLINE
  5
20761
330
202F2
100
AcDbEntity
  8
LAYER_1
 62
     4
370
     0
100
AcDb2dPolyline
 66
     1
 10
0.0
 20
0.0
 30
0.0
 70
     1
  0
VERTEX
  5
20762
330
20761
100
AcDbEntity
  8
LAYER_1
 62
     4
370
     0
100
AcDbVertex
100
AcDb2dVertex
 10
273.7754507371461
 20
66.80339154849369
 30
0.0
  0
VERTEX
  5
20763
330
20761
100
AcDbEntity
  8
LAYER_1
 62
     4
370
     0
100
AcDbVertex
100
AcDb2dVertex
 10
272.9878276316236
 20
66.80339154849369
 30
0.0
  0
VERTEX
  5
20764
330
20761
100
AcDbEntity
  8
LAYER_1
 62
     4
370
     0
100
AcDbVertex
100
AcDb2dVertex
 10
272.6111383202867
 20
67.18008085983057
 30
0.0
  0
VERTEX
  5
20765
330
20761
100
AcDbEntity
  8
LAYER_1
 62
     4
370
     0
100
AcDbVertex
100
AcDb2dVertex
 10
272.6111383202867
 20
67.96770396535312
 30
0.0
  0
VERTEX
  5
20766
330
20761
100
AcDbEntity
  8
LAYER_1
 62
     4
370
     0
100
AcDbVertex
100
AcDb2dVertex
 10
272.9878276316236
 20
68.34439327669
 30
0.0
  0
VERTEX
  5
20767
330
20761
100
AcDbEntity
  8
LAYER_1
 62
     4
370
     0
100
AcDbVertex
100
AcDb2dVertex
 10
273.7754507371461
 20
68.34439327669
 30
0.0
  0
VERTEX
  5
20768
330
20761
100
AcDbEntity
  8
LAYER_1
 62
     4
370
     0
100
AcDbVertex
100
AcDb2dVertex
 10
274.152140048483
 20
67.96770396535312
 30
0.0
  0
VERTEX
  5
20769
330
20761
100
AcDbEntity
  8
LAYER_1
 62
     4
370
     0
100
AcDbVertex
100
AcDb2dVertex
 10
274.152140048483
 20
67.18008085983057
 30
0.0
  0
VERTEX
  5
2076A
330
20761
100
AcDbEntity
  8
LAYER_1
 62
     4
370
     0
100
AcDbVertex
100
AcDb2dVertex
 10
273.7754507371461
 20
66.80339154849369
 30
0.0
  0
SEQEND
  5
2076B
330
20761
100
AcDbEntity
  8
LAYER_1
 62
     4
370
     0
  0
POLYLINE
  5
2076C
330
202F2
100
AcDbEntity
  8
LAYER_1
 62
     4
370
     0
100
AcDb2dPolyline
 66
     1
 10
0.0
 20
0.0
 30
0.0
  0
VERTEX
  5
2076D
330
2076C
100
AcDbEntity
  8
LAYER_1
 62
     4
370
     0
100
AcDbVertex
100
AcDb2dVertex
 10
274.9397631540055
 20
66.80339154849369
 30
0.0
  0
VERTEX
  5
2076E
330
2076C
100
AcDbEntity
  8
LAYER_1
 62
     4
370
     0
100
AcDbVertex
100
AcDb2dVertex
 10
274.9397631540055
 20
68.34439327669
 30
0.0
  0
SEQEND
  5
2076F
330
2076C
100
AcDbEntity
  8
LAYER_1
 62
     4
370
     0
  0
POLYLINE
  5
20770
330
202F2
100
AcDbEntity
  8
LAYER_1
 62
     4
370
     0
100
AcDb2dPolyline
 66
     1
 10
0.0
 20
0.0
 30
0.0
  0
VERTEX
  5
20771
330
20770
100
AcDbEntity
  8
LAYER_1
 62
     4
370
     0
100
AcDbVertex
100
AcDb2dVertex
 10
274.9397631540055
 20
67.57389241259184
 30
0.0
  0
VERTEX
  5
20772
330
20770
100
AcDbEntity
  8
LAYER_1
 62
     4
370
     0
100
AcDbVertex
100
AcDb2dVertex
 10
275.7102640181037
 20
68.34439327669
 30
0.0
  0
VERTEX
  5
20773
330
20770
100
AcDbEntity
  8
LAYER_1
 62
     4
370
     0
100
AcDbVertex
100
AcDb2dVertex
 10
276.1040755708649
 20
68.34439327669
 30
0.0
  0
VERTEX
  5
20774
330
20770
100
AcDbEntity
  8
LAYER_1
 62
     4
370
     0
100
AcDbVertex
100
AcDb2dVertex
 10
276.4807648822018
 20
67.96770396535312
 30
0.0
  0
SEQEND
  5
20775
330
20770
100
AcDbEntity
  8
LAYER_1
 62
     4
370
     0
  0
POLYLINE
  5
20776
330
202F2
100
AcDbEntity
  8
LAYER_1
 62
     4
370
     0
100
AcDb2dPolyline
 66
     1
 10
0.0
 20
0.0
 30
0.0
  0
VERTEX
  5
20777
330
20776
100
AcDbEntity
  8
LAYER_1
 62
     4
370
     0
100
AcDbVertex
100
AcDb2dVertex
 10
277.2683879877244
 20
66.80339154849369
 30
0.0
  0
VERTEX
  5
20778
330
20776
100
AcDbEntity
  8
LAYER_1
 62
     4
370
     0
100
AcDbVertex
100
AcDb2dVertex
 10
277.2683879877244
 20
68.34439327669
 30
0.0
  0
SEQEND
  5
20779
330
20776
100
AcDbEntity
  8
LAYER_1
 62
     4
370
     0
  0
POLYLINE
  5
2077A
330
202F2
100
AcDbEntity
  8
LAYER_1
 62
     4
370
     0
100
AcDb2dPolyline
 66
     1
 10
0.0
 20
0.0
 30
0.0
  0
VERTEX
  5
2077B
330
2077A
100
AcDbEntity
  8
LAYER_1
 62
     4
370
     0
100
AcDbVertex
100
AcDb2dVertex
 10
277.2683879877244
 20
67.96770396535312
 30
0.0
  0
VERTEX
  5
2077C
330
2077A
100
AcDbEntity
  8
LAYER_1
 62
     4
370
     0
100
AcDbVertex
100
AcDb2dVertex
 10
277.6450772990612
 20
68.34439327669
 30
0.0
  0
VERTEX
  5
2077D
330
2077A
100
AcDbEntity
  8
LAYER_1
 62
     4
370
     0
100
AcDbVertex
100
AcDb2dVertex
 10
278.0388888518225
 20
67.96770396535312
 30
0.0
  0
VERTEX
  5
2077E
330
2077A
100
AcDbEntity
  8
LAYER_1
 62
     4
370
     0
100
AcDbVertex
100
AcDb2dVertex
 10
278.0388888518225
 20
67.57389241259184
 30
0.0
  0
SEQEND
  5
2077F
330
2077A
100
AcDbEntity
  8
LAYER_1
 62
     4
370
     0
  0
POLYLINE
  5
20780
330
202F2
100
AcDbEntity
  8
LAYER_1
 62
     4
370
     0
100
AcDb2dPolyline
 66
     1
 10
0.0
 20
0.0
 30
0.0
  0
VERTEX
  5
20781
330
20780
100
AcDbEntity
  8
LAYER_1
 62
     4
370
     0
100
AcDbVertex
100
AcDb2dVertex
 10
278.0388888518225
 20
67.96770396535312
 30
0.0
  0
VERTEX
  5
20782
330
20780
100
AcDbEntity
  8
LAYER_1
 62
     4
370
     0
100
AcDbVertex
100
AcDb2dVertex
 10
278.4155781631594
 20
68.34439327669
 30
0.0
  0
VERTEX
  5
20783
330
20780
100
AcDbEntity
  8
LAYER_1
 62
     4
370
     0
100
AcDbVertex
100
AcDb2dVertex
 10
278.8093897159207
 20
67.96770396535312
 30
0.0
  0
VERTEX
  5
20784
330
20780
100
AcDbEntity
  8
LAYER_1
 62
     4
370
     0
100
AcDbVertex
100
AcDb2dVertex
 10
278.8093897159207
 20
66.80339154849369
 30
0.0
  0
SEQEND
  5
20785
330
20780
100
AcDbEntity
  8
LAYER_1
 62
     4
370
     0
  0
POLYLINE
  5
20786
330
202F2
100
AcDbEntity
  8
LAYER_1
 62
     4
370
     0
100
AcDb2dPolyline
 66
     1
 10
0.0
 20
0.0
 30
0.0
  0
VERTEX
  5
20787
330
20786
100
AcDbEntity
  8
LAYER_1
 62
     4
370
     0
100
AcDbVertex
100
AcDb2dVertex
 10
279.5798905800189
 20
66.80339154849369
 30
0.0
  0
VERTEX
  5
20788
330
20786
100
AcDbEntity
  8
LAYER_1
 62
     4
370
     0
100
AcDbVertex
100
AcDb2dVertex
 10
279.5798905800189
 20
67.18008085983057
 30
0.0
  0
SEQEND
  5
20789
330
20786
100
AcDbEntity
  8
LAYER_1
 62
     4
370
     0
  0
POLYLINE
  5
20A21
330
202F2
100
AcDbEntity
  8
LAYER_1
 62
     3
370
     0
100
AcDb2dPolyline
 66
     1
 10
0.0
 20
0.0
 30
0.0
  0
VERTEX
  5
20A22
330
20A21
100
AcDbEntity
  8
LAYER_1
 62
     3
370
     0
100
AcDbVertex
100
AcDb2dVertex
 10
62.04960130651693
 20
73.00971926202109
 30
0.0
  0
VERTEX
  5
20A23
330
20A21
100
AcDbEntity
  8
LAYER_1
 62
     3
370
     0
100
AcDbVertex
100
AcDb2dVertex
 10
63.16084057865402
 20
70.80460383137406
 30
0.0
  0
VERTEX
  5
20A24
330
20A21
100
AcDbEntity
  8
LAYER_1
 62
     3
370
     0
100
AcDbVertex
100
AcDb2dVertex
 10
64.25471673716396
 20
73.00971926202109
 30
0.0
  0
SEQEND
  5
20A25
330
20A21
100
AcDbEntity
  8
LAYER_1
 62
     3
370
     0
  0
POLYLINE
  5
20A26
330
202F2
100
AcDbEntity
  8
LAYER_1
 62
     3
370
     0
100
AcDb2dPolyline
 66
     1
 10
0.0
 20
0.0
 30
0.0
  0
VERTEX
  5
20A27
330
20A26
100
AcDbEntity
  8
LAYER_1
 62
     3
370
     0
100
AcDbVertex
100
AcDb2dVertex
 10
64.98396750950388
 20
71.55121771734116
 30
0.0
  0
VERTEX
  5
20A28
330
20A26
100
AcDbEntity
  8
LAYER_1
 62
     3
370
     0
100
AcDbVertex
100
AcDb2dVertex
 10
66.07784366801382
 20
71.55121771734116
 30
0.0
  0
VERTEX
  5
20A29
330
20A26
100
AcDbEntity
  8
LAYER_1
 62
     3
370
     0
100
AcDbVertex
100
AcDb2dVertex
 10
66.44246905418384
 20
71.91584310351115
 30
0.0
  0
VERTEX
  5
20A2A
330
20A26
100
AcDbEntity
  8
LAYER_1
 62
     3
370
     0
100
AcDbVertex
100
AcDb2dVertex
 10
66.07784366801382
 20
72.28046848968112
 30
0.0
  0
VERTEX
  5
20A2B
330
20A26
100
AcDbEntity
  8
LAYER_1
 62
     3
370
     0
100
AcDbVertex
100
AcDb2dVertex
 10
65.3485928956739
 20
72.28046848968112
 30
0.0
  0
VERTEX
  5
20A2C
330
20A26
100
AcDbEntity
  8
LAYER_1
 62
     3
370
     0
100
AcDbVertex
100
AcDb2dVertex
 10
64.98396750950388
 20
71.91584310351115
 30
0.0
  0
VERTEX
  5
20A2D
330
20A26
100
AcDbEntity
  8
LAYER_1
 62
     3
370
     0
100
AcDbVertex
100
AcDb2dVertex
 10
64.98396750950388
 20
71.18659233117118
 30
0.0
  0
VERTEX
  5
20A2E
330
20A26
100
AcDbEntity
  8
LAYER_1
 62
     3
370
     0
100
AcDbVertex
100
AcDb2dVertex
 10
65.3485928956739
 20
70.80460383137406
 30
0.0
  0
VERTEX
  5
20A2F
330
20A26
100
AcDbEntity
  8
LAYER_1
 62
     3
370
     0
100
AcDbVertex
100
AcDb2dVertex
 10
66.07784366801382
 20
70.80460383137406
 30
0.0
  0
SEQEND
  5
20A30
330
20A26
100
AcDbEntity
  8
LAYER_1
 62
     3
370
     0
  0
POLYLINE
  5
20A31
330
202F2
100
AcDbEntity
  8
LAYER_1
 62
     3
370
     0
100
AcDb2dPolyline
 66
     1
 10
0.0
 20
0.0
 30
0.0
  0
VERTEX
  5
20A32
330
20A31
100
AcDbEntity
  8
LAYER_1
 62
     3
370
     0
100
AcDbVertex
100
AcDb2dVertex
 10
67.17171982652377
 20
70.80460383137406
 30
0.0
  0
VERTEX
  5
20A33
330
20A31
100
AcDbEntity
  8
LAYER_1
 62
     3
370
     0
100
AcDbVertex
100
AcDb2dVertex
 10
67.17171982652377
 20
72.28046848968112
 30
0.0
  0
SEQEND
  5
20A34
330
20A31
100
AcDbEntity
  8
LAYER_1
 62
     3
370
     0
  0
POLYLINE
  5
20A35
330
202F2
100
AcDbEntity
  8
LAYER_1
 62
     3
370
     0
100
AcDb2dPolyline
 66
     1
 10
0.0
 20
0.0
 30
0.0
  0
VERTEX
  5
20A36
330
20A35
100
AcDbEntity
  8
LAYER_1
 62
     3
370
     0
100
AcDbVertex
100
AcDb2dVertex
 10
67.17171982652377
 20
71.55121771734116
 30
0.0
  0
VERTEX
  5
20A37
330
20A35
100
AcDbEntity
  8
LAYER_1
 62
     3
370
     0
100
AcDbVertex
100
AcDb2dVertex
 10
67.90097059886375
 20
72.28046848968112
 30
0.0
  0
VERTEX
  5
20A38
330
20A35
100
AcDbEntity
  8
LAYER_1
 62
     3
370
     0
100
AcDbVertex
100
AcDb2dVertex
 10
68.26559598503371
 20
72.28046848968112
 30
0.0
  0
VERTEX
  5
20A39
330
20A35
100
AcDbEntity
  8
LAYER_1
 62
     3
370
     0
100
AcDbVertex
100
AcDb2dVertex
 10
68.63022137120373
 20
71.91584310351115
 30
0.0
  0
SEQEND
  5
20A3A
330
20A35
100
AcDbEntity
  8
LAYER_1
 62
     3
370
     0
  0
POLYLINE
  5
20A3B
330
202F2
100
AcDbEntity
  8
LAYER_1
 62
     3
370
     0
100
AcDb2dPolyline
 66
     1
 10
0.0
 20
0.0
 30
0.0
  0
VERTEX
  5
20A3C
330
20A3B
100
AcDbEntity
  8
LAYER_1
 62
     3
370
     0
100
AcDbVertex
100
AcDb2dVertex
 10
69.37683525717085
 20
70.43997844520408
 30
0.0
  0
VERTEX
  5
20A3D
330
20A3B
100
AcDbEntity
  8
LAYER_1
 62
     3
370
     0
100
AcDbVertex
100
AcDb2dVertex
 10
69.74146064334082
 20
70.0753530590341
 30
0.0
  0
VERTEX
  5
20A3E
330
20A3B
100
AcDbEntity
  8
LAYER_1
 62
     3
370
     0
100
AcDbVertex
100
AcDb2dVertex
 10
70.47071141568079
 20
70.0753530590341
 30
0.0
  0
VERTEX
  5
20A3F
330
20A3B
100
AcDbEntity
  8
LAYER_1
 62
     3
370
     0
100
AcDbVertex
100
AcDb2dVertex
 10
70.83533680185076
 20
70.43997844520408
 30
0.0
  0
VERTEX
  5
20A40
330
20A3B
100
AcDbEntity
  8
LAYER_1
 62
     3
370
     0
100
AcDbVertex
100
AcDb2dVertex
 10
70.83533680185076
 20
71.91584310351115
 30
0.0
  0
VERTEX
  5
20A41
330
20A3B
100
AcDbEntity
  8
LAYER_1
 62
     3
370
     0
100
AcDbVertex
100
AcDb2dVertex
 10
70.47071141568079
 20
72.28046848968112
 30
0.0
  0
VERTEX
  5
20A42
330
20A3B
100
AcDbEntity
  8
LAYER_1
 62
     3
370
     0
100
AcDbVertex
100
AcDb2dVertex
 10
69.74146064334082
 20
72.28046848968112
 30
0.0
  0
VERTEX
  5
20A43
330
20A3B
100
AcDbEntity
  8
LAYER_1
 62
     3
370
     0
100
AcDbVertex
100
AcDb2dVertex
 10
69.37683525717085
 20
71.91584310351115
 30
0.0
  0
VERTEX
  5
20A44
330
20A3B
100
AcDbEntity
  8
LAYER_1
 62
     3
370
     0
100
AcDbVertex
100
AcDb2dVertex
 10
69.37683525717085
 20
71.18659233117118
 30
0.0
  0
VERTEX
  5
20A45
330
20A3B
100
AcDbEntity
  8
LAYER_1
 62
     3
370
     0
100
AcDbVertex
100
AcDb2dVertex
 10
69.74146064334082
 20
70.80460383137406
 30
0.0
  0
VERTEX
  5
20A46
330
20A3B
100
AcDbEntity
  8
LAYER_1
 62
     3
370
     0
100
AcDbVertex
100
AcDb2dVertex
 10
70.83533680185076
 20
70.80460383137406
 30
0.0
  0
SEQEND
  5
20A47
330
20A3B
100
AcDbEntity
  8
LAYER_1
 62
     3
370
     0
  0
POLYLINE
  5
20A48
330
202F2
100
AcDbEntity
  8
LAYER_1
 62
     3
370
     0
100
AcDb2dPolyline
 66
     1
 10
0.0
 20
0.0
 30
0.0
  0
VERTEX
  5
20A49
330
20A48
100
AcDbEntity
  8
LAYER_1
 62
     3
370
     0
100
AcDbVertex
100
AcDb2dVertex
 10
71.56458757419073
 20
70.80460383137406
 30
0.0
  0
VERTEX
  5
20A4A
330
20A48
100
AcDbEntity
  8
LAYER_1
 62
     3
370
     0
100
AcDbVertex
100
AcDb2dVertex
 10
71.56458757419073
 20
72.28046848968112
 30
0.0
  0
SEQEND
  5
20A4B
330
20A48
100
AcDbEntity
  8
LAYER_1
 62
     3
370
     0
  0
POLYLINE
  5
20A4C
330
202F2
100
AcDbEntity
  8
LAYER_1
 62
     3
370
     0
100
AcDb2dPolyline
 66
     1
 10
0.0
 20
0.0
 30
0.0
  0
VERTEX
  5
20A4D
330
20A4C
100
AcDbEntity
  8
LAYER_1
 62
     3
370
     0
100
AcDbVertex
100
AcDb2dVertex
 10
71.56458757419073
 20
71.55121771734116
 30
0.0
  0
VERTEX
  5
20A4E
330
20A4C
100
AcDbEntity
  8
LAYER_1
 62
     3
370
     0
100
AcDbVertex
100
AcDb2dVertex
 10
72.29383834653066
 20
72.28046848968112
 30
0.0
  0
VERTEX
  5
20A4F
330
20A4C
100
AcDbEntity
  8
LAYER_1
 62
     3
370
     0
100
AcDbVertex
100
AcDb2dVertex
 10
72.65846373270068
 20
72.28046848968112
 30
0.0
  0
VERTEX
  5
20A50
330
20A4C
100
AcDbEntity
  8
LAYER_1
 62
     3
370
     0
100
AcDbVertex
100
AcDb2dVertex
 10
73.02308911887064
 20
71.91584310351115
 30
0.0
  0
SEQEND
  5
20A51
330
20A4C
100
AcDbEntity
  8
LAYER_1
 62
     3
370
     0
  0
POLYLINE
  5
20A52
330
202F2
100
AcDbEntity
  8
LAYER_1
 62
     3
370
     0
100
AcDb2dPolyline
 66
     1
 10
0.0
 20
0.0
 30
0.0
  0
VERTEX
  5
20A53
330
20A52
100
AcDbEntity
  8
LAYER_1
 62
     3
370
     0
100
AcDbVertex
100
AcDb2dVertex
 10
74.84621604972057
 20
70.80460383137406
 30
0.0
  0
VERTEX
  5
20A54
330
20A52
100
AcDbEntity
  8
LAYER_1
 62
     3
370
     0
100
AcDbVertex
100
AcDb2dVertex
 10
74.11696527738058
 20
70.80460383137406
 30
0.0
  0
VERTEX
  5
20A55
330
20A52
100
AcDbEntity
  8
LAYER_1
 62
     3
370
     0
100
AcDbVertex
100
AcDb2dVertex
 10
73.75233989121062
 20
71.18659233117118
 30
0.0
  0
VERTEX
  5
20A56
330
20A52
100
AcDbEntity
  8
LAYER_1
 62
     3
370
     0
100
AcDbVertex
100
AcDb2dVertex
 10
73.75233989121062
 20
71.91584310351115
 30
0.0
  0
SEQEND
  5
20A57
330
20A52
100
AcDbEntity
  8
LAYER_1
 62
     3
370
     0
  0
POLYLINE
  5
20A58
330
202F2
100
AcDbEntity
  8
LAYER_1
 62
     3
370
     0
100
AcDb2dPolyline
 66
     1
 10
0.0
 20
0.0
 30
0.0
  0
VERTEX
  5
20A59
330
20A58
100
AcDbEntity
  8
LAYER_1
 62
     3
370
     0
100
AcDbVertex
100
AcDb2dVertex
 10
73.75233989121062
 20
73.00971926202109
 30
0.0
  0
VERTEX
  5
20A5A
330
20A58
100
AcDbEntity
  8
LAYER_1
 62
     3
370
     0
100
AcDbVertex
100
AcDb2dVertex
 10
73.75233989121062
 20
72.6450938758511
 30
0.0
  0
SEQEND
  5
20A5B
330
20A58
100
AcDbEntity
  8
LAYER_1
 62
     3
370
     0
  0
POLYLINE
  5
20A5C
330
202F2
100
AcDbEntity
  8
LAYER_1
 62
     3
370
     0
100
AcDb2dPolyline
 66
     1
 10
0.0
 20
0.0
 30
0.0
  0
VERTEX
  5
20A5D
330
20A5C
100
AcDbEntity
  8
LAYER_1
 62
     3
370
     0
100
AcDbVertex
100
AcDb2dVertex
 10
75.22820454951767
 20
72.6450938758511
 30
0.0
  0
VERTEX
  5
20A5E
330
20A5C
100
AcDbEntity
  8
LAYER_1
 62
     3
370
     0
100
AcDbVertex
100
AcDb2dVertex
 10
75.22820454951767
 20
73.00971926202109
 30
0.0
  0
SEQEND
  5
20A5F
330
20A5C
100
AcDbEntity
  8
LAYER_1
 62
     3
370
     0
  0
POLYLINE
  5
20A60
330
202F2
100
AcDbEntity
  8
LAYER_1
 62
     3
370
     0
100
AcDb2dPolyline
 66
     1
 10
0.0
 20
0.0
 30
0.0
  0
VERTEX
  5
20A61
330
20A60
100
AcDbEntity
  8
LAYER_1
 62
     3
370
     0
100
AcDbVertex
100
AcDb2dVertex
 10
73.75233989121062
 20
71.91584310351115
 30
0.0
  0
VERTEX
  5
20A62
330
20A60
100
AcDbEntity
  8
LAYER_1
 62
     3
370
     0
100
AcDbVertex
100
AcDb2dVertex
 10
74.11696527738058
 20
72.28046848968112
 30
0.0
  0
VERTEX
  5
20A63
330
20A60
100
AcDbEntity
  8
LAYER_1
 62
     3
370
     0
100
AcDbVertex
100
AcDb2dVertex
 10
74.84621604972057
 20
72.28046848968112
 30
0.0
  0
VERTEX
  5
20A64
330
20A60
100
AcDbEntity
  8
LAYER_1
 62
     3
370
     0
100
AcDbVertex
100
AcDb2dVertex
 10
75.22820454951767
 20
71.91584310351115
 30
0.0
  0
VERTEX
  5
20A65
330
20A60
100
AcDbEntity
  8
LAYER_1
 62
     3
370
     0
100
AcDbVertex
100
AcDb2dVertex
 10
75.22820454951767
 20
71.18659233117118
 30
0.0
  0
VERTEX
  5
20A66
330
20A60
100
AcDbEntity
  8
LAYER_1
 62
     3
370
     0
100
AcDbVertex
100
AcDb2dVertex
 10
74.84621604972057
 20
70.80460383137406
 30
0.0
  0
SEQEND
  5
20A67
330
20A60
100
AcDbEntity
  8
LAYER_1
 62
     3
370
     0
  0
POLYLINE
  5
20A68
330
202F2
100
AcDbEntity
  8
LAYER_1
 62
     3
370
     0
100
AcDb2dPolyline
 66
     1
 10
0.0
 20
0.0
 30
0.0
  0
VERTEX
  5
20A69
330
20A68
100
AcDbEntity
  8
LAYER_1
 62
     3
370
     0
100
AcDbVertex
100
AcDb2dVertex
 10
75.95745532185765
 20
70.80460383137406
 30
0.0
  0
VERTEX
  5
20A6A
330
20A68
100
AcDbEntity
  8
LAYER_1
 62
     3
370
     0
100
AcDbVertex
100
AcDb2dVertex
 10
76.32208070802761
 20
71.18659233117118
 30
0.0
  0
VERTEX
  5
20A6B
330
20A68
100
AcDbEntity
  8
LAYER_1
 62
     3
370
     0
100
AcDbVertex
100
AcDb2dVertex
 10
76.32208070802761
 20
72.6450938758511
 30
0.0
  0
VERTEX
  5
20A6C
330
20A68
100
AcDbEntity
  8
LAYER_1
 62
     3
370
     0
100
AcDbVertex
100
AcDb2dVertex
 10
76.68670609419757
 20
73.00971926202109
 30
0.0
  0
VERTEX
  5
20A6D
330
20A68
100
AcDbEntity
  8
LAYER_1
 62
     3
370
     0
100
AcDbVertex
100
AcDb2dVertex
 10
77.05133148036759
 20
73.00971926202109
 30
0.0
  0
VERTEX
  5
20A6E
330
20A68
100
AcDbEntity
  8
LAYER_1
 62
     3
370
     0
100
AcDbVertex
100
AcDb2dVertex
 10
77.41595686653756
 20
72.6450938758511
 30
0.0
  0
VERTEX
  5
20A6F
330
20A68
100
AcDbEntity
  8
LAYER_1
 62
     3
370
     0
100
AcDbVertex
100
AcDb2dVertex
 10
77.41595686653756
 20
72.28046848968112
 30
0.0
  0
VERTEX
  5
20A70
330
20A68
100
AcDbEntity
  8
LAYER_1
 62
     3
370
     0
100
AcDbVertex
100
AcDb2dVertex
 10
77.05133148036759
 20
71.91584310351115
 30
0.0
  0
VERTEX
  5
20A71
330
20A68
100
AcDbEntity
  8
LAYER_1
 62
     3
370
     0
100
AcDbVertex
100
AcDb2dVertex
 10
77.41595686653756
 20
71.55121771734116
 30
0.0
  0
VERTEX
  5
20A72
330
20A68
100
AcDbEntity
  8
LAYER_1
 62
     3
370
     0
100
AcDbVertex
100
AcDb2dVertex
 10
77.41595686653756
 20
71.18659233117118
 30
0.0
  0
VERTEX
  5
20A73
330
20A68
100
AcDbEntity
  8
LAYER_1
 62
     3
370
     0
100
AcDbVertex
100
AcDb2dVertex
 10
77.05133148036759
 20
70.80460383137406
 30
0.0
  0
VERTEX
  5
20A74
330
20A68
100
AcDbEntity
  8
LAYER_1
 62
     3
370
     0
100
AcDbVertex
100
AcDb2dVertex
 10
76.68670609419757
 20
70.80460383137406
 30
0.0
  0
SEQEND
  5
20A75
330
20A68
100
AcDbEntity
  8
LAYER_1
 62
     3
370
     0
  0
POLYLINE
  5
20A76
330
202F2
100
AcDbEntity
  8
LAYER_1
 62
     3
370
     0
100
AcDb2dPolyline
 66
     1
 10
0.0
 20
0.0
 30
0.0
  0
VERTEX
  5
20A77
330
20A76
100
AcDbEntity
  8
LAYER_1
 62
     3
370
     0
100
AcDbVertex
100
AcDb2dVertex
 10
78.14520763887753
 20
71.55121771734116
 30
0.0
  0
VERTEX
  5
20A78
330
20A76
100
AcDbEntity
  8
LAYER_1
 62
     3
370
     0
100
AcDbVertex
100
AcDb2dVertex
 10
79.23908379738747
 20
71.55121771734116
 30
0.0
  0
VERTEX
  5
20A79
330
20A76
100
AcDbEntity
  8
LAYER_1
 62
     3
370
     0
100
AcDbVertex
100
AcDb2dVertex
 10
79.60370918355744
 20
71.91584310351115
 30
0.0
  0
VERTEX
  5
20A7A
330
20A76
100
AcDbEntity
  8
LAYER_1
 62
     3
370
     0
100
AcDbVertex
100
AcDb2dVertex
 10
79.23908379738747
 20
72.28046848968112
 30
0.0
  0
VERTEX
  5
20A7B
330
20A76
100
AcDbEntity
  8
LAYER_1
 62
     3
370
     0
100
AcDbVertex
100
AcDb2dVertex
 10
78.5098330250475
 20
72.28046848968112
 30
0.0
  0
VERTEX
  5
20A7C
330
20A76
100
AcDbEntity
  8
LAYER_1
 62
     3
370
     0
100
AcDbVertex
100
AcDb2dVertex
 10
78.14520763887753
 20
71.91584310351115
 30
0.0
  0
VERTEX
  5
20A7D
330
20A76
100
AcDbEntity
  8
LAYER_1
 62
     3
370
     0
100
AcDbVertex
100
AcDb2dVertex
 10
78.14520763887753
 20
71.18659233117118
 30
0.0
  0
VERTEX
  5
20A7E
330
20A76
100
AcDbEntity
  8
LAYER_1
 62
     3
370
     0
100
AcDbVertex
100
AcDb2dVertex
 10
78.5098330250475
 20
70.80460383137406
 30
0.0
  0
VERTEX
  5
20A7F
330
20A76
100
AcDbEntity
  8
LAYER_1
 62
     3
370
     0
100
AcDbVertex
100
AcDb2dVertex
 10
79.23908379738747
 20
70.80460383137406
 30
0.0
  0
SEQEND
  5
20A80
330
20A76
100
AcDbEntity
  8
LAYER_1
 62
     3
370
     0
  0
POLYLINE
  5
20A81
330
202F2
100
AcDbEntity
  8
LAYER_1
 62
     3
370
     0
100
AcDb2dPolyline
 66
     1
 10
0.0
 20
0.0
 30
0.0
  0
VERTEX
  5
20A82
330
20A81
100
AcDbEntity
  8
LAYER_1
 62
     3
370
     0
100
AcDbVertex
100
AcDb2dVertex
 10
80.33295995589742
 20
70.80460383137406
 30
0.0
  0
VERTEX
  5
20A83
330
20A81
100
AcDbEntity
  8
LAYER_1
 62
     3
370
     0
100
AcDbVertex
100
AcDb2dVertex
 10
80.33295995589742
 20
72.28046848968112
 30
0.0
  0
SEQEND
  5
20A84
330
20A81
100
AcDbEntity
  8
LAYER_1
 62
     3
370
     0
  0
POLYLINE
  5
20A85
330
202F2
100
AcDbEntity
  8
LAYER_1
 62
     3
370
     0
100
AcDb2dPolyline
 66
     1
 10
0.0
 20
0.0
 30
0.0
  0
VERTEX
  5
20A86
330
20A85
100
AcDbEntity
  8
LAYER_1
 62
     3
370
     0
100
AcDbVertex
100
AcDb2dVertex
 10
80.33295995589742
 20
71.55121771734116
 30
0.0
  0
VERTEX
  5
20A87
330
20A85
100
AcDbEntity
  8
LAYER_1
 62
     3
370
     0
100
AcDbVertex
100
AcDb2dVertex
 10
81.06221072823734
 20
72.28046848968112
 30
0.0
  0
VERTEX
  5
20A88
330
20A85
100
AcDbEntity
  8
LAYER_1
 62
     3
370
     0
100
AcDbVertex
100
AcDb2dVertex
 10
81.42683611440736
 20
72.28046848968112
 30
0.0
  0
VERTEX
  5
20A89
330
20A85
100
AcDbEntity
  8
LAYER_1
 62
     3
370
     0
100
AcDbVertex
100
AcDb2dVertex
 10
81.80882461420447
 20
71.91584310351115
 30
0.0
  0
SEQEND
  5
20A8A
330
20A85
100
AcDbEntity
  8
LAYER_1
 62
     3
370
     0
  0
POLYLINE
  5
20A8B
330
202F2
100
AcDbEntity
  8
LAYER_1
 62
     3
370
     0
100
AcDb2dPolyline
 66
     1
 10
0.0
 20
0.0
 30
0.0
  0
VERTEX
  5
20A8C
330
20A8B
100
AcDbEntity
  8
LAYER_1
 62
     3
370
     0
100
AcDbVertex
100
AcDb2dVertex
 10
82.53807538654445
 20
72.28046848968112
 30
0.0
  0
VERTEX
  5
20A8D
330
20A8B
100
AcDbEntity
  8
LAYER_1
 62
     3
370
     0
100
AcDbVertex
100
AcDb2dVertex
 10
82.53807538654445
 20
71.18659233117118
 30
0.0
  0
VERTEX
  5
20A8E
330
20A8B
100
AcDbEntity
  8
LAYER_1
 62
     3
370
     0
100
AcDbVertex
100
AcDb2dVertex
 10
82.90270077271442
 20
70.80460383137406
 30
0.0
  0
VERTEX
  5
20A8F
330
20A8B
100
AcDbEntity
  8
LAYER_1
 62
     3
370
     0
100
AcDbVertex
100
AcDb2dVertex
 10
83.26732615888436
 20
70.80460383137406
 30
0.0
  0
VERTEX
  5
20A90
330
20A8B
100
AcDbEntity
  8
LAYER_1
 62
     3
370
     0
100
AcDbVertex
100
AcDb2dVertex
 10
83.99657693122435
 20
71.55121771734116
 30
0.0
  0
SEQEND
  5
20A91
330
20A8B
100
AcDbEntity
  8
LAYER_1
 62
     3
370
     0
  0
POLYLINE
  5
20A92
330
202F2
100
AcDbEntity
  8
LAYER_1
 62
     3
370
     0
100
AcDb2dPolyline
 66
     1
 10
0.0
 20
0.0
 30
0.0
  0
VERTEX
  5
20A93
330
20A92
100
AcDbEntity
  8
LAYER_1
 62
     3
370
     0
100
AcDbVertex
100
AcDb2dVertex
 10
83.99657693122435
 20
72.28046848968112
 30
0.0
  0
VERTEX
  5
20A94
330
20A92
100
AcDbEntity
  8
LAYER_1
 62
     3
370
     0
100
AcDbVertex
100
AcDb2dVertex
 10
83.99657693122435
 20
70.80460383137406
 30
0.0
  0
SEQEND
  5
20A95
330
20A92
100
AcDbEntity
  8
LAYER_1
 62
     3
370
     0
  0
POLYLINE
  5
20A96
330
202F2
100
AcDbEntity
  8
LAYER_1
 62
     3
370
     0
100
AcDb2dPolyline
 66
     1
 10
0.0
 20
0.0
 30
0.0
  0
VERTEX
  5
20A97
330
20A96
100
AcDbEntity
  8
LAYER_1
 62
     3
370
     0
100
AcDbVertex
100
AcDb2dVertex
 10
84.72582770356433
 20
70.80460383137406
 30
0.0
  0
VERTEX
  5
20A98
330
20A96
100
AcDbEntity
  8
LAYER_1
 62
     3
370
     0
100
AcDbVertex
100
AcDb2dVertex
 10
84.72582770356433
 20
72.28046848968112
 30
0.0
  0
SEQEND
  5
20A99
330
20A96
100
AcDbEntity
  8
LAYER_1
 62
     3
370
     0
  0
POLYLINE
  5
20A9A
330
202F2
100
AcDbEntity
  8
LAYER_1
 62
     3
370
     0
100
AcDb2dPolyline
 66
     1
 10
0.0
 20
0.0
 30
0.0
  0
VERTEX
  5
20A9B
330
20A9A
100
AcDbEntity
  8
LAYER_1
 62
     3
370
     0
100
AcDbVertex
100
AcDb2dVertex
 10
84.72582770356433
 20
71.55121771734116
 30
0.0
  0
VERTEX
  5
20A9C
330
20A9A
100
AcDbEntity
  8
LAYER_1
 62
     3
370
     0
100
AcDbVertex
100
AcDb2dVertex
 10
85.45507847590432
 20
72.28046848968112
 30
0.0
  0
VERTEX
  5
20A9D
330
20A9A
100
AcDbEntity
  8
LAYER_1
 62
     3
370
     0
100
AcDbVertex
100
AcDb2dVertex
 10
85.81970386207428
 20
72.28046848968112
 30
0.0
  0
VERTEX
  5
20A9E
330
20A9A
100
AcDbEntity
  8
LAYER_1
 62
     3
370
     0
100
AcDbVertex
100
AcDb2dVertex
 10
86.18432924824423
 20
71.91584310351115
 30
0.0
  0
VERTEX
  5
20A9F
330
20A9A
100
AcDbEntity
  8
LAYER_1
 62
     3
370
     0
100
AcDbVertex
100
AcDb2dVertex
 10
86.18432924824423
 20
70.80460383137406
 30
0.0
  0
SEQEND
  5
20AA0
330
20A9A
100
AcDbEntity
  8
LAYER_1
 62
     3
370
     0
  0
POLYLINE
  5
20AA1
330
202F2
100
AcDbEntity
  8
LAYER_1
 62
     3
370
     0
100
AcDb2dPolyline
 66
     1
 10
0.0
 20
0.0
 30
0.0
  0
VERTEX
  5
20AA2
330
20AA1
100
AcDbEntity
  8
LAYER_1
 62
     3
370
     0
100
AcDbVertex
100
AcDb2dVertex
 10
86.91358002058422
 20
70.43997844520408
 30
0.0
  0
VERTEX
  5
20AA3
330
20AA1
100
AcDbEntity
  8
LAYER_1
 62
     3
370
     0
100
AcDbVertex
100
AcDb2dVertex
 10
87.27820540675418
 20
70.0753530590341
 30
0.0
  0
VERTEX
  5
20AA4
330
20AA1
100
AcDbEntity
  8
LAYER_1
 62
     3
370
     0
100
AcDbVertex
100
AcDb2dVertex
 10
88.02481929272131
 20
70.0753530590341
 30
0.0
  0
VERTEX
  5
20AA5
330
20AA1
100
AcDbEntity
  8
LAYER_1
 62
     3
370
     0
100
AcDbVertex
100
AcDb2dVertex
 10
88.38944467889126
 20
70.43997844520408
 30
0.0
  0
VERTEX
  5
20AA6
330
20AA1
100
AcDbEntity
  8
LAYER_1
 62
     3
370
     0
100
AcDbVertex
100
AcDb2dVertex
 10
88.38944467889126
 20
71.91584310351115
 30
0.0
  0
VERTEX
  5
20AA7
330
20AA1
100
AcDbEntity
  8
LAYER_1
 62
     3
370
     0
100
AcDbVertex
100
AcDb2dVertex
 10
88.02481929272131
 20
72.28046848968112
 30
0.0
  0
VERTEX
  5
20AA8
330
20AA1
100
AcDbEntity
  8
LAYER_1
 62
     3
370
     0
100
AcDbVertex
100
AcDb2dVertex
 10
87.27820540675418
 20
72.28046848968112
 30
0.0
  0
VERTEX
  5
20AA9
330
20AA1
100
AcDbEntity
  8
LAYER_1
 62
     3
370
     0
100
AcDbVertex
100
AcDb2dVertex
 10
86.91358002058422
 20
71.91584310351115
 30
0.0
  0
VERTEX
  5
20AAA
330
20AA1
100
AcDbEntity
  8
LAYER_1
 62
     3
370
     0
100
AcDbVertex
100
AcDb2dVertex
 10
86.91358002058422
 20
71.18659233117118
 30
0.0
  0
VERTEX
  5
20AAB
330
20AA1
100
AcDbEntity
  8
LAYER_1
 62
     3
370
     0
100
AcDbVertex
100
AcDb2dVertex
 10
87.27820540675418
 20
70.80460383137406
 30
0.0
  0
VERTEX
  5
20AAC
330
20AA1
100
AcDbEntity
  8
LAYER_1
 62
     3
370
     0
100
AcDbVertex
100
AcDb2dVertex
 10
88.38944467889126
 20
70.80460383137406
 30
0.0
  0
SEQEND
  5
20AAD
330
20AA1
100
AcDbEntity
  8
LAYER_1
 62
     3
370
     0
  0
POLYLINE
  5
20AAE
330
202F2
100
AcDbEntity
  8
LAYER_1
 62
     3
370
     0
100
AcDb2dPolyline
 66
     1
 10
0.0
 20
0.0
 30
0.0
 70
     1
  0
VERTEX
  5
20AAF
330
20AAE
100
AcDbEntity
  8
LAYER_1
 62
     3
370
     0
100
AcDbVertex
100
AcDb2dVertex
 10
92.76494931293104
 20
71.55121771734116
 30
0.0
  0
VERTEX
  5
20AB0
330
20AAE
100
AcDbEntity
  8
LAYER_1
 62
     3
370
     0
100
AcDbVertex
100
AcDb2dVertex
 10
92.03569854059111
 20
70.80460383137406
 30
0.0
  0
VERTEX
  5
20AB1
330
20AAE
100
AcDbEntity
  8
LAYER_1
 62
     3
370
     0
100
AcDbVertex
100
AcDb2dVertex
 10
91.67107315442109
 20
70.80460383137406
 30
0.0
  0
VERTEX
  5
20AB2
330
20AAE
100
AcDbEntity
  8
LAYER_1
 62
     3
370
     0
100
AcDbVertex
100
AcDb2dVertex
 10
91.30644776825112
 20
71.18659233117118
 30
0.0
  0
VERTEX
  5
20AB3
330
20AAE
100
AcDbEntity
  8
LAYER_1
 62
     3
370
     0
100
AcDbVertex
100
AcDb2dVertex
 10
91.30644776825112
 20
71.91584310351115
 30
0.0
  0
VERTEX
  5
20AB4
330
20AAE
100
AcDbEntity
  8
LAYER_1
 62
     3
370
     0
100
AcDbVertex
100
AcDb2dVertex
 10
91.67107315442109
 20
72.28046848968112
 30
0.0
  0
VERTEX
  5
20AB5
330
20AAE
100
AcDbEntity
  8
LAYER_1
 62
     3
370
     0
100
AcDbVertex
100
AcDb2dVertex
 10
92.03569854059111
 20
72.28046848968112
 30
0.0
  0
VERTEX
  5
20AB6
330
20AAE
100
AcDbEntity
  8
LAYER_1
 62
     3
370
     0
100
AcDbVertex
100
AcDb2dVertex
 10
92.76494931293104
 20
71.55121771734116
 30
0.0
  0
SEQEND
  5
20AB7
330
20AAE
100
AcDbEntity
  8
LAYER_1
 62
     3
370
     0
  0
POLYLINE
  5
20AB8
330
202F2
100
AcDbEntity
  8
LAYER_1
 62
     3
370
     0
100
AcDb2dPolyline
 66
     1
 10
0.0
 20
0.0
 30
0.0
  0
VERTEX
  5
20AB9
330
20AB8
100
AcDbEntity
  8
LAYER_1
 62
     3
370
     0
100
AcDbVertex
100
AcDb2dVertex
 10
92.76494931293104
 20
73.00971926202109
 30
0.0
  0
VERTEX
  5
20ABA
330
20AB8
100
AcDbEntity
  8
LAYER_1
 62
     3
370
     0
100
AcDbVertex
100
AcDb2dVertex
 10
92.76494931293104
 20
70.80460383137406
 30
0.0
  0
SEQEND
  5
20ABB
330
20AB8
100
AcDbEntity
  8
LAYER_1
 62
     3
370
     0
  0
POLYLINE
  5
20ABC
330
202F2
100
AcDbEntity
  8
LAYER_1
 62
     3
370
     0
100
AcDb2dPolyline
 66
     1
 10
0.0
 20
0.0
 30
0.0
  0
VERTEX
  5
20ABD
330
20ABC
100
AcDbEntity
  8
LAYER_1
 62
     3
370
     0
100
AcDbVertex
100
AcDb2dVertex
 10
93.49420008527102
 20
71.55121771734116
 30
0.0
  0
VERTEX
  5
20ABE
330
20ABC
100
AcDbEntity
  8
LAYER_1
 62
     3
370
     0
100
AcDbVertex
100
AcDb2dVertex
 10
94.6054393574081
 20
71.55121771734116
 30
0.0
  0
VERTEX
  5
20ABF
330
20ABC
100
AcDbEntity
  8
LAYER_1
 62
     3
370
     0
100
AcDbVertex
100
AcDb2dVertex
 10
94.97006474357807
 20
71.91584310351115
 30
0.0
  0
VERTEX
  5
20AC0
330
20ABC
100
AcDbEntity
  8
LAYER_1
 62
     3
370
     0
100
AcDbVertex
100
AcDb2dVertex
 10
94.6054393574081
 20
72.28046848968112
 30
0.0
  0
VERTEX
  5
20AC1
330
20ABC
100
AcDbEntity
  8
LAYER_1
 62
     3
370
     0
100
AcDbVertex
100
AcDb2dVertex
 10
93.85882547144097
 20
72.28046848968112
 30
0.0
  0
VERTEX
  5
20AC2
330
20ABC
100
AcDbEntity
  8
LAYER_1
 62
     3
370
     0
100
AcDbVertex
100
AcDb2dVertex
 10
93.49420008527102
 20
71.91584310351115
 30
0.0
  0
VERTEX
  5
20AC3
330
20ABC
100
AcDbEntity
  8
LAYER_1
 62
     3
370
     0
100
AcDbVertex
100
AcDb2dVertex
 10
93.49420008527102
 20
71.18659233117118
 30
0.0
  0
VERTEX
  5
20AC4
330
20ABC
100
AcDbEntity
  8
LAYER_1
 62
     3
370
     0
100
AcDbVertex
100
AcDb2dVertex
 10
93.85882547144097
 20
70.80460383137406
 30
0.0
  0
VERTEX
  5
20AC5
330
20ABC
100
AcDbEntity
  8
LAYER_1
 62
     3
370
     0
100
AcDbVertex
100
AcDb2dVertex
 10
94.6054393574081
 20
70.80460383137406
 30
0.0
  0
SEQEND
  5
20AC6
330
20ABC
100
AcDbEntity
  8
LAYER_1
 62
     3
370
     0
  0
POLYLINE
  5
20AC7
330
202F2
100
AcDbEntity
  8
LAYER_1
 62
     3
370
     0
100
AcDb2dPolyline
 66
     1
 10
0.0
 20
0.0
 30
0.0
  0
VERTEX
  5
20AC8
330
20AC7
100
AcDbEntity
  8
LAYER_1
 62
     3
370
     0
100
AcDbVertex
100
AcDb2dVertex
 10
95.69931551591805
 20
70.80460383137406
 30
0.0
  0
VERTEX
  5
20AC9
330
20AC7
100
AcDbEntity
  8
LAYER_1
 62
     3
370
     0
100
AcDbVertex
100
AcDb2dVertex
 10
95.69931551591805
 20
72.28046848968112
 30
0.0
  0
SEQEND
  5
20ACA
330
20AC7
100
AcDbEntity
  8
LAYER_1
 62
     3
370
     0
  0
POLYLINE
  5
20ACB
330
202F2
100
AcDbEntity
  8
LAYER_1
 62
     3
370
     0
100
AcDb2dPolyline
 66
     1
 10
0.0
 20
0.0
 30
0.0
  0
VERTEX
  5
20ACC
330
20ACB
100
AcDbEntity
  8
LAYER_1
 62
     3
370
     0
100
AcDbVertex
100
AcDb2dVertex
 10
95.69931551591805
 20
71.55121771734116
 30
0.0
  0
VERTEX
  5
20ACD
330
20ACB
100
AcDbEntity
  8
LAYER_1
 62
     3
370
     0
100
AcDbVertex
100
AcDb2dVertex
 10
96.42856628825803
 20
72.28046848968112
 30
0.0
  0
VERTEX
  5
20ACE
330
20ACB
100
AcDbEntity
  8
LAYER_1
 62
     3
370
     0
100
AcDbVertex
100
AcDb2dVertex
 10
96.79319167442798
 20
72.28046848968112
 30
0.0
  0
VERTEX
  5
20ACF
330
20ACB
100
AcDbEntity
  8
LAYER_1
 62
     3
370
     0
100
AcDbVertex
100
AcDb2dVertex
 10
97.15781706059795
 20
71.91584310351115
 30
0.0
  0
SEQEND
  5
20AD0
330
20ACB
100
AcDbEntity
  8
LAYER_1
 62
     3
370
     0
  0
POLYLINE
  5
20AD1
330
202F2
100
AcDbEntity
  8
LAYER_1
 62
     3
370
     0
100
AcDb2dPolyline
 66
     1
 10
0.0
 20
0.0
 30
0.0
  0
VERTEX
  5
20AD2
330
20AD1
100
AcDbEntity
  8
LAYER_1
 62
     3
370
     0
100
AcDbVertex
100
AcDb2dVertex
 10
101.1860594220949
 20
71.91584310351115
 30
0.0
  0
VERTEX
  5
20AD3
330
20AD1
100
AcDbEntity
  8
LAYER_1
 62
     3
370
     0
100
AcDbVertex
100
AcDb2dVertex
 10
101.5506848082649
 20
71.91584310351115
 30
0.0
  0
VERTEX
  5
20AD4
330
20AD1
100
AcDbEntity
  8
LAYER_1
 62
     3
370
     0
100
AcDbVertex
100
AcDb2dVertex
 10
101.5506848082649
 20
70.80460383137406
 30
0.0
  0
VERTEX
  5
20AD5
330
20AD1
100
AcDbEntity
  8
LAYER_1
 62
     3
370
     0
100
AcDbVertex
100
AcDb2dVertex
 10
100.4394455361278
 20
70.80460383137406
 30
0.0
  0
VERTEX
  5
20AD6
330
20AD1
100
AcDbEntity
  8
LAYER_1
 62
     3
370
     0
100
AcDbVertex
100
AcDb2dVertex
 10
100.0748201499578
 20
71.18659233117118
 30
0.0
  0
VERTEX
  5
20AD7
330
20AD1
100
AcDbEntity
  8
LAYER_1
 62
     3
370
     0
100
AcDbVertex
100
AcDb2dVertex
 10
100.0748201499578
 20
72.6450938758511
 30
0.0
  0
VERTEX
  5
20AD8
330
20AD1
100
AcDbEntity
  8
LAYER_1
 62
     3
370
     0
100
AcDbVertex
100
AcDb2dVertex
 10
100.4394455361278
 20
73.00971926202109
 30
0.0
  0
VERTEX
  5
20AD9
330
20AD1
100
AcDbEntity
  8
LAYER_1
 62
     3
370
     0
100
AcDbVertex
100
AcDb2dVertex
 10
101.5506848082649
 20
73.00971926202109
 30
0.0
  0
SEQEND
  5
20ADA
330
20AD1
100
AcDbEntity
  8
LAYER_1
 62
     3
370
     0
  0
POLYLINE
  5
20ADB
330
202F2
100
AcDbEntity
  8
LAYER_1
 62
     3
370
     0
100
AcDb2dPolyline
 66
     1
 10
0.0
 20
0.0
 30
0.0
  0
VERTEX
  5
20ADC
330
20ADB
100
AcDbEntity
  8
LAYER_1
 62
     3
370
     0
100
AcDbVertex
100
AcDb2dVertex
 10
102.2799355806048
 20
70.80460383137406
 30
0.0
  0
VERTEX
  5
20ADD
330
20ADB
100
AcDbEntity
  8
LAYER_1
 62
     3
370
     0
100
AcDbVertex
100
AcDb2dVertex
 10
102.2799355806048
 20
72.28046848968112
 30
0.0
  0
SEQEND
  5
20ADE
330
20ADB
100
AcDbEntity
  8
LAYER_1
 62
     3
370
     0
  0
POLYLINE
  5
20ADF
330
202F2
100
AcDbEntity
  8
LAYER_1
 62
     3
370
     0
100
AcDb2dPolyline
 66
     1
 10
0.0
 20
0.0
 30
0.0
  0
VERTEX
  5
20AE0
330
20ADF
100
AcDbEntity
  8
LAYER_1
 62
     3
370
     0
100
AcDbVertex
100
AcDb2dVertex
 10
102.2799355806048
 20
71.55121771734116
 30
0.0
  0
VERTEX
  5
20AE1
330
20ADF
100
AcDbEntity
  8
LAYER_1
 62
     3
370
     0
100
AcDbVertex
100
AcDb2dVertex
 10
103.0091863529448
 20
72.28046848968112
 30
0.0
  0
VERTEX
  5
20AE2
330
20ADF
100
AcDbEntity
  8
LAYER_1
 62
     3
370
     0
100
AcDbVertex
100
AcDb2dVertex
 10
103.3738117391148
 20
72.28046848968112
 30
0.0
  0
VERTEX
  5
20AE3
330
20ADF
100
AcDbEntity
  8
LAYER_1
 62
     3
370
     0
100
AcDbVertex
100
AcDb2dVertex
 10
103.7384371252848
 20
71.91584310351115
 30
0.0
  0
SEQEND
  5
20AE4
330
20ADF
100
AcDbEntity
  8
LAYER_1
 62
     3
370
     0
  0
POLYLINE
  5
20AE5
330
202F2
100
AcDbEntity
  8
LAYER_1
 62
     3
370
     0
100
AcDb2dPolyline
 66
     1
 10
0.0
 20
0.0
 30
0.0
  0
VERTEX
  5
20AE6
330
20AE5
100
AcDbEntity
  8
LAYER_1
 62
     3
370
     0
100
AcDbVertex
100
AcDb2dVertex
 10
104.4676878976247
 20
70.80460383137406
 30
0.0
  0
VERTEX
  5
20AE7
330
20AE5
100
AcDbEntity
  8
LAYER_1
 62
     3
370
     0
100
AcDbVertex
100
AcDb2dVertex
 10
104.4676878976247
 20
72.28046848968112
 30
0.0
  0
SEQEND
  5
20AE8
330
20AE5
100
AcDbEntity
  8
LAYER_1
 62
     3
370
     0
  0
POLYLINE
  5
20AE9
330
202F2
100
AcDbEntity
  8
LAYER_1
 62
     3
370
     0
100
AcDb2dPolyline
 66
     1
 10
0.0
 20
0.0
 30
0.0
  0
VERTEX
  5
20AEA
330
20AE9
100
AcDbEntity
  8
LAYER_1
 62
     3
370
     0
100
AcDbVertex
100
AcDb2dVertex
 10
104.4676878976247
 20
72.6450938758511
 30
0.0
  0
VERTEX
  5
20AEB
330
20AE9
100
AcDbEntity
  8
LAYER_1
 62
     3
370
     0
100
AcDbVertex
100
AcDb2dVertex
 10
104.4676878976247
 20
73.00971926202109
 30
0.0
  0
SEQEND
  5
20AEC
330
20AE9
100
AcDbEntity
  8
LAYER_1
 62
     3
370
     0
  0
POLYLINE
  5
20AED
330
202F2
100
AcDbEntity
  8
LAYER_1
 62
     3
370
     0
100
AcDb2dPolyline
 66
     1
 10
0.0
 20
0.0
 30
0.0
  0
VERTEX
  5
20AEE
330
20AED
100
AcDbEntity
  8
LAYER_1
 62
     3
370
     0
100
AcDbVertex
100
AcDb2dVertex
 10
105.1969386699647
 20
71.91584310351115
 30
0.0
  0
VERTEX
  5
20AEF
330
20AED
100
AcDbEntity
  8
LAYER_1
 62
     3
370
     0
100
AcDbVertex
100
AcDb2dVertex
 10
106.2908148284746
 20
71.91584310351115
 30
0.0
  0
SEQEND
  5
20AF0
330
20AED
100
AcDbEntity
  8
LAYER_1
 62
     3
370
     0
  0
POLYLINE
  5
20AF1
330
202F2
100
AcDbEntity
  8
LAYER_1
 62
     3
370
     0
100
AcDb2dPolyline
 66
     1
 10
0.0
 20
0.0
 30
0.0
  0
VERTEX
  5
20AF2
330
20AF1
100
AcDbEntity
  8
LAYER_1
 62
     3
370
     0
100
AcDbVertex
100
AcDb2dVertex
 10
106.6554402146446
 20
72.6450938758511
 30
0.0
  0
VERTEX
  5
20AF3
330
20AF1
100
AcDbEntity
  8
LAYER_1
 62
     3
370
     0
100
AcDbVertex
100
AcDb2dVertex
 10
106.2908148284746
 20
73.00971926202109
 30
0.0
  0
VERTEX
  5
20AF4
330
20AF1
100
AcDbEntity
  8
LAYER_1
 62
     3
370
     0
100
AcDbVertex
100
AcDb2dVertex
 10
105.9261894423047
 20
73.00971926202109
 30
0.0
  0
VERTEX
  5
20AF5
330
20AF1
100
AcDbEntity
  8
LAYER_1
 62
     3
370
     0
100
AcDbVertex
100
AcDb2dVertex
 10
105.5615640561347
 20
72.6450938758511
 30
0.0
  0
VERTEX
  5
20AF6
330
20AF1
100
AcDbEntity
  8
LAYER_1
 62
     3
370
     0
100
AcDbVertex
100
AcDb2dVertex
 10
105.5615640561347
 20
70.80460383137406
 30
0.0
  0
SEQEND
  5
20AF7
330
20AF1
100
AcDbEntity
  8
LAYER_1
 62
     3
370
     0
  0
POLYLINE
  5
20AF8
330
202F2
100
AcDbEntity
  8
LAYER_1
 62
     3
370
     0
100
AcDb2dPolyline
 66
     1
 10
0.0
 20
0.0
 30
0.0
  0
VERTEX
  5
20AF9
330
20AF8
100
AcDbEntity
  8
LAYER_1
 62
     3
370
     0
100
AcDbVertex
100
AcDb2dVertex
 10
107.4020541006117
 20
71.91584310351115
 30
0.0
  0
VERTEX
  5
20AFA
330
20AF8
100
AcDbEntity
  8
LAYER_1
 62
     3
370
     0
100
AcDbVertex
100
AcDb2dVertex
 10
108.4959302591216
 20
71.91584310351115
 30
0.0
  0
SEQEND
  5
20AFB
330
20AF8
100
AcDbEntity
  8
LAYER_1
 62
     3
370
     0
  0
POLYLINE
  5
20AFC
330
202F2
100
AcDbEntity
  8
LAYER_1
 62
     3
370
     0
100
AcDb2dPolyline
 66
     1
 10
0.0
 20
0.0
 30
0.0
  0
VERTEX
  5
20AFD
330
20AFC
100
AcDbEntity
  8
LAYER_1
 62
     3
370
     0
100
AcDbVertex
100
AcDb2dVertex
 10
108.8605556452916
 20
72.6450938758511
 30
0.0
  0
VERTEX
  5
20AFE
330
20AFC
100
AcDbEntity
  8
LAYER_1
 62
     3
370
     0
100
AcDbVertex
100
AcDb2dVertex
 10
108.4959302591216
 20
73.00971926202109
 30
0.0
  0
VERTEX
  5
20AFF
330
20AFC
100
AcDbEntity
  8
LAYER_1
 62
     3
370
     0
100
AcDbVertex
100
AcDb2dVertex
 10
108.1313048729517
 20
73.00971926202109
 30
0.0
  0
VERTEX
  5
20B00
330
20AFC
100
AcDbEntity
  8
LAYER_1
 62
     3
370
     0
100
AcDbVertex
100
AcDb2dVertex
 10
107.7666794867817
 20
72.6450938758511
 30
0.0
  0
VERTEX
  5
20B01
330
20AFC
100
AcDbEntity
  8
LAYER_1
 62
     3
370
     0
100
AcDbVertex
100
AcDb2dVertex
 10
107.7666794867817
 20
70.80460383137406
 30
0.0
  0
SEQEND
  5
20B02
330
20AFC
100
AcDbEntity
  8
LAYER_1
 62
     3
370
     0
  0
POLYLINE
  5
20B03
330
202F2
100
AcDbEntity
  8
LAYER_1
 62
     3
370
     0
100
AcDb2dPolyline
 66
     1
 10
0.0
 20
0.0
 30
0.0
  0
VERTEX
  5
20B04
330
20B03
100
AcDbEntity
  8
LAYER_1
 62
     3
370
     0
100
AcDbVertex
100
AcDb2dVertex
 10
109.5898064176316
 20
70.80460383137406
 30
0.0
  0
VERTEX
  5
20B05
330
20B03
100
AcDbEntity
  8
LAYER_1
 62
     3
370
     0
100
AcDbVertex
100
AcDb2dVertex
 10
109.5898064176316
 20
72.28046848968112
 30
0.0
  0
SEQEND
  5
20B06
330
20B03
100
AcDbEntity
  8
LAYER_1
 62
     3
370
     0
  0
POLYLINE
  5
20B07
330
202F2
100
AcDbEntity
  8
LAYER_1
 62
     3
370
     0
100
AcDb2dPolyline
 66
     1
 10
0.0
 20
0.0
 30
0.0
  0
VERTEX
  5
20B08
330
20B07
100
AcDbEntity
  8
LAYER_1
 62
     3
370
     0
100
AcDbVertex
100
AcDb2dVertex
 10
109.5898064176316
 20
71.91584310351115
 30
0.0
  0
VERTEX
  5
20B09
330
20B07
100
AcDbEntity
  8
LAYER_1
 62
     3
370
     0
100
AcDbVertex
100
AcDb2dVertex
 10
109.9544318038016
 20
72.28046848968112
 30
0.0
  0
VERTEX
  5
20B0A
330
20B07
100
AcDbEntity
  8
LAYER_1
 62
     3
370
     0
100
AcDbVertex
100
AcDb2dVertex
 10
110.3190571899716
 20
71.91584310351115
 30
0.0
  0
VERTEX
  5
20B0B
330
20B07
100
AcDbEntity
  8
LAYER_1
 62
     3
370
     0
100
AcDbVertex
100
AcDb2dVertex
 10
110.3190571899716
 20
71.55121771734116
 30
0.0
  0
SEQEND
  5
20B0C
330
20B07
100
AcDbEntity
  8
LAYER_1
 62
     3
370
     0
  0
POLYLINE
  5
20B0D
330
202F2
100
AcDbEntity
  8
LAYER_1
 62
     3
370
     0
100
AcDb2dPolyline
 66
     1
 10
0.0
 20
0.0
 30
0.0
  0
VERTEX
  5
20B0E
330
20B0D
100
AcDbEntity
  8
LAYER_1
 62
     3
370
     0
100
AcDbVertex
100
AcDb2dVertex
 10
110.3190571899716
 20
71.91584310351115
 30
0.0
  0
VERTEX
  5
20B0F
330
20B0D
100
AcDbEntity
  8
LAYER_1
 62
     3
370
     0
100
AcDbVertex
100
AcDb2dVertex
 10
110.6836825761415
 20
72.28046848968112
 30
0.0
  0
VERTEX
  5
20B10
330
20B0D
100
AcDbEntity
  8
LAYER_1
 62
     3
370
     0
100
AcDbVertex
100
AcDb2dVertex
 10
111.0483079623115
 20
71.91584310351115
 30
0.0
  0
VERTEX
  5
20B11
330
20B0D
100
AcDbEntity
  8
LAYER_1
 62
     3
370
     0
100
AcDbVertex
100
AcDb2dVertex
 10
111.0483079623115
 20
70.80460383137406
 30
0.0
  0
SEQEND
  5
20B12
330
20B0D
100
AcDbEntity
  8
LAYER_1
 62
     3
370
     0
  0
POLYLINE
  5
20B13
330
202F2
100
AcDbEntity
  8
LAYER_1
 62
     3
370
     0
100
AcDb2dPolyline
 66
     1
 10
0.0
 20
0.0
 30
0.0
  0
VERTEX
  5
20B14
330
20B13
100
AcDbEntity
  8
LAYER_1
 62
     3
370
     0
100
AcDbVertex
100
AcDb2dVertex
 10
111.7775587346515
 20
72.28046848968112
 30
0.0
  0
VERTEX
  5
20B15
330
20B13
100
AcDbEntity
  8
LAYER_1
 62
     3
370
     0
100
AcDbVertex
100
AcDb2dVertex
 10
111.7775587346515
 20
71.18659233117118
 30
0.0
  0
VERTEX
  5
20B16
330
20B13
100
AcDbEntity
  8
LAYER_1
 62
     3
370
     0
100
AcDbVertex
100
AcDb2dVertex
 10
112.1421841208214
 20
70.80460383137406
 30
0.0
  0
VERTEX
  5
20B17
330
20B13
100
AcDbEntity
  8
LAYER_1
 62
     3
370
     0
100
AcDbVertex
100
AcDb2dVertex
 10
112.5068095069915
 20
70.80460383137406
 30
0.0
  0
VERTEX
  5
20B18
330
20B13
100
AcDbEntity
  8
LAYER_1
 62
     3
370
     0
100
AcDbVertex
100
AcDb2dVertex
 10
113.2360602793314
 20
71.55121771734116
 30
0.0
  0
SEQEND
  5
20B19
330
20B13
100
AcDbEntity
  8
LAYER_1
 62
     3
370
     0
  0
POLYLINE
  5
20B1A
330
202F2
100
AcDbEntity
  8
LAYER_1
 62
     3
370
     0
100
AcDb2dPolyline
 66
     1
 10
0.0
 20
0.0
 30
0.0
  0
VERTEX
  5
20B1B
330
20B1A
100
AcDbEntity
  8
LAYER_1
 62
     3
370
     0
100
AcDbVertex
100
AcDb2dVertex
 10
113.2360602793314
 20
72.28046848968112
 30
0.0
  0
VERTEX
  5
20B1C
330
20B1A
100
AcDbEntity
  8
LAYER_1
 62
     3
370
     0
100
AcDbVertex
100
AcDb2dVertex
 10
113.2360602793314
 20
70.80460383137406
 30
0.0
  0
SEQEND
  5
20B1D
330
20B1A
100
AcDbEntity
  8
LAYER_1
 62
     3
370
     0
  0
POLYLINE
  5
20B1E
330
202F2
100
AcDbEntity
  8
LAYER_1
 62
     3
370
     0
100
AcDb2dPolyline
 66
     1
 10
0.0
 20
0.0
 30
0.0
  0
VERTEX
  5
20B1F
330
20B1E
100
AcDbEntity
  8
LAYER_1
 62
     3
370
     0
100
AcDbVertex
100
AcDb2dVertex
 10
113.9826741652985
 20
73.00971926202109
 30
0.0
  0
VERTEX
  5
20B20
330
20B1E
100
AcDbEntity
  8
LAYER_1
 62
     3
370
     0
100
AcDbVertex
100
AcDb2dVertex
 10
113.9826741652985
 20
71.18659233117118
 30
0.0
  0
VERTEX
  5
20B21
330
20B1E
100
AcDbEntity
  8
LAYER_1
 62
     3
370
     0
100
AcDbVertex
100
AcDb2dVertex
 10
114.3472995514685
 20
70.80460383137406
 30
0.0
  0
SEQEND
  5
20B22
330
20B1E
100
AcDbEntity
  8
LAYER_1
 62
     3
370
     0
  0
POLYLINE
  5
20B23
330
202F2
100
AcDbEntity
  8
LAYER_1
 62
     3
370
     0
100
AcDb2dPolyline
 66
     1
 10
0.0
 20
0.0
 30
0.0
 70
     1
  0
VERTEX
  5
20B24
330
20B23
100
AcDbEntity
  8
LAYER_1
 62
     3
370
     0
100
AcDbVertex
100
AcDb2dVertex
 10
116.5350518684884
 20
71.55121771734116
 30
0.0
  0
VERTEX
  5
20B25
330
20B23
100
AcDbEntity
  8
LAYER_1
 62
     3
370
     0
100
AcDbVertex
100
AcDb2dVertex
 10
115.8058010961484
 20
70.80460383137406
 30
0.0
  0
VERTEX
  5
20B26
330
20B23
100
AcDbEntity
  8
LAYER_1
 62
     3
370
     0
100
AcDbVertex
100
AcDb2dVertex
 10
115.4411757099784
 20
70.80460383137406
 30
0.0
  0
VERTEX
  5
20B27
330
20B23
100
AcDbEntity
  8
LAYER_1
 62
     3
370
     0
100
AcDbVertex
100
AcDb2dVertex
 10
115.0765503238085
 20
71.18659233117118
 30
0.0
  0
VERTEX
  5
20B28
330
20B23
100
AcDbEntity
  8
LAYER_1
 62
     3
370
     0
100
AcDbVertex
100
AcDb2dVertex
 10
115.0765503238085
 20
71.91584310351115
 30
0.0
  0
VERTEX
  5
20B29
330
20B23
100
AcDbEntity
  8
LAYER_1
 62
     3
370
     0
100
AcDbVertex
100
AcDb2dVertex
 10
115.4411757099784
 20
72.28046848968112
 30
0.0
  0
VERTEX
  5
20B2A
330
20B23
100
AcDbEntity
  8
LAYER_1
 62
     3
370
     0
100
AcDbVertex
100
AcDb2dVertex
 10
115.8058010961484
 20
72.28046848968112
 30
0.0
  0
VERTEX
  5
20B2B
330
20B23
100
AcDbEntity
  8
LAYER_1
 62
     3
370
     0
100
AcDbVertex
100
AcDb2dVertex
 10
116.5350518684884
 20
71.55121771734116
 30
0.0
  0
SEQEND
  5
20B2C
330
20B23
100
AcDbEntity
  8
LAYER_1
 62
     3
370
     0
  0
POLYLINE
  5
20B2D
330
202F2
100
AcDbEntity
  8
LAYER_1
 62
     3
370
     0
100
AcDb2dPolyline
 66
     1
 10
0.0
 20
0.0
 30
0.0
  0
VERTEX
  5
20B2E
330
20B2D
100
AcDbEntity
  8
LAYER_1
 62
     3
370
     0
100
AcDbVertex
100
AcDb2dVertex
 10
116.5350518684884
 20
73.00971926202109
 30
0.0
  0
VERTEX
  5
20B2F
330
20B2D
100
AcDbEntity
  8
LAYER_1
 62
     3
370
     0
100
AcDbVertex
100
AcDb2dVertex
 10
116.5350518684884
 20
70.80460383137406
 30
0.0
  0
SEQEND
  5
20B30
330
20B2D
100
AcDbEntity
  8
LAYER_1
 62
     3
370
     0
  0
POLYLINE
  5
20B31
330
202F2
100
AcDbEntity
  8
LAYER_1
 62
     3
370
     0
100
AcDb2dPolyline
 66
     1
 10
0.0
 20
0.0
 30
0.0
  0
VERTEX
  5
20B32
330
20B31
100
AcDbEntity
  8
LAYER_1
 62
     3
370
     0
100
AcDbVertex
100
AcDb2dVertex
 10
117.2643026408283
 20
71.55121771734116
 30
0.0
  0
VERTEX
  5
20B33
330
20B31
100
AcDbEntity
  8
LAYER_1
 62
     3
370
     0
100
AcDbVertex
100
AcDb2dVertex
 10
118.3581787993383
 20
71.55121771734116
 30
0.0
  0
VERTEX
  5
20B34
330
20B31
100
AcDbEntity
  8
LAYER_1
 62
     3
370
     0
100
AcDbVertex
100
AcDb2dVertex
 10
118.7228041855083
 20
71.91584310351115
 30
0.0
  0
VERTEX
  5
20B35
330
20B31
100
AcDbEntity
  8
LAYER_1
 62
     3
370
     0
100
AcDbVertex
100
AcDb2dVertex
 10
118.3581787993383
 20
72.28046848968112
 30
0.0
  0
VERTEX
  5
20B36
330
20B31
100
AcDbEntity
  8
LAYER_1
 62
     3
370
     0
100
AcDbVertex
100
AcDb2dVertex
 10
117.6289280269984
 20
72.28046848968112
 30
0.0
  0
VERTEX
  5
20B37
330
20B31
100
AcDbEntity
  8
LAYER_1
 62
     3
370
     0
100
AcDbVertex
100
AcDb2dVertex
 10
117.2643026408283
 20
71.91584310351115
 30
0.0
  0
VERTEX
  5
20B38
330
20B31
100
AcDbEntity
  8
LAYER_1
 62
     3
370
     0
100
AcDbVertex
100
AcDb2dVertex
 10
117.2643026408283
 20
71.18659233117118
 30
0.0
  0
VERTEX
  5
20B39
330
20B31
100
AcDbEntity
  8
LAYER_1
 62
     3
370
     0
100
AcDbVertex
100
AcDb2dVertex
 10
117.6289280269984
 20
70.80460383137406
 30
0.0
  0
VERTEX
  5
20B3A
330
20B31
100
AcDbEntity
  8
LAYER_1
 62
     3
370
     0
100
AcDbVertex
100
AcDb2dVertex
 10
118.3581787993383
 20
70.80460383137406
 30
0.0
  0
SEQEND
  5
20B3B
330
20B31
100
AcDbEntity
  8
LAYER_1
 62
     3
370
     0
  0
POLYLINE
  5
20B3C
330
202F2
100
AcDbEntity
  8
LAYER_1
 62
     3
370
     0
100
AcDb2dPolyline
 66
     1
 10
0.0
 20
0.0
 30
0.0
  0
VERTEX
  5
20B3D
330
20B3C
100
AcDbEntity
  8
LAYER_1
 62
     3
370
     0
100
AcDbVertex
100
AcDb2dVertex
 10
119.4520549578482
 20
70.80460383137406
 30
0.0
  0
VERTEX
  5
20B3E
330
20B3C
100
AcDbEntity
  8
LAYER_1
 62
     3
370
     0
100
AcDbVertex
100
AcDb2dVertex
 10
119.4520549578482
 20
72.28046848968112
 30
0.0
  0
SEQEND
  5
20B3F
330
20B3C
100
AcDbEntity
  8
LAYER_1
 62
     3
370
     0
  0
POLYLINE
  5
20B40
330
202F2
100
AcDbEntity
  8
LAYER_1
 62
     3
370
     0
100
AcDb2dPolyline
 66
     1
 10
0.0
 20
0.0
 30
0.0
  0
VERTEX
  5
20B41
330
20B40
100
AcDbEntity
  8
LAYER_1
 62
     3
370
     0
100
AcDbVertex
100
AcDb2dVertex
 10
119.4520549578482
 20
71.55121771734116
 30
0.0
  0
VERTEX
  5
20B42
330
20B40
100
AcDbEntity
  8
LAYER_1
 62
     3
370
     0
100
AcDbVertex
100
AcDb2dVertex
 10
120.1986688438154
 20
72.28046848968112
 30
0.0
  0
VERTEX
  5
20B43
330
20B40
100
AcDbEntity
  8
LAYER_1
 62
     3
370
     0
100
AcDbVertex
100
AcDb2dVertex
 10
120.5632942299853
 20
72.28046848968112
 30
0.0
  0
VERTEX
  5
20B44
330
20B40
100
AcDbEntity
  8
LAYER_1
 62
     3
370
     0
100
AcDbVertex
100
AcDb2dVertex
 10
120.9279196161553
 20
71.91584310351115
 30
0.0
  0
VERTEX
  5
20B45
330
20B40
100
AcDbEntity
  8
LAYER_1
 62
     3
370
     0
100
AcDbVertex
100
AcDb2dVertex
 10
120.9279196161553
 20
70.80460383137406
 30
0.0
  0
SEQEND
  5
20B46
330
20B40
100
AcDbEntity
  8
LAYER_1
 62
     3
370
     0
  0
POLYLINE
  5
20B47
330
202F2
100
AcDbEntity
  8
LAYER_1
 62
     3
370
     0
100
AcDb2dPolyline
 66
     1
 10
0.0
 20
0.0
 30
0.0
  0
VERTEX
  5
20B48
330
20B47
100
AcDbEntity
  8
LAYER_1
 62
     3
370
     0
100
AcDbVertex
100
AcDb2dVertex
 10
121.6571703884953
 20
70.80460383137406
 30
0.0
  0
VERTEX
  5
20B49
330
20B47
100
AcDbEntity
  8
LAYER_1
 62
     3
370
     0
100
AcDbVertex
100
AcDb2dVertex
 10
121.6571703884953
 20
71.18659233117118
 30
0.0
  0
SEQEND
  5
20B4A
330
20B47
100
AcDbEntity
  8
LAYER_1
 62
     3
370
     0
  0
POLYLINE
  5
20B4B
330
202F2
100
AcDbEntity
  8
LAYER_1
 62
     3
370
     0
100
AcDb2dPolyline
 66
     1
 10
0.0
 20
0.0
 30
0.0
  0
VERTEX
  5
20B4C
330
20B4B
100
AcDbEntity
  8
LAYER_1
 62
     3
370
     0
100
AcDbVertex
100
AcDb2dVertex
 10
124.5741734778551
 20
70.80460383137406
 30
0.0
  0
VERTEX
  5
20B4D
330
20B4B
100
AcDbEntity
  8
LAYER_1
 62
     3
370
     0
100
AcDbVertex
100
AcDb2dVertex
 10
124.5741734778551
 20
73.00971926202109
 30
0.0
  0
VERTEX
  5
20B4E
330
20B4B
100
AcDbEntity
  8
LAYER_1
 62
     3
370
     0
100
AcDbVertex
100
AcDb2dVertex
 10
126.0500381361622
 20
70.80460383137406
 30
0.0
  0
VERTEX
  5
20B4F
330
20B4B
100
AcDbEntity
  8
LAYER_1
 62
     3
370
     0
100
AcDbVertex
100
AcDb2dVertex
 10
126.0500381361622
 20
73.00971926202109
 30
0.0
  0
SEQEND
  5
20B50
330
20B4B
100
AcDbEntity
  8
LAYER_1
 62
     3
370
     0
  0
POLYLINE
  5
20B51
330
202F2
100
AcDbEntity
  8
LAYER_1
 62
     3
370
     0
100
AcDb2dPolyline
 66
     1
 10
0.0
 20
0.0
 30
0.0
  0
VERTEX
  5
20B52
330
20B51
100
AcDbEntity
  8
LAYER_1
 62
     3
370
     0
100
AcDbVertex
100
AcDb2dVertex
 10
126.7792889085021
 20
71.55121771734116
 30
0.0
  0
VERTEX
  5
20B53
330
20B51
100
AcDbEntity
  8
LAYER_1
 62
     3
370
     0
100
AcDbVertex
100
AcDb2dVertex
 10
127.8731650670121
 20
71.55121771734116
 30
0.0
  0
VERTEX
  5
20B54
330
20B51
100
AcDbEntity
  8
LAYER_1
 62
     3
370
     0
100
AcDbVertex
100
AcDb2dVertex
 10
128.237790453182
 20
71.91584310351115
 30
0.0
  0
VERTEX
  5
20B55
330
20B51
100
AcDbEntity
  8
LAYER_1
 62
     3
370
     0
100
AcDbVertex
100
AcDb2dVertex
 10
127.8731650670121
 20
72.28046848968112
 30
0.0
  0
VERTEX
  5
20B56
330
20B51
100
AcDbEntity
  8
LAYER_1
 62
     3
370
     0
100
AcDbVertex
100
AcDb2dVertex
 10
127.1439142946721
 20
72.28046848968112
 30
0.0
  0
VERTEX
  5
20B57
330
20B51
100
AcDbEntity
  8
LAYER_1
 62
     3
370
     0
100
AcDbVertex
100
AcDb2dVertex
 10
126.7792889085021
 20
71.91584310351115
 30
0.0
  0
VERTEX
  5
20B58
330
20B51
100
AcDbEntity
  8
LAYER_1
 62
     3
370
     0
100
AcDbVertex
100
AcDb2dVertex
 10
126.7792889085021
 20
71.18659233117118
 30
0.0
  0
VERTEX
  5
20B59
330
20B51
100
AcDbEntity
  8
LAYER_1
 62
     3
370
     0
100
AcDbVertex
100
AcDb2dVertex
 10
127.1439142946721
 20
70.80460383137406
 30
0.0
  0
VERTEX
  5
20B5A
330
20B51
100
AcDbEntity
  8
LAYER_1
 62
     3
370
     0
100
AcDbVertex
100
AcDb2dVertex
 10
127.8731650670121
 20
70.80460383137406
 30
0.0
  0
SEQEND
  5
20B5B
330
20B51
100
AcDbEntity
  8
LAYER_1
 62
     3
370
     0
  0
POLYLINE
  5
20B5C
330
202F2
100
AcDbEntity
  8
LAYER_1
 62
     3
370
     0
100
AcDb2dPolyline
 66
     1
 10
0.0
 20
0.0
 30
0.0
  0
VERTEX
  5
20B5D
330
20B5C
100
AcDbEntity
  8
LAYER_1
 62
     3
370
     0
100
AcDbVertex
100
AcDb2dVertex
 10
128.967041225522
 20
72.28046848968112
 30
0.0
  0
VERTEX
  5
20B5E
330
20B5C
100
AcDbEntity
  8
LAYER_1
 62
     3
370
     0
100
AcDbVertex
100
AcDb2dVertex
 10
128.967041225522
 20
71.18659233117118
 30
0.0
  0
VERTEX
  5
20B5F
330
20B5C
100
AcDbEntity
  8
LAYER_1
 62
     3
370
     0
100
AcDbVertex
100
AcDb2dVertex
 10
129.331666611692
 20
70.80460383137406
 30
0.0
  0
VERTEX
  5
20B60
330
20B5C
100
AcDbEntity
  8
LAYER_1
 62
     3
370
     0
100
AcDbVertex
100
AcDb2dVertex
 10
129.696291997862
 20
70.80460383137406
 30
0.0
  0
VERTEX
  5
20B61
330
20B5C
100
AcDbEntity
  8
LAYER_1
 62
     3
370
     0
100
AcDbVertex
100
AcDb2dVertex
 10
130.4255427702019
 20
71.55121771734116
 30
0.0
  0
SEQEND
  5
20B62
330
20B5C
100
AcDbEntity
  8
LAYER_1
 62
     3
370
     0
  0
POLYLINE
  5
20B63
330
202F2
100
AcDbEntity
  8
LAYER_1
 62
     3
370
     0
100
AcDb2dPolyline
 66
     1
 10
0.0
 20
0.0
 30
0.0
  0
VERTEX
  5
20B64
330
20B63
100
AcDbEntity
  8
LAYER_1
 62
     3
370
     0
100
AcDbVertex
100
AcDb2dVertex
 10
130.4255427702019
 20
72.28046848968112
 30
0.0
  0
VERTEX
  5
20B65
330
20B63
100
AcDbEntity
  8
LAYER_1
 62
     3
370
     0
100
AcDbVertex
100
AcDb2dVertex
 10
130.4255427702019
 20
70.80460383137406
 30
0.0
  0
SEQEND
  5
20B66
330
20B63
100
AcDbEntity
  8
LAYER_1
 62
     3
370
     0
  0
POLYLINE
  5
20B67
330
202F2
100
AcDbEntity
  8
LAYER_1
 62
     3
370
     0
100
AcDb2dPolyline
 66
     1
 10
0.0
 20
0.0
 30
0.0
  0
VERTEX
  5
20B68
330
20B67
100
AcDbEntity
  8
LAYER_1
 62
     3
370
     0
100
AcDbVertex
100
AcDb2dVertex
 10
131.1547935425419
 20
71.55121771734116
 30
0.0
  0
VERTEX
  5
20B69
330
20B67
100
AcDbEntity
  8
LAYER_1
 62
     3
370
     0
100
AcDbVertex
100
AcDb2dVertex
 10
132.2486697010519
 20
71.55121771734116
 30
0.0
  0
VERTEX
  5
20B6A
330
20B67
100
AcDbEntity
  8
LAYER_1
 62
     3
370
     0
100
AcDbVertex
100
AcDb2dVertex
 10
132.630658200849
 20
71.91584310351115
 30
0.0
  0
VERTEX
  5
20B6B
330
20B67
100
AcDbEntity
  8
LAYER_1
 62
     3
370
     0
100
AcDbVertex
100
AcDb2dVertex
 10
132.2486697010519
 20
72.28046848968112
 30
0.0
  0
VERTEX
  5
20B6C
330
20B67
100
AcDbEntity
  8
LAYER_1
 62
     3
370
     0
100
AcDbVertex
100
AcDb2dVertex
 10
131.5194189287119
 20
72.28046848968112
 30
0.0
  0
VERTEX
  5
20B6D
330
20B67
100
AcDbEntity
  8
LAYER_1
 62
     3
370
     0
100
AcDbVertex
100
AcDb2dVertex
 10
131.1547935425419
 20
71.91584310351115
 30
0.0
  0
VERTEX
  5
20B6E
330
20B67
100
AcDbEntity
  8
LAYER_1
 62
     3
370
     0
100
AcDbVertex
100
AcDb2dVertex
 10
131.1547935425419
 20
71.18659233117118
 30
0.0
  0
VERTEX
  5
20B6F
330
20B67
100
AcDbEntity
  8
LAYER_1
 62
     3
370
     0
100
AcDbVertex
100
AcDb2dVertex
 10
131.5194189287119
 20
70.80460383137406
 30
0.0
  0
VERTEX
  5
20B70
330
20B67
100
AcDbEntity
  8
LAYER_1
 62
     3
370
     0
100
AcDbVertex
100
AcDb2dVertex
 10
132.2486697010519
 20
70.80460383137406
 30
0.0
  0
SEQEND
  5
20B71
330
20B67
100
AcDbEntity
  8
LAYER_1
 62
     3
370
     0
  0
POLYLINE
  5
20B72
330
202F2
100
AcDbEntity
  8
LAYER_1
 62
     3
370
     0
100
AcDb2dPolyline
 66
     1
 10
0.0
 20
0.0
 30
0.0
  0
VERTEX
  5
20B73
330
20B72
100
AcDbEntity
  8
LAYER_1
 62
     3
370
     0
100
AcDbVertex
100
AcDb2dVertex
 10
133.3599089731889
 20
70.80460383137406
 30
0.0
  0
VERTEX
  5
20B74
330
20B72
100
AcDbEntity
  8
LAYER_1
 62
     3
370
     0
100
AcDbVertex
100
AcDb2dVertex
 10
133.3599089731889
 20
72.28046848968112
 30
0.0
  0
SEQEND
  5
20B75
330
20B72
100
AcDbEntity
  8
LAYER_1
 62
     3
370
     0
  0
POLYLINE
  5
20B76
330
202F2
100
AcDbEntity
  8
LAYER_1
 62
     3
370
     0
100
AcDb2dPolyline
 66
     1
 10
0.0
 20
0.0
 30
0.0
  0
VERTEX
  5
20B77
330
20B76
100
AcDbEntity
  8
LAYER_1
 62
     3
370
     0
100
AcDbVertex
100
AcDb2dVertex
 10
133.3599089731889
 20
71.55121771734116
 30
0.0
  0
VERTEX
  5
20B78
330
20B76
100
AcDbEntity
  8
LAYER_1
 62
     3
370
     0
100
AcDbVertex
100
AcDb2dVertex
 10
134.0891597455289
 20
72.28046848968112
 30
0.0
  0
VERTEX
  5
20B79
330
20B76
100
AcDbEntity
  8
LAYER_1
 62
     3
370
     0
100
AcDbVertex
100
AcDb2dVertex
 10
134.4537851316989
 20
72.28046848968112
 30
0.0
  0
VERTEX
  5
20B7A
330
20B76
100
AcDbEntity
  8
LAYER_1
 62
     3
370
     0
100
AcDbVertex
100
AcDb2dVertex
 10
134.8184105178689
 20
71.91584310351115
 30
0.0
  0
SEQEND
  5
20B7B
330
20B76
100
AcDbEntity
  8
LAYER_1
 62
     3
370
     0
  0
POLYLINE
  5
20B7C
330
202F2
100
AcDbEntity
  8
LAYER_1
 62
     3
370
     0
100
AcDb2dPolyline
 66
     1
 10
0.0
 20
0.0
 30
0.0
  0
VERTEX
  5
20B7D
330
20B7C
100
AcDbEntity
  8
LAYER_1
 62
     3
370
     0
100
AcDbVertex
100
AcDb2dVertex
 10
62.04960130651693
 20
67.15834996967425
 30
0.0
  0
VERTEX
  5
20B7E
330
20B7C
100
AcDbEntity
  8
LAYER_1
 62
     3
370
     0
100
AcDbVertex
100
AcDb2dVertex
 10
62.04960130651693
 20
69.34610228669413
 30
0.0
  0
SEQEND
  5
20B7F
330
20B7C
100
AcDbEntity
  8
LAYER_1
 62
     3
370
     0
  0
POLYLINE
  5
20B80
330
202F2
100
AcDbEntity
  8
LAYER_1
 62
     3
370
     0
100
AcDb2dPolyline
 66
     1
 10
0.0
 20
0.0
 30
0.0
  0
VERTEX
  5
20B81
330
20B80
100
AcDbEntity
  8
LAYER_1
 62
     3
370
     0
100
AcDbVertex
100
AcDb2dVertex
 10
63.52546596482397
 20
69.34610228669413
 30
0.0
  0
VERTEX
  5
20B82
330
20B80
100
AcDbEntity
  8
LAYER_1
 62
     3
370
     0
100
AcDbVertex
100
AcDb2dVertex
 10
62.43158980631403
 20
68.25222612818419
 30
0.0
  0
VERTEX
  5
20B83
330
20B80
100
AcDbEntity
  8
LAYER_1
 62
     3
370
     0
100
AcDbVertex
100
AcDb2dVertex
 10
62.04960130651693
 20
68.25222612818419
 30
0.0
  0
SEQEND
  5
20B84
330
20B80
100
AcDbEntity
  8
LAYER_1
 62
     3
370
     0
  0
POLYLINE
  5
20B85
330
202F2
100
AcDbEntity
  8
LAYER_1
 62
     3
370
     0
100
AcDb2dPolyline
 66
     1
 10
0.0
 20
0.0
 30
0.0
  0
VERTEX
  5
20B86
330
20B85
100
AcDbEntity
  8
LAYER_1
 62
     3
370
     0
100
AcDbVertex
100
AcDb2dVertex
 10
62.43158980631403
 20
68.25222612818419
 30
0.0
  0
VERTEX
  5
20B87
330
20B85
100
AcDbEntity
  8
LAYER_1
 62
     3
370
     0
100
AcDbVertex
100
AcDb2dVertex
 10
63.52546596482397
 20
67.15834996967425
 30
0.0
  0
SEQEND
  5
20B88
330
20B85
100
AcDbEntity
  8
LAYER_1
 62
     3
370
     0
  0
POLYLINE
  5
20B89
330
202F2
100
AcDbEntity
  8
LAYER_1
 62
     3
370
     0
100
AcDb2dPolyline
 66
     1
 10
0.0
 20
0.0
 30
0.0
  0
VERTEX
  5
20B8A
330
20B89
100
AcDbEntity
  8
LAYER_1
 62
     3
370
     0
100
AcDbVertex
100
AcDb2dVertex
 10
64.25471673716396
 20
67.15834996967425
 30
0.0
  0
VERTEX
  5
20B8B
330
20B89
100
AcDbEntity
  8
LAYER_1
 62
     3
370
     0
100
AcDbVertex
100
AcDb2dVertex
 10
64.25471673716396
 20
68.61685151435416
 30
0.0
  0
SEQEND
  5
20B8C
330
20B89
100
AcDbEntity
  8
LAYER_1
 62
     3
370
     0
  0
POLYLINE
  5
20B8D
330
202F2
100
AcDbEntity
  8
LAYER_1
 62
     3
370
     0
100
AcDb2dPolyline
 66
     1
 10
0.0
 20
0.0
 30
0.0
  0
VERTEX
  5
20B8E
330
20B8D
100
AcDbEntity
  8
LAYER_1
 62
     3
370
     0
100
AcDbVertex
100
AcDb2dVertex
 10
64.25471673716396
 20
67.88760074201421
 30
0.0
  0
VERTEX
  5
20B8F
330
20B8D
100
AcDbEntity
  8
LAYER_1
 62
     3
370
     0
100
AcDbVertex
100
AcDb2dVertex
 10
64.98396750950388
 20
68.61685151435416
 30
0.0
  0
VERTEX
  5
20B90
330
20B8D
100
AcDbEntity
  8
LAYER_1
 62
     3
370
     0
100
AcDbVertex
100
AcDb2dVertex
 10
65.3485928956739
 20
68.61685151435416
 30
0.0
  0
VERTEX
  5
20B91
330
20B8D
100
AcDbEntity
  8
LAYER_1
 62
     3
370
     0
100
AcDbVertex
100
AcDb2dVertex
 10
65.71321828184387
 20
68.25222612818419
 30
0.0
  0
SEQEND
  5
20B92
330
20B8D
100
AcDbEntity
  8
LAYER_1
 62
     3
370
     0
  0
POLYLINE
  5
20B93
330
202F2
100
AcDbEntity
  8
LAYER_1
 62
     3
370
     0
100
AcDb2dPolyline
 66
     1
 10
0.0
 20
0.0
 30
0.0
  0
VERTEX
  5
20B94
330
20B93
100
AcDbEntity
  8
LAYER_1
 62
     3
370
     0
100
AcDbVertex
100
AcDb2dVertex
 10
66.44246905418384
 20
67.88760074201421
 30
0.0
  0
VERTEX
  5
20B95
330
20B93
100
AcDbEntity
  8
LAYER_1
 62
     3
370
     0
100
AcDbVertex
100
AcDb2dVertex
 10
67.53634521269379
 20
67.88760074201421
 30
0.0
  0
VERTEX
  5
20B96
330
20B93
100
AcDbEntity
  8
LAYER_1
 62
     3
370
     0
100
AcDbVertex
100
AcDb2dVertex
 10
67.90097059886375
 20
68.25222612818419
 30
0.0
  0
VERTEX
  5
20B97
330
20B93
100
AcDbEntity
  8
LAYER_1
 62
     3
370
     0
100
AcDbVertex
100
AcDb2dVertex
 10
67.53634521269379
 20
68.61685151435416
 30
0.0
  0
VERTEX
  5
20B98
330
20B93
100
AcDbEntity
  8
LAYER_1
 62
     3
370
     0
100
AcDbVertex
100
AcDb2dVertex
 10
66.80709444035381
 20
68.61685151435416
 30
0.0
  0
VERTEX
  5
20B99
330
20B93
100
AcDbEntity
  8
LAYER_1
 62
     3
370
     0
100
AcDbVertex
100
AcDb2dVertex
 10
66.44246905418384
 20
68.25222612818419
 30
0.0
  0
VERTEX
  5
20B9A
330
20B93
100
AcDbEntity
  8
LAYER_1
 62
     3
370
     0
100
AcDbVertex
100
AcDb2dVertex
 10
66.44246905418384
 20
67.52297535584422
 30
0.0
  0
VERTEX
  5
20B9B
330
20B93
100
AcDbEntity
  8
LAYER_1
 62
     3
370
     0
100
AcDbVertex
100
AcDb2dVertex
 10
66.80709444035381
 20
67.15834996967425
 30
0.0
  0
VERTEX
  5
20B9C
330
20B93
100
AcDbEntity
  8
LAYER_1
 62
     3
370
     0
100
AcDbVertex
100
AcDb2dVertex
 10
67.53634521269379
 20
67.15834996967425
 30
0.0
  0
SEQEND
  5
20B9D
330
20B93
100
AcDbEntity
  8
LAYER_1
 62
     3
370
     0
  0
POLYLINE
  5
20B9E
330
202F2
100
AcDbEntity
  8
LAYER_1
 62
     3
370
     0
100
AcDb2dPolyline
 66
     1
 10
0.0
 20
0.0
 30
0.0
  0
VERTEX
  5
20B9F
330
20B9E
100
AcDbEntity
  8
LAYER_1
 62
     3
370
     0
100
AcDbVertex
100
AcDb2dVertex
 10
68.63022137120373
 20
67.15834996967425
 30
0.0
  0
VERTEX
  5
20BA0
330
20B9E
100
AcDbEntity
  8
LAYER_1
 62
     3
370
     0
100
AcDbVertex
100
AcDb2dVertex
 10
68.63022137120373
 20
68.61685151435416
 30
0.0
  0
SEQEND
  5
20BA1
330
20B9E
100
AcDbEntity
  8
LAYER_1
 62
     3
370
     0
  0
POLYLINE
  5
20BA2
330
202F2
100
AcDbEntity
  8
LAYER_1
 62
     3
370
     0
100
AcDb2dPolyline
 66
     1
 10
0.0
 20
0.0
 30
0.0
  0
VERTEX
  5
20BA3
330
20BA2
100
AcDbEntity
  8
LAYER_1
 62
     3
370
     0
100
AcDbVertex
100
AcDb2dVertex
 10
68.63022137120373
 20
68.98147690052415
 30
0.0
  0
VERTEX
  5
20BA4
330
20BA2
100
AcDbEntity
  8
LAYER_1
 62
     3
370
     0
100
AcDbVertex
100
AcDb2dVertex
 10
68.63022137120373
 20
69.34610228669413
 30
0.0
  0
SEQEND
  5
20BA5
330
20BA2
100
AcDbEntity
  8
LAYER_1
 62
     3
370
     0
  0
POLYLINE
  5
20BA6
330
202F2
100
AcDbEntity
  8
LAYER_1
 62
     3
370
     0
100
AcDb2dPolyline
 66
     1
 10
0.0
 20
0.0
 30
0.0
  0
VERTEX
  5
20BA7
330
20BA6
100
AcDbEntity
  8
LAYER_1
 62
     3
370
     0
100
AcDbVertex
100
AcDb2dVertex
 10
69.37683525717085
 20
67.15834996967425
 30
0.0
  0
VERTEX
  5
20BA8
330
20BA6
100
AcDbEntity
  8
LAYER_1
 62
     3
370
     0
100
AcDbVertex
100
AcDb2dVertex
 10
70.47071141568079
 20
67.15834996967425
 30
0.0
  0
VERTEX
  5
20BA9
330
20BA6
100
AcDbEntity
  8
LAYER_1
 62
     3
370
     0
100
AcDbVertex
100
AcDb2dVertex
 10
70.83533680185076
 20
67.52297535584422
 30
0.0
  0
VERTEX
  5
20BAA
330
20BA6
100
AcDbEntity
  8
LAYER_1
 62
     3
370
     0
100
AcDbVertex
100
AcDb2dVertex
 10
70.47071141568079
 20
67.88760074201421
 30
0.0
  0
VERTEX
  5
20BAB
330
20BA6
100
AcDbEntity
  8
LAYER_1
 62
     3
370
     0
100
AcDbVertex
100
AcDb2dVertex
 10
69.74146064334082
 20
67.88760074201421
 30
0.0
  0
VERTEX
  5
20BAC
330
20BA6
100
AcDbEntity
  8
LAYER_1
 62
     3
370
     0
100
AcDbVertex
100
AcDb2dVertex
 10
69.37683525717085
 20
68.25222612818419
 30
0.0
  0
VERTEX
  5
20BAD
330
20BA6
100
AcDbEntity
  8
LAYER_1
 62
     3
370
     0
100
AcDbVertex
100
AcDb2dVertex
 10
69.74146064334082
 20
68.61685151435416
 30
0.0
  0
VERTEX
  5
20BAE
330
20BA6
100
AcDbEntity
  8
LAYER_1
 62
     3
370
     0
100
AcDbVertex
100
AcDb2dVertex
 10
70.83533680185076
 20
68.61685151435416
 30
0.0
  0
SEQEND
  5
20BAF
330
20BA6
100
AcDbEntity
  8
LAYER_1
 62
     3
370
     0
  0
POLYLINE
  5
20BB0
330
202F2
100
AcDbEntity
  8
LAYER_1
 62
     3
370
     0
100
AcDb2dPolyline
 66
     1
 10
0.0
 20
0.0
 30
0.0
  0
VERTEX
  5
20BB1
330
20BB0
100
AcDbEntity
  8
LAYER_1
 62
     3
370
     0
100
AcDbVertex
100
AcDb2dVertex
 10
73.75233989121062
 20
68.25222612818419
 30
0.0
  0
VERTEX
  5
20BB2
330
20BB0
100
AcDbEntity
  8
LAYER_1
 62
     3
370
     0
100
AcDbVertex
100
AcDb2dVertex
 10
74.84621604972057
 20
68.25222612818419
 30
0.0
  0
SEQEND
  5
20BB3
330
20BB0
100
AcDbEntity
  8
LAYER_1
 62
     3
370
     0
  0
POLYLINE
  5
20BB4
330
202F2
100
AcDbEntity
  8
LAYER_1
 62
     3
370
     0
100
AcDb2dPolyline
 66
     1
 10
0.0
 20
0.0
 30
0.0
  0
VERTEX
  5
20BB5
330
20BB4
100
AcDbEntity
  8
LAYER_1
 62
     3
370
     0
100
AcDbVertex
100
AcDb2dVertex
 10
75.22820454951767
 20
68.98147690052415
 30
0.0
  0
VERTEX
  5
20BB6
330
20BB4
100
AcDbEntity
  8
LAYER_1
 62
     3
370
     0
100
AcDbVertex
100
AcDb2dVertex
 10
74.84621604972057
 20
69.34610228669413
 30
0.0
  0
VERTEX
  5
20BB7
330
20BB4
100
AcDbEntity
  8
LAYER_1
 62
     3
370
     0
100
AcDbVertex
100
AcDb2dVertex
 10
74.48159066355055
 20
69.34610228669413
 30
0.0
  0
VERTEX
  5
20BB8
330
20BB4
100
AcDbEntity
  8
LAYER_1
 62
     3
370
     0
100
AcDbVertex
100
AcDb2dVertex
 10
74.11696527738058
 20
68.98147690052415
 30
0.0
  0
VERTEX
  5
20BB9
330
20BB4
100
AcDbEntity
  8
LAYER_1
 62
     3
370
     0
100
AcDbVertex
100
AcDb2dVertex
 10
74.11696527738058
 20
67.15834996967425
 30
0.0
  0
SEQEND
  5
20BBA
330
20BB4
100
AcDbEntity
  8
LAYER_1
 62
     3
370
     0
  0
POLYLINE
  5
20BBB
330
202F2
100
AcDbEntity
  8
LAYER_1
 62
     3
370
     0
100
AcDb2dPolyline
 66
     1
 10
0.0
 20
0.0
 30
0.0
  0
VERTEX
  5
20BBC
330
20BBB
100
AcDbEntity
  8
LAYER_1
 62
     3
370
     0
100
AcDbVertex
100
AcDb2dVertex
 10
76.32208070802761
 20
69.34610228669413
 30
0.0
  0
VERTEX
  5
20BBD
330
20BBB
100
AcDbEntity
  8
LAYER_1
 62
     3
370
     0
100
AcDbVertex
100
AcDb2dVertex
 10
76.32208070802761
 20
68.98147690052415
 30
0.0
  0
SEQEND
  5
20BBE
330
20BBB
100
AcDbEntity
  8
LAYER_1
 62
     3
370
     0
  0
POLYLINE
  5
20BBF
330
202F2
100
AcDbEntity
  8
LAYER_1
 62
     3
370
     0
100
AcDb2dPolyline
 66
     1
 10
0.0
 20
0.0
 30
0.0
  0
VERTEX
  5
20BC0
330
20BBF
100
AcDbEntity
  8
LAYER_1
 62
     3
370
     0
100
AcDbVertex
100
AcDb2dVertex
 10
75.95745532185765
 20
68.61685151435416
 30
0.0
  0
VERTEX
  5
20BC1
330
20BBF
100
AcDbEntity
  8
LAYER_1
 62
     3
370
     0
100
AcDbVertex
100
AcDb2dVertex
 10
75.95745532185765
 20
67.52297535584422
 30
0.0
  0
VERTEX
  5
20BC2
330
20BBF
100
AcDbEntity
  8
LAYER_1
 62
     3
370
     0
100
AcDbVertex
100
AcDb2dVertex
 10
76.32208070802761
 20
67.15834996967425
 30
0.0
  0
VERTEX
  5
20BC3
330
20BBF
100
AcDbEntity
  8
LAYER_1
 62
     3
370
     0
100
AcDbVertex
100
AcDb2dVertex
 10
76.68670609419757
 20
67.15834996967425
 30
0.0
  0
VERTEX
  5
20BC4
330
20BBF
100
AcDbEntity
  8
LAYER_1
 62
     3
370
     0
100
AcDbVertex
100
AcDb2dVertex
 10
77.41595686653756
 20
67.88760074201421
 30
0.0
  0
SEQEND
  5
20BC5
330
20BBF
100
AcDbEntity
  8
LAYER_1
 62
     3
370
     0
  0
POLYLINE
  5
20BC6
330
202F2
100
AcDbEntity
  8
LAYER_1
 62
     3
370
     0
100
AcDb2dPolyline
 66
     1
 10
0.0
 20
0.0
 30
0.0
  0
VERTEX
  5
20BC7
330
20BC6
100
AcDbEntity
  8
LAYER_1
 62
     3
370
     0
100
AcDbVertex
100
AcDb2dVertex
 10
77.05133148036759
 20
69.34610228669413
 30
0.0
  0
VERTEX
  5
20BC8
330
20BC6
100
AcDbEntity
  8
LAYER_1
 62
     3
370
     0
100
AcDbVertex
100
AcDb2dVertex
 10
77.05133148036759
 20
68.98147690052415
 30
0.0
  0
SEQEND
  5
20BC9
330
20BC6
100
AcDbEntity
  8
LAYER_1
 62
     3
370
     0
  0
POLYLINE
  5
20BCA
330
202F2
100
AcDbEntity
  8
LAYER_1
 62
     3
370
     0
100
AcDb2dPolyline
 66
     1
 10
0.0
 20
0.0
 30
0.0
  0
VERTEX
  5
20BCB
330
20BCA
100
AcDbEntity
  8
LAYER_1
 62
     3
370
     0
100
AcDbVertex
100
AcDb2dVertex
 10
77.41595686653756
 20
68.61685151435416
 30
0.0
  0
VERTEX
  5
20BCC
330
20BCA
100
AcDbEntity
  8
LAYER_1
 62
     3
370
     0
100
AcDbVertex
100
AcDb2dVertex
 10
77.41595686653756
 20
67.15834996967425
 30
0.0
  0
SEQEND
  5
20BCD
330
20BCA
100
AcDbEntity
  8
LAYER_1
 62
     3
370
     0
  0
POLYLINE
  5
20BCE
330
202F2
100
AcDbEntity
  8
LAYER_1
 62
     3
370
     0
100
AcDb2dPolyline
 66
     1
 10
0.0
 20
0.0
 30
0.0
  0
VERTEX
  5
20BCF
330
20BCE
100
AcDbEntity
  8
LAYER_1
 62
     3
370
     0
100
AcDbVertex
100
AcDb2dVertex
 10
78.14520763887753
 20
67.15834996967425
 30
0.0
  0
VERTEX
  5
20BD0
330
20BCE
100
AcDbEntity
  8
LAYER_1
 62
     3
370
     0
100
AcDbVertex
100
AcDb2dVertex
 10
78.14520763887753
 20
68.61685151435416
 30
0.0
  0
SEQEND
  5
20BD1
330
20BCE
100
AcDbEntity
  8
LAYER_1
 62
     3
370
     0
  0
POLYLINE
  5
20BD2
330
202F2
100
AcDbEntity
  8
LAYER_1
 62
     3
370
     0
100
AcDb2dPolyline
 66
     1
 10
0.0
 20
0.0
 30
0.0
  0
VERTEX
  5
20BD3
330
20BD2
100
AcDbEntity
  8
LAYER_1
 62
     3
370
     0
100
AcDbVertex
100
AcDb2dVertex
 10
78.14520763887753
 20
67.88760074201421
 30
0.0
  0
VERTEX
  5
20BD4
330
20BD2
100
AcDbEntity
  8
LAYER_1
 62
     3
370
     0
100
AcDbVertex
100
AcDb2dVertex
 10
78.87445841121746
 20
68.61685151435416
 30
0.0
  0
VERTEX
  5
20BD5
330
20BD2
100
AcDbEntity
  8
LAYER_1
 62
     3
370
     0
100
AcDbVertex
100
AcDb2dVertex
 10
79.23908379738747
 20
68.61685151435416
 30
0.0
  0
VERTEX
  5
20BD6
330
20BD2
100
AcDbEntity
  8
LAYER_1
 62
     3
370
     0
100
AcDbVertex
100
AcDb2dVertex
 10
79.60370918355744
 20
68.25222612818419
 30
0.0
  0
SEQEND
  5
20BD7
330
20BD2
100
AcDbEntity
  8
LAYER_1
 62
     3
370
     0
  0
POLYLINE
  5
20BD8
330
202F2
100
AcDbEntity
  8
LAYER_1
 62
     3
370
     0
100
AcDb2dPolyline
 66
     1
 10
0.0
 20
0.0
 30
0.0
  0
VERTEX
  5
20BD9
330
20BD8
100
AcDbEntity
  8
LAYER_1
 62
     3
370
     0
100
AcDbVertex
100
AcDb2dVertex
 10
82.53807538654445
 20
67.15834996967425
 30
0.0
  0
VERTEX
  5
20BDA
330
20BD8
100
AcDbEntity
  8
LAYER_1
 62
     3
370
     0
100
AcDbVertex
100
AcDb2dVertex
 10
82.53807538654445
 20
67.88760074201421
 30
0.0
  0
VERTEX
  5
20BDB
330
20BD8
100
AcDbEntity
  8
LAYER_1
 62
     3
370
     0
100
AcDbVertex
100
AcDb2dVertex
 10
83.26732615888436
 20
69.34610228669413
 30
0.0
  0
VERTEX
  5
20BDC
330
20BD8
100
AcDbEntity
  8
LAYER_1
 62
     3
370
     0
100
AcDbVertex
100
AcDb2dVertex
 10
83.99657693122435
 20
67.88760074201421
 30
0.0
  0
VERTEX
  5
20BDD
330
20BD8
100
AcDbEntity
  8
LAYER_1
 62
     3
370
     0
100
AcDbVertex
100
AcDb2dVertex
 10
83.99657693122435
 20
67.15834996967425
 30
0.0
  0
SEQEND
  5
20BDE
330
20BD8
100
AcDbEntity
  8
LAYER_1
 62
     3
370
     0
  0
POLYLINE
  5
20BDF
330
202F2
100
AcDbEntity
  8
LAYER_1
 62
     3
370
     0
100
AcDb2dPolyline
 66
     1
 10
0.0
 20
0.0
 30
0.0
  0
VERTEX
  5
20BE0
330
20BDF
100
AcDbEntity
  8
LAYER_1
 62
     3
370
     0
100
AcDbVertex
100
AcDb2dVertex
 10
82.53807538654445
 20
67.88760074201421
 30
0.0
  0
VERTEX
  5
20BE1
330
20BDF
100
AcDbEntity
  8
LAYER_1
 62
     3
370
     0
100
AcDbVertex
100
AcDb2dVertex
 10
83.99657693122435
 20
67.88760074201421
 30
0.0
  0
SEQEND
  5
20BE2
330
20BDF
100
AcDbEntity
  8
LAYER_1
 62
     3
370
     0
  0
POLYLINE
  5
20BE3
330
202F2
100
AcDbEntity
  8
LAYER_1
 62
     3
370
     0
100
AcDb2dPolyline
 66
     1
 10
0.0
 20
0.0
 30
0.0
  0
VERTEX
  5
20BE4
330
20BE3
100
AcDbEntity
  8
LAYER_1
 62
     3
370
     0
100
AcDbVertex
100
AcDb2dVertex
 10
84.72582770356433
 20
68.61685151435416
 30
0.0
  0
VERTEX
  5
20BE5
330
20BE3
100
AcDbEntity
  8
LAYER_1
 62
     3
370
     0
100
AcDbVertex
100
AcDb2dVertex
 10
84.72582770356433
 20
67.52297535584422
 30
0.0
  0
VERTEX
  5
20BE6
330
20BE3
100
AcDbEntity
  8
LAYER_1
 62
     3
370
     0
100
AcDbVertex
100
AcDb2dVertex
 10
85.0904530897343
 20
67.15834996967425
 30
0.0
  0
VERTEX
  5
20BE7
330
20BE3
100
AcDbEntity
  8
LAYER_1
 62
     3
370
     0
100
AcDbVertex
100
AcDb2dVertex
 10
85.45507847590432
 20
67.15834996967425
 30
0.0
  0
VERTEX
  5
20BE8
330
20BE3
100
AcDbEntity
  8
LAYER_1
 62
     3
370
     0
100
AcDbVertex
100
AcDb2dVertex
 10
86.18432924824423
 20
67.88760074201421
 30
0.0
  0
SEQEND
  5
20BE9
330
20BE3
100
AcDbEntity
  8
LAYER_1
 62
     3
370
     0
  0
POLYLINE
  5
20BEA
330
202F2
100
AcDbEntity
  8
LAYER_1
 62
     3
370
     0
100
AcDb2dPolyline
 66
     1
 10
0.0
 20
0.0
 30
0.0
  0
VERTEX
  5
20BEB
330
20BEA
100
AcDbEntity
  8
LAYER_1
 62
     3
370
     0
100
AcDbVertex
100
AcDb2dVertex
 10
86.18432924824423
 20
68.61685151435416
 30
0.0
  0
VERTEX
  5
20BEC
330
20BEA
100
AcDbEntity
  8
LAYER_1
 62
     3
370
     0
100
AcDbVertex
100
AcDb2dVertex
 10
86.18432924824423
 20
67.15834996967425
 30
0.0
  0
SEQEND
  5
20BED
330
20BEA
100
AcDbEntity
  8
LAYER_1
 62
     3
370
     0
  0
POLYLINE
  5
20BEE
330
202F2
100
AcDbEntity
  8
LAYER_1
 62
     3
370
     0
100
AcDb2dPolyline
 66
     1
 10
0.0
 20
0.0
 30
0.0
  0
VERTEX
  5
20BEF
330
20BEE
100
AcDbEntity
  8
LAYER_1
 62
     3
370
     0
100
AcDbVertex
100
AcDb2dVertex
 10
86.91358002058422
 20
67.15834996967425
 30
0.0
  0
VERTEX
  5
20BF0
330
20BEE
100
AcDbEntity
  8
LAYER_1
 62
     3
370
     0
100
AcDbVertex
100
AcDb2dVertex
 10
88.02481929272131
 20
67.15834996967425
 30
0.0
  0
VERTEX
  5
20BF1
330
20BEE
100
AcDbEntity
  8
LAYER_1
 62
     3
370
     0
100
AcDbVertex
100
AcDb2dVertex
 10
88.38944467889126
 20
67.52297535584422
 30
0.0
  0
VERTEX
  5
20BF2
330
20BEE
100
AcDbEntity
  8
LAYER_1
 62
     3
370
     0
100
AcDbVertex
100
AcDb2dVertex
 10
88.02481929272131
 20
67.88760074201421
 30
0.0
  0
VERTEX
  5
20BF3
330
20BEE
100
AcDbEntity
  8
LAYER_1
 62
     3
370
     0
100
AcDbVertex
100
AcDb2dVertex
 10
87.27820540675418
 20
67.88760074201421
 30
0.0
  0
VERTEX
  5
20BF4
330
20BEE
100
AcDbEntity
  8
LAYER_1
 62
     3
370
     0
100
AcDbVertex
100
AcDb2dVertex
 10
86.91358002058422
 20
68.25222612818419
 30
0.0
  0
VERTEX
  5
20BF5
330
20BEE
100
AcDbEntity
  8
LAYER_1
 62
     3
370
     0
100
AcDbVertex
100
AcDb2dVertex
 10
87.27820540675418
 20
68.61685151435416
 30
0.0
  0
VERTEX
  5
20BF6
330
20BEE
100
AcDbEntity
  8
LAYER_1
 62
     3
370
     0
100
AcDbVertex
100
AcDb2dVertex
 10
88.38944467889126
 20
68.61685151435416
 30
0.0
  0
SEQEND
  5
20BF7
330
20BEE
100
AcDbEntity
  8
LAYER_1
 62
     3
370
     0
  0
POLYLINE
  5
20BF8
330
202F2
100
AcDbEntity
  8
LAYER_1
 62
     3
370
     0
100
AcDb2dPolyline
 66
     1
 10
0.0
 20
0.0
 30
0.0
  0
VERTEX
  5
20BF9
330
20BF8
100
AcDbEntity
  8
LAYER_1
 62
     3
370
     0
100
AcDbVertex
100
AcDb2dVertex
 10
89.11869545123124
 20
67.15834996967425
 30
0.0
  0
VERTEX
  5
20BFA
330
20BF8
100
AcDbEntity
  8
LAYER_1
 62
     3
370
     0
100
AcDbVertex
100
AcDb2dVertex
 10
90.21257160974119
 20
67.15834996967425
 30
0.0
  0
VERTEX
  5
20BFB
330
20BF8
100
AcDbEntity
  8
LAYER_1
 62
     3
370
     0
100
AcDbVertex
100
AcDb2dVertex
 10
90.57719699591116
 20
67.52297535584422
 30
0.0
  0
VERTEX
  5
20BFC
330
20BF8
100
AcDbEntity
  8
LAYER_1
 62
     3
370
     0
100
AcDbVertex
100
AcDb2dVertex
 10
90.21257160974119
 20
67.88760074201421
 30
0.0
  0
VERTEX
  5
20BFD
330
20BF8
100
AcDbEntity
  8
LAYER_1
 62
     3
370
     0
100
AcDbVertex
100
AcDb2dVertex
 10
89.48332083740121
 20
67.88760074201421
 30
0.0
  0
VERTEX
  5
20BFE
330
20BF8
100
AcDbEntity
  8
LAYER_1
 62
     3
370
     0
100
AcDbVertex
100
AcDb2dVertex
 10
89.11869545123124
 20
68.25222612818419
 30
0.0
  0
VERTEX
  5
20BFF
330
20BF8
100
AcDbEntity
  8
LAYER_1
 62
     3
370
     0
100
AcDbVertex
100
AcDb2dVertex
 10
89.48332083740121
 20
68.61685151435416
 30
0.0
  0
VERTEX
  5
20C00
330
20BF8
100
AcDbEntity
  8
LAYER_1
 62
     3
370
     0
100
AcDbVertex
100
AcDb2dVertex
 10
90.57719699591116
 20
68.61685151435416
 30
0.0
  0
SEQEND
  5
20C01
330
20BF8
100
AcDbEntity
  8
LAYER_1
 62
     3
370
     0
  0
POLYLINE
  5
20C02
330
202F2
100
AcDbEntity
  8
LAYER_1
 62
     3
370
     0
100
AcDb2dPolyline
 66
     1
 10
0.0
 20
0.0
 30
0.0
  0
VERTEX
  5
20C03
330
20C02
100
AcDbEntity
  8
LAYER_1
 62
     3
370
     0
100
AcDbVertex
100
AcDb2dVertex
 10
92.76494931293104
 20
68.61685151435416
 30
0.0
  0
VERTEX
  5
20C04
330
20C02
100
AcDbEntity
  8
LAYER_1
 62
     3
370
     0
100
AcDbVertex
100
AcDb2dVertex
 10
91.67107315442109
 20
68.61685151435416
 30
0.0
  0
VERTEX
  5
20C05
330
20C02
100
AcDbEntity
  8
LAYER_1
 62
     3
370
     0
100
AcDbVertex
100
AcDb2dVertex
 10
91.30644776825112
 20
68.25222612818419
 30
0.0
  0
VERTEX
  5
20C06
330
20C02
100
AcDbEntity
  8
LAYER_1
 62
     3
370
     0
100
AcDbVertex
100
AcDb2dVertex
 10
91.30644776825112
 20
67.52297535584422
 30
0.0
  0
VERTEX
  5
20C07
330
20C02
100
AcDbEntity
  8
LAYER_1
 62
     3
370
     0
100
AcDbVertex
100
AcDb2dVertex
 10
91.67107315442109
 20
67.15834996967425
 30
0.0
  0
VERTEX
  5
20C08
330
20C02
100
AcDbEntity
  8
LAYER_1
 62
     3
370
     0
100
AcDbVertex
100
AcDb2dVertex
 10
92.76494931293104
 20
67.15834996967425
 30
0.0
  0
SEQEND
  5
20C09
330
20C02
100
AcDbEntity
  8
LAYER_1
 62
     3
370
     0
  0
POLYLINE
  5
20C0A
330
202F2
100
AcDbEntity
  8
LAYER_1
 62
     3
370
     0
100
AcDb2dPolyline
 66
     1
 10
0.0
 20
0.0
 30
0.0
  0
VERTEX
  5
20C0B
330
20C0A
100
AcDbEntity
  8
LAYER_1
 62
     3
370
     0
100
AcDbVertex
100
AcDb2dVertex
 10
93.49420008527102
 20
67.15834996967425
 30
0.0
  0
VERTEX
  5
20C0C
330
20C0A
100
AcDbEntity
  8
LAYER_1
 62
     3
370
     0
100
AcDbVertex
100
AcDb2dVertex
 10
93.49420008527102
 20
69.34610228669413
 30
0.0
  0
SEQEND
  5
20C0D
330
20C0A
100
AcDbEntity
  8
LAYER_1
 62
     3
370
     0
  0
POLYLINE
  5
20C0E
330
202F2
100
AcDbEntity
  8
LAYER_1
 62
     3
370
     0
100
AcDb2dPolyline
 66
     1
 10
0.0
 20
0.0
 30
0.0
  0
VERTEX
  5
20C0F
330
20C0E
100
AcDbEntity
  8
LAYER_1
 62
     3
370
     0
100
AcDbVertex
100
AcDb2dVertex
 10
93.49420008527102
 20
67.88760074201421
 30
0.0
  0
VERTEX
  5
20C10
330
20C0E
100
AcDbEntity
  8
LAYER_1
 62
     3
370
     0
100
AcDbVertex
100
AcDb2dVertex
 10
94.24081397123813
 20
68.61685151435416
 30
0.0
  0
VERTEX
  5
20C11
330
20C0E
100
AcDbEntity
  8
LAYER_1
 62
     3
370
     0
100
AcDbVertex
100
AcDb2dVertex
 10
94.6054393574081
 20
68.61685151435416
 30
0.0
  0
VERTEX
  5
20C12
330
20C0E
100
AcDbEntity
  8
LAYER_1
 62
     3
370
     0
100
AcDbVertex
100
AcDb2dVertex
 10
94.97006474357807
 20
68.25222612818419
 30
0.0
  0
VERTEX
  5
20C13
330
20C0E
100
AcDbEntity
  8
LAYER_1
 62
     3
370
     0
100
AcDbVertex
100
AcDb2dVertex
 10
94.97006474357807
 20
67.15834996967425
 30
0.0
  0
SEQEND
  5
20C14
330
20C0E
100
AcDbEntity
  8
LAYER_1
 62
     3
370
     0
  0
POLYLINE
  5
20C15
330
202F2
100
AcDbEntity
  8
LAYER_1
 62
     3
370
     0
100
AcDb2dPolyline
 66
     1
 10
0.0
 20
0.0
 30
0.0
  0
VERTEX
  5
20C16
330
20C15
100
AcDbEntity
  8
LAYER_1
 62
     3
370
     0
100
AcDbVertex
100
AcDb2dVertex
 10
95.69931551591805
 20
67.15834996967425
 30
0.0
  0
VERTEX
  5
20C17
330
20C15
100
AcDbEntity
  8
LAYER_1
 62
     3
370
     0
100
AcDbVertex
100
AcDb2dVertex
 10
95.69931551591805
 20
68.61685151435416
 30
0.0
  0
SEQEND
  5
20C18
330
20C15
100
AcDbEntity
  8
LAYER_1
 62
     3
370
     0
  0
POLYLINE
  5
20C19
330
202F2
100
AcDbEntity
  8
LAYER_1
 62
     3
370
     0
100
AcDb2dPolyline
 66
     1
 10
0.0
 20
0.0
 30
0.0
  0
VERTEX
  5
20C1A
330
20C19
100
AcDbEntity
  8
LAYER_1
 62
     3
370
     0
100
AcDbVertex
100
AcDb2dVertex
 10
95.69931551591805
 20
67.88760074201421
 30
0.0
  0
VERTEX
  5
20C1B
330
20C19
100
AcDbEntity
  8
LAYER_1
 62
     3
370
     0
100
AcDbVertex
100
AcDb2dVertex
 10
96.42856628825803
 20
68.61685151435416
 30
0.0
  0
VERTEX
  5
20C1C
330
20C19
100
AcDbEntity
  8
LAYER_1
 62
     3
370
     0
100
AcDbVertex
100
AcDb2dVertex
 10
96.79319167442798
 20
68.61685151435416
 30
0.0
  0
VERTEX
  5
20C1D
330
20C19
100
AcDbEntity
  8
LAYER_1
 62
     3
370
     0
100
AcDbVertex
100
AcDb2dVertex
 10
97.15781706059795
 20
68.25222612818419
 30
0.0
  0
VERTEX
  5
20C1E
330
20C19
100
AcDbEntity
  8
LAYER_1
 62
     3
370
     0
100
AcDbVertex
100
AcDb2dVertex
 10
97.15781706059795
 20
67.15834996967425
 30
0.0
  0
SEQEND
  5
20C1F
330
20C19
100
AcDbEntity
  8
LAYER_1
 62
     3
370
     0
  0
POLYLINE
  5
20C20
330
202F2
100
AcDbEntity
  8
LAYER_1
 62
     3
370
     0
100
AcDb2dPolyline
 66
     1
 10
0.0
 20
0.0
 30
0.0
  0
VERTEX
  5
20C21
330
20C20
100
AcDbEntity
  8
LAYER_1
 62
     3
370
     0
100
AcDbVertex
100
AcDb2dVertex
 10
97.88706783293793
 20
67.15834996967425
 30
0.0
  0
VERTEX
  5
20C22
330
20C20
100
AcDbEntity
  8
LAYER_1
 62
     3
370
     0
100
AcDbVertex
100
AcDb2dVertex
 10
97.88706783293793
 20
68.61685151435416
 30
0.0
  0
SEQEND
  5
20C23
330
20C20
100
AcDbEntity
  8
LAYER_1
 62
     3
370
     0
  0
POLYLINE
  5
20C24
330
202F2
100
AcDbEntity
  8
LAYER_1
 62
     3
370
     0
100
AcDb2dPolyline
 66
     1
 10
0.0
 20
0.0
 30
0.0
  0
VERTEX
  5
20C25
330
20C24
100
AcDbEntity
  8
LAYER_1
 62
     3
370
     0
100
AcDbVertex
100
AcDb2dVertex
 10
97.88706783293793
 20
68.98147690052415
 30
0.0
  0
VERTEX
  5
20C26
330
20C24
100
AcDbEntity
  8
LAYER_1
 62
     3
370
     0
100
AcDbVertex
100
AcDb2dVertex
 10
97.88706783293793
 20
69.34610228669413
 30
0.0
  0
SEQEND
  5
20C27
330
20C24
100
AcDbEntity
  8
LAYER_1
 62
     3
370
     0
  0
POLYLINE
  5
20C28
330
202F2
100
AcDbEntity
  8
LAYER_1
 62
     3
370
     0
100
AcDb2dPolyline
 66
     1
 10
0.0
 20
0.0
 30
0.0
  0
VERTEX
  5
20C29
330
20C28
100
AcDbEntity
  8
LAYER_1
 62
     3
370
     0
100
AcDbVertex
100
AcDb2dVertex
 10
98.61631860527792
 20
68.61685151435416
 30
0.0
  0
VERTEX
  5
20C2A
330
20C28
100
AcDbEntity
  8
LAYER_1
 62
     3
370
     0
100
AcDbVertex
100
AcDb2dVertex
 10
100.0748201499578
 20
68.61685151435416
 30
0.0
  0
SEQEND
  5
20C2B
330
20C28
100
AcDbEntity
  8
LAYER_1
 62
     3
370
     0
  0
POLYLINE
  5
20C2C
330
202F2
100
AcDbEntity
  8
LAYER_1
 62
     3
370
     0
100
AcDb2dPolyline
 66
     1
 10
0.0
 20
0.0
 30
0.0
  0
VERTEX
  5
20C2D
330
20C2C
100
AcDbEntity
  8
LAYER_1
 62
     3
370
     0
100
AcDbVertex
100
AcDb2dVertex
 10
99.34556937761783
 20
69.34610228669413
 30
0.0
  0
VERTEX
  5
20C2E
330
20C2C
100
AcDbEntity
  8
LAYER_1
 62
     3
370
     0
100
AcDbVertex
100
AcDb2dVertex
 10
99.34556937761783
 20
67.52297535584422
 30
0.0
  0
VERTEX
  5
20C2F
330
20C2C
100
AcDbEntity
  8
LAYER_1
 62
     3
370
     0
100
AcDbVertex
100
AcDb2dVertex
 10
99.71019476378785
 20
67.15834996967425
 30
0.0
  0
VERTEX
  5
20C30
330
20C2C
100
AcDbEntity
  8
LAYER_1
 62
     3
370
     0
100
AcDbVertex
100
AcDb2dVertex
 10
100.0748201499578
 20
67.52297535584422
 30
0.0
  0
SEQEND
  5
20C31
330
20C2C
100
AcDbEntity
  8
LAYER_1
 62
     3
370
     0
  0
POLYLINE
  5
20C32
330
202F2
100
AcDbEntity
  8
LAYER_1
 62
     3
370
     0
100
AcDb2dPolyline
 66
     1
 10
0.0
 20
0.0
 30
0.0
  0
VERTEX
  5
20C33
330
20C32
100
AcDbEntity
  8
LAYER_1
 62
     3
370
     0
100
AcDbVertex
100
AcDb2dVertex
 10
100.8214340359249
 20
68.61685151435416
 30
0.0
  0
VERTEX
  5
20C34
330
20C32
100
AcDbEntity
  8
LAYER_1
 62
     3
370
     0
100
AcDbVertex
100
AcDb2dVertex
 10
102.2799355806048
 20
68.61685151435416
 30
0.0
  0
SEQEND
  5
20C35
330
20C32
100
AcDbEntity
  8
LAYER_1
 62
     3
370
     0
  0
POLYLINE
  5
20C36
330
202F2
100
AcDbEntity
  8
LAYER_1
 62
     3
370
     0
100
AcDb2dPolyline
 66
     1
 10
0.0
 20
0.0
 30
0.0
  0
VERTEX
  5
20C37
330
20C36
100
AcDbEntity
  8
LAYER_1
 62
     3
370
     0
100
AcDbVertex
100
AcDb2dVertex
 10
101.5506848082649
 20
69.34610228669413
 30
0.0
  0
VERTEX
  5
20C38
330
20C36
100
AcDbEntity
  8
LAYER_1
 62
     3
370
     0
100
AcDbVertex
100
AcDb2dVertex
 10
101.5506848082649
 20
67.52297535584422
 30
0.0
  0
VERTEX
  5
20C39
330
20C36
100
AcDbEntity
  8
LAYER_1
 62
     3
370
     0
100
AcDbVertex
100
AcDb2dVertex
 10
101.9153101944348
 20
67.15834996967425
 30
0.0
  0
VERTEX
  5
20C3A
330
20C36
100
AcDbEntity
  8
LAYER_1
 62
     3
370
     0
100
AcDbVertex
100
AcDb2dVertex
 10
102.2799355806048
 20
67.52297535584422
 30
0.0
  0
SEQEND
  5
20C3B
330
20C36
100
AcDbEntity
  8
LAYER_1
 62
     3
370
     0
  0
POLYLINE
  5
20C3C
330
202F2
100
AcDbEntity
  8
LAYER_1
 62
     3
370
     0
100
AcDb2dPolyline
 66
     1
 10
0.0
 20
0.0
 30
0.0
  0
VERTEX
  5
20C3D
330
20C3C
100
AcDbEntity
  8
LAYER_1
 62
     3
370
     0
100
AcDbVertex
100
AcDb2dVertex
 10
105.1969386699647
 20
67.15834996967425
 30
0.0
  0
VERTEX
  5
20C3E
330
20C3C
100
AcDbEntity
  8
LAYER_1
 62
     3
370
     0
100
AcDbVertex
100
AcDb2dVertex
 10
105.1969386699647
 20
69.34610228669413
 30
0.0
  0
VERTEX
  5
20C3F
330
20C3C
100
AcDbEntity
  8
LAYER_1
 62
     3
370
     0
100
AcDbVertex
100
AcDb2dVertex
 10
106.2908148284746
 20
69.34610228669413
 30
0.0
  0
VERTEX
  5
20C40
330
20C3C
100
AcDbEntity
  8
LAYER_1
 62
     3
370
     0
100
AcDbVertex
100
AcDb2dVertex
 10
106.6554402146446
 20
68.98147690052415
 30
0.0
  0
VERTEX
  5
20C41
330
20C3C
100
AcDbEntity
  8
LAYER_1
 62
     3
370
     0
100
AcDbVertex
100
AcDb2dVertex
 10
106.6554402146446
 20
68.61685151435416
 30
0.0
  0
VERTEX
  5
20C42
330
20C3C
100
AcDbEntity
  8
LAYER_1
 62
     3
370
     0
100
AcDbVertex
100
AcDb2dVertex
 10
106.2908148284746
 20
68.25222612818419
 30
0.0
  0
VERTEX
  5
20C43
330
20C3C
100
AcDbEntity
  8
LAYER_1
 62
     3
370
     0
100
AcDbVertex
100
AcDb2dVertex
 10
105.1969386699647
 20
68.25222612818419
 30
0.0
  0
SEQEND
  5
20C44
330
20C3C
100
AcDbEntity
  8
LAYER_1
 62
     3
370
     0
  0
POLYLINE
  5
20C45
330
202F2
100
AcDbEntity
  8
LAYER_1
 62
     3
370
     0
100
AcDb2dPolyline
 66
     1
 10
0.0
 20
0.0
 30
0.0
  0
VERTEX
  5
20C46
330
20C45
100
AcDbEntity
  8
LAYER_1
 62
     3
370
     0
100
AcDbVertex
100
AcDb2dVertex
 10
105.5615640561347
 20
68.25222612818419
 30
0.0
  0
VERTEX
  5
20C47
330
20C45
100
AcDbEntity
  8
LAYER_1
 62
     3
370
     0
100
AcDbVertex
100
AcDb2dVertex
 10
106.6554402146446
 20
67.15834996967425
 30
0.0
  0
SEQEND
  5
20C48
330
20C45
100
AcDbEntity
  8
LAYER_1
 62
     3
370
     0
  0
POLYLINE
  5
20C49
330
202F2
100
AcDbEntity
  8
LAYER_1
 62
     3
370
     0
100
AcDb2dPolyline
 66
     1
 10
0.0
 20
0.0
 30
0.0
  0
VERTEX
  5
20C4A
330
20C49
100
AcDbEntity
  8
LAYER_1
 62
     3
370
     0
100
AcDbVertex
100
AcDb2dVertex
 10
107.7666794867817
 20
69.34610228669413
 30
0.0
  0
VERTEX
  5
20C4B
330
20C49
100
AcDbEntity
  8
LAYER_1
 62
     3
370
     0
100
AcDbVertex
100
AcDb2dVertex
 10
107.7666794867817
 20
68.98147690052415
 30
0.0
  0
SEQEND
  5
20C4C
330
20C49
100
AcDbEntity
  8
LAYER_1
 62
     3
370
     0
  0
POLYLINE
  5
20C4D
330
202F2
100
AcDbEntity
  8
LAYER_1
 62
     3
370
     0
100
AcDb2dPolyline
 66
     1
 10
0.0
 20
0.0
 30
0.0
  0
VERTEX
  5
20C4E
330
20C4D
100
AcDbEntity
  8
LAYER_1
 62
     3
370
     0
100
AcDbVertex
100
AcDb2dVertex
 10
107.4020541006117
 20
68.61685151435416
 30
0.0
  0
VERTEX
  5
20C4F
330
20C4D
100
AcDbEntity
  8
LAYER_1
 62
     3
370
     0
100
AcDbVertex
100
AcDb2dVertex
 10
107.4020541006117
 20
67.52297535584422
 30
0.0
  0
VERTEX
  5
20C50
330
20C4D
100
AcDbEntity
  8
LAYER_1
 62
     3
370
     0
100
AcDbVertex
100
AcDb2dVertex
 10
107.7666794867817
 20
67.15834996967425
 30
0.0
  0
VERTEX
  5
20C51
330
20C4D
100
AcDbEntity
  8
LAYER_1
 62
     3
370
     0
100
AcDbVertex
100
AcDb2dVertex
 10
108.1313048729517
 20
67.15834996967425
 30
0.0
  0
VERTEX
  5
20C52
330
20C4D
100
AcDbEntity
  8
LAYER_1
 62
     3
370
     0
100
AcDbVertex
100
AcDb2dVertex
 10
108.8605556452916
 20
67.88760074201421
 30
0.0
  0
SEQEND
  5
20C53
330
20C4D
100
AcDbEntity
  8
LAYER_1
 62
     3
370
     0
  0
POLYLINE
  5
20C54
330
202F2
100
AcDbEntity
  8
LAYER_1
 62
     3
370
     0
100
AcDb2dPolyline
 66
     1
 10
0.0
 20
0.0
 30
0.0
  0
VERTEX
  5
20C55
330
20C54
100
AcDbEntity
  8
LAYER_1
 62
     3
370
     0
100
AcDbVertex
100
AcDb2dVertex
 10
108.4959302591216
 20
69.34610228669413
 30
0.0
  0
VERTEX
  5
20C56
330
20C54
100
AcDbEntity
  8
LAYER_1
 62
     3
370
     0
100
AcDbVertex
100
AcDb2dVertex
 10
108.4959302591216
 20
68.98147690052415
 30
0.0
  0
SEQEND
  5
20C57
330
20C54
100
AcDbEntity
  8
LAYER_1
 62
     3
370
     0
  0
POLYLINE
  5
20C58
330
202F2
100
AcDbEntity
  8
LAYER_1
 62
     3
370
     0
100
AcDb2dPolyline
 66
     1
 10
0.0
 20
0.0
 30
0.0
  0
VERTEX
  5
20C59
330
20C58
100
AcDbEntity
  8
LAYER_1
 62
     3
370
     0
100
AcDbVertex
100
AcDb2dVertex
 10
108.8605556452916
 20
68.61685151435416
 30
0.0
  0
VERTEX
  5
20C5A
330
20C58
100
AcDbEntity
  8
LAYER_1
 62
     3
370
     0
100
AcDbVertex
100
AcDb2dVertex
 10
108.8605556452916
 20
67.15834996967425
 30
0.0
  0
SEQEND
  5
20C5B
330
20C58
100
AcDbEntity
  8
LAYER_1
 62
     3
370
     0
  0
POLYLINE
  5
20C5C
330
202F2
100
AcDbEntity
  8
LAYER_1
 62
     3
370
     0
100
AcDb2dPolyline
 66
     1
 10
0.0
 20
0.0
 30
0.0
  0
VERTEX
  5
20C5D
330
20C5C
100
AcDbEntity
  8
LAYER_1
 62
     3
370
     0
100
AcDbVertex
100
AcDb2dVertex
 10
111.0483079623115
 20
68.61685151435416
 30
0.0
  0
VERTEX
  5
20C5E
330
20C5C
100
AcDbEntity
  8
LAYER_1
 62
     3
370
     0
100
AcDbVertex
100
AcDb2dVertex
 10
109.9544318038016
 20
68.61685151435416
 30
0.0
  0
VERTEX
  5
20C5F
330
20C5C
100
AcDbEntity
  8
LAYER_1
 62
     3
370
     0
100
AcDbVertex
100
AcDb2dVertex
 10
109.5898064176316
 20
68.25222612818419
 30
0.0
  0
VERTEX
  5
20C60
330
20C5C
100
AcDbEntity
  8
LAYER_1
 62
     3
370
     0
100
AcDbVertex
100
AcDb2dVertex
 10
109.5898064176316
 20
67.52297535584422
 30
0.0
  0
VERTEX
  5
20C61
330
20C5C
100
AcDbEntity
  8
LAYER_1
 62
     3
370
     0
100
AcDbVertex
100
AcDb2dVertex
 10
109.9544318038016
 20
67.15834996967425
 30
0.0
  0
VERTEX
  5
20C62
330
20C5C
100
AcDbEntity
  8
LAYER_1
 62
     3
370
     0
100
AcDbVertex
100
AcDb2dVertex
 10
111.0483079623115
 20
67.15834996967425
 30
0.0
  0
SEQEND
  5
20C63
330
20C5C
100
AcDbEntity
  8
LAYER_1
 62
     3
370
     0
  0
POLYLINE
  5
20C64
330
202F2
100
AcDbEntity
  8
LAYER_1
 62
     3
370
     0
100
AcDb2dPolyline
 66
     1
 10
0.0
 20
0.0
 30
0.0
  0
VERTEX
  5
20C65
330
20C64
100
AcDbEntity
  8
LAYER_1
 62
     3
370
     0
100
AcDbVertex
100
AcDb2dVertex
 10
111.7775587346515
 20
67.15834996967425
 30
0.0
  0
VERTEX
  5
20C66
330
20C64
100
AcDbEntity
  8
LAYER_1
 62
     3
370
     0
100
AcDbVertex
100
AcDb2dVertex
 10
111.7775587346515
 20
69.34610228669413
 30
0.0
  0
SEQEND
  5
20C67
330
20C64
100
AcDbEntity
  8
LAYER_1
 62
     3
370
     0
  0
POLYLINE
  5
20C68
330
202F2
100
AcDbEntity
  8
LAYER_1
 62
     3
370
     0
100
AcDb2dPolyline
 66
     1
 10
0.0
 20
0.0
 30
0.0
  0
VERTEX
  5
20C69
330
20C68
100
AcDbEntity
  8
LAYER_1
 62
     3
370
     0
100
AcDbVertex
100
AcDb2dVertex
 10
111.7775587346515
 20
67.88760074201421
 30
0.0
  0
VERTEX
  5
20C6A
330
20C68
100
AcDbEntity
  8
LAYER_1
 62
     3
370
     0
100
AcDbVertex
100
AcDb2dVertex
 10
112.5068095069915
 20
67.88760074201421
 30
0.0
  0
VERTEX
  5
20C6B
330
20C68
100
AcDbEntity
  8
LAYER_1
 62
     3
370
     0
100
AcDbVertex
100
AcDb2dVertex
 10
113.2360602793314
 20
68.61685151435416
 30
0.0
  0
SEQEND
  5
20C6C
330
20C68
100
AcDbEntity
  8
LAYER_1
 62
     3
370
     0
  0
POLYLINE
  5
20C6D
330
202F2
100
AcDbEntity
  8
LAYER_1
 62
     3
370
     0
100
AcDb2dPolyline
 66
     1
 10
0.0
 20
0.0
 30
0.0
  0
VERTEX
  5
20C6E
330
20C6D
100
AcDbEntity
  8
LAYER_1
 62
     3
370
     0
100
AcDbVertex
100
AcDb2dVertex
 10
112.5068095069915
 20
67.88760074201421
 30
0.0
  0
VERTEX
  5
20C6F
330
20C6D
100
AcDbEntity
  8
LAYER_1
 62
     3
370
     0
100
AcDbVertex
100
AcDb2dVertex
 10
113.2360602793314
 20
67.15834996967425
 30
0.0
  0
SEQEND
  5
20C70
330
20C6D
100
AcDbEntity
  8
LAYER_1
 62
     3
370
     0
  0
POLYLINE
  5
20C71
330
202F2
100
AcDbEntity
  8
LAYER_1
 62
     3
370
     0
100
AcDb2dPolyline
 66
     1
 10
0.0
 20
0.0
 30
0.0
  0
VERTEX
  5
20C72
330
20C71
100
AcDbEntity
  8
LAYER_1
 62
     3
370
     0
100
AcDbVertex
100
AcDb2dVertex
 10
113.9826741652985
 20
67.15834996967425
 30
0.0
  0
VERTEX
  5
20C73
330
20C71
100
AcDbEntity
  8
LAYER_1
 62
     3
370
     0
100
AcDbVertex
100
AcDb2dVertex
 10
115.0765503238085
 20
67.15834996967425
 30
0.0
  0
VERTEX
  5
20C74
330
20C71
100
AcDbEntity
  8
LAYER_1
 62
     3
370
     0
100
AcDbVertex
100
AcDb2dVertex
 10
115.4411757099784
 20
67.52297535584422
 30
0.0
  0
VERTEX
  5
20C75
330
20C71
100
AcDbEntity
  8
LAYER_1
 62
     3
370
     0
100
AcDbVertex
100
AcDb2dVertex
 10
115.0765503238085
 20
67.88760074201421
 30
0.0
  0
VERTEX
  5
20C76
330
20C71
100
AcDbEntity
  8
LAYER_1
 62
     3
370
     0
100
AcDbVertex
100
AcDb2dVertex
 10
114.3472995514685
 20
67.88760074201421
 30
0.0
  0
VERTEX
  5
20C77
330
20C71
100
AcDbEntity
  8
LAYER_1
 62
     3
370
     0
100
AcDbVertex
100
AcDb2dVertex
 10
113.9826741652985
 20
68.25222612818419
 30
0.0
  0
VERTEX
  5
20C78
330
20C71
100
AcDbEntity
  8
LAYER_1
 62
     3
370
     0
100
AcDbVertex
100
AcDb2dVertex
 10
114.3472995514685
 20
68.61685151435416
 30
0.0
  0
VERTEX
  5
20C79
330
20C71
100
AcDbEntity
  8
LAYER_1
 62
     3
370
     0
100
AcDbVertex
100
AcDb2dVertex
 10
115.4411757099784
 20
68.61685151435416
 30
0.0
  0
SEQEND
  5
20C7A
330
20C71
100
AcDbEntity
  8
LAYER_1
 62
     3
370
     0
  0
POLYLINE
  5
20C7B
330
202F2
100
AcDbEntity
  8
LAYER_1
 62
     3
370
     0
100
AcDb2dPolyline
 66
     1
 10
0.0
 20
0.0
 30
0.0
  0
VERTEX
  5
20C7C
330
20C7B
100
AcDbEntity
  8
LAYER_1
 62
     3
370
     0
100
AcDbVertex
100
AcDb2dVertex
 10
116.1704264823184
 20
67.88760074201421
 30
0.0
  0
VERTEX
  5
20C7D
330
20C7B
100
AcDbEntity
  8
LAYER_1
 62
     3
370
     0
100
AcDbVertex
100
AcDb2dVertex
 10
117.2643026408283
 20
67.88760074201421
 30
0.0
  0
VERTEX
  5
20C7E
330
20C7B
100
AcDbEntity
  8
LAYER_1
 62
     3
370
     0
100
AcDbVertex
100
AcDb2dVertex
 10
117.6289280269984
 20
68.25222612818419
 30
0.0
  0
VERTEX
  5
20C7F
330
20C7B
100
AcDbEntity
  8
LAYER_1
 62
     3
370
     0
100
AcDbVertex
100
AcDb2dVertex
 10
117.2643026408283
 20
68.61685151435416
 30
0.0
  0
VERTEX
  5
20C80
330
20C7B
100
AcDbEntity
  8
LAYER_1
 62
     3
370
     0
100
AcDbVertex
100
AcDb2dVertex
 10
116.5350518684884
 20
68.61685151435416
 30
0.0
  0
VERTEX
  5
20C81
330
20C7B
100
AcDbEntity
  8
LAYER_1
 62
     3
370
     0
100
AcDbVertex
100
AcDb2dVertex
 10
116.1704264823184
 20
68.25222612818419
 30
0.0
  0
VERTEX
  5
20C82
330
20C7B
100
AcDbEntity
  8
LAYER_1
 62
     3
370
     0
100
AcDbVertex
100
AcDb2dVertex
 10
116.1704264823184
 20
67.52297535584422
 30
0.0
  0
VERTEX
  5
20C83
330
20C7B
100
AcDbEntity
  8
LAYER_1
 62
     3
370
     0
100
AcDbVertex
100
AcDb2dVertex
 10
116.5350518684884
 20
67.15834996967425
 30
0.0
  0
VERTEX
  5
20C84
330
20C7B
100
AcDbEntity
  8
LAYER_1
 62
     3
370
     0
100
AcDbVertex
100
AcDb2dVertex
 10
117.2643026408283
 20
67.15834996967425
 30
0.0
  0
SEQEND
  5
20C85
330
20C7B
100
AcDbEntity
  8
LAYER_1
 62
     3
370
     0
  0
POLYLINE
  5
20C86
330
202F2
100
AcDbEntity
  8
LAYER_1
 62
     3
370
     0
100
AcDb2dPolyline
 66
     1
 10
0.0
 20
0.0
 30
0.0
  0
VERTEX
  5
20C87
330
20C86
100
AcDbEntity
  8
LAYER_1
 62
     3
370
     0
100
AcDbVertex
100
AcDb2dVertex
 10
118.3581787993383
 20
67.15834996967425
 30
0.0
  0
VERTEX
  5
20C88
330
20C86
100
AcDbEntity
  8
LAYER_1
 62
     3
370
     0
100
AcDbVertex
100
AcDb2dVertex
 10
118.3581787993383
 20
68.61685151435416
 30
0.0
  0
SEQEND
  5
20C89
330
20C86
100
AcDbEntity
  8
LAYER_1
 62
     3
370
     0
  0
POLYLINE
  5
20C8A
330
202F2
100
AcDbEntity
  8
LAYER_1
 62
     3
370
     0
100
AcDb2dPolyline
 66
     1
 10
0.0
 20
0.0
 30
0.0
  0
VERTEX
  5
20C8B
330
20C8A
100
AcDbEntity
  8
LAYER_1
 62
     3
370
     0
100
AcDbVertex
100
AcDb2dVertex
 10
118.3581787993383
 20
68.98147690052415
 30
0.0
  0
VERTEX
  5
20C8C
330
20C8A
100
AcDbEntity
  8
LAYER_1
 62
     3
370
     0
100
AcDbVertex
100
AcDb2dVertex
 10
118.3581787993383
 20
69.34610228669413
 30
0.0
  0
SEQEND
  5
20C8D
330
20C8A
100
AcDbEntity
  8
LAYER_1
 62
     3
370
     0
  0
POLYLINE
  5
20C8E
330
202F2
100
AcDbEntity
  8
LAYER_1
 62
     3
370
     0
100
AcDb2dPolyline
 66
     1
 10
0.0
 20
0.0
 30
0.0
  0
VERTEX
  5
20C8F
330
20C8E
100
AcDbEntity
  8
LAYER_1
 62
     3
370
     0
100
AcDbVertex
100
AcDb2dVertex
 10
119.0874295716783
 20
68.61685151435416
 30
0.0
  0
VERTEX
  5
20C90
330
20C8E
100
AcDbEntity
  8
LAYER_1
 62
     3
370
     0
100
AcDbVertex
100
AcDb2dVertex
 10
120.5632942299853
 20
68.61685151435416
 30
0.0
  0
SEQEND
  5
20C91
330
20C8E
100
AcDbEntity
  8
LAYER_1
 62
     3
370
     0
  0
POLYLINE
  5
20C92
330
202F2
100
AcDbEntity
  8
LAYER_1
 62
     3
370
     0
100
AcDb2dPolyline
 66
     1
 10
0.0
 20
0.0
 30
0.0
  0
VERTEX
  5
20C93
330
20C92
100
AcDbEntity
  8
LAYER_1
 62
     3
370
     0
100
AcDbVertex
100
AcDb2dVertex
 10
119.8340434576454
 20
69.34610228669413
 30
0.0
  0
VERTEX
  5
20C94
330
20C92
100
AcDbEntity
  8
LAYER_1
 62
     3
370
     0
100
AcDbVertex
100
AcDb2dVertex
 10
119.8340434576454
 20
67.52297535584422
 30
0.0
  0
VERTEX
  5
20C95
330
20C92
100
AcDbEntity
  8
LAYER_1
 62
     3
370
     0
100
AcDbVertex
100
AcDb2dVertex
 10
120.1986688438154
 20
67.15834996967425
 30
0.0
  0
VERTEX
  5
20C96
330
20C92
100
AcDbEntity
  8
LAYER_1
 62
     3
370
     0
100
AcDbVertex
100
AcDb2dVertex
 10
120.5632942299853
 20
67.52297535584422
 30
0.0
  0
SEQEND
  5
20C97
330
20C92
100
AcDbEntity
  8
LAYER_1
 62
     3
370
     0
  0
POLYLINE
  5
20C98
330
202F2
100
AcDbEntity
  8
LAYER_1
 62
     3
370
     0
100
AcDb2dPolyline
 66
     1
 10
0.0
 20
0.0
 30
0.0
  0
VERTEX
  5
20C99
330
20C98
100
AcDbEntity
  8
LAYER_1
 62
     3
370
     0
100
AcDbVertex
100
AcDb2dVertex
 10
121.2925450023253
 20
67.88760074201421
 30
0.0
  0
VERTEX
  5
20C9A
330
20C98
100
AcDbEntity
  8
LAYER_1
 62
     3
370
     0
100
AcDbVertex
100
AcDb2dVertex
 10
122.3864211608352
 20
67.88760074201421
 30
0.0
  0
VERTEX
  5
20C9B
330
20C98
100
AcDbEntity
  8
LAYER_1
 62
     3
370
     0
100
AcDbVertex
100
AcDb2dVertex
 10
122.7510465470052
 20
68.25222612818419
 30
0.0
  0
VERTEX
  5
20C9C
330
20C98
100
AcDbEntity
  8
LAYER_1
 62
     3
370
     0
100
AcDbVertex
100
AcDb2dVertex
 10
122.3864211608352
 20
68.61685151435416
 30
0.0
  0
VERTEX
  5
20C9D
330
20C98
100
AcDbEntity
  8
LAYER_1
 62
     3
370
     0
100
AcDbVertex
100
AcDb2dVertex
 10
121.6571703884953
 20
68.61685151435416
 30
0.0
  0
VERTEX
  5
20C9E
330
20C98
100
AcDbEntity
  8
LAYER_1
 62
     3
370
     0
100
AcDbVertex
100
AcDb2dVertex
 10
121.2925450023253
 20
68.25222612818419
 30
0.0
  0
VERTEX
  5
20C9F
330
20C98
100
AcDbEntity
  8
LAYER_1
 62
     3
370
     0
100
AcDbVertex
100
AcDb2dVertex
 10
121.2925450023253
 20
67.52297535584422
 30
0.0
  0
VERTEX
  5
20CA0
330
20C98
100
AcDbEntity
  8
LAYER_1
 62
     3
370
     0
100
AcDbVertex
100
AcDb2dVertex
 10
121.6571703884953
 20
67.15834996967425
 30
0.0
  0
VERTEX
  5
20CA1
330
20C98
100
AcDbEntity
  8
LAYER_1
 62
     3
370
     0
100
AcDbVertex
100
AcDb2dVertex
 10
122.3864211608352
 20
67.15834996967425
 30
0.0
  0
SEQEND
  5
20CA2
330
20C98
100
AcDbEntity
  8
LAYER_1
 62
     3
370
     0
  0
POLYLINE
  5
20CA3
330
202F2
100
AcDbEntity
  8
LAYER_1
 62
     3
370
     0
100
AcDb2dPolyline
 66
     1
 10
0.0
 20
0.0
 30
0.0
  0
VERTEX
  5
20CA4
330
20CA3
100
AcDbEntity
  8
LAYER_1
 62
     3
370
     0
100
AcDbVertex
100
AcDb2dVertex
 10
123.4802973193452
 20
67.15834996967425
 30
0.0
  0
VERTEX
  5
20CA5
330
20CA3
100
AcDbEntity
  8
LAYER_1
 62
     3
370
     0
100
AcDbVertex
100
AcDb2dVertex
 10
123.4802973193452
 20
67.52297535584422
 30
0.0
  0
SEQEND
  5
20CA6
330
20CA3
100
AcDbEntity
  8
LAYER_1
 62
     3
370
     0
  0
LWPOLYLINE
  5
20CB4
330
202F2
100
AcDbEntity
  8
LAYER_1
100
AcDbPolyline
 90
        8
 70
     1
 43
0.0
 10
345.0
 20
55.0
 10
195.0
 20
55.0
 42
0.4142135623730951
 10
190.0
 20
50.0
 10
190.0
 20
10.0
 42
0.4142135623730951
 10
195.0
 20
5.0
 10
345.0
 20
5.0
 42
0.4142135623730951
 10
350.0
 20
10.0
 10
350.0
 20
50.0
 42
0.4142135623730951
  0
LWPOLYLINE
  5
20CB5
330
202F2
100
AcDbEntity
  8
LAYER_1
100
AcDbPolyline
 90
        8
 70
     1
 43
0.0
 10
160.0
 20
55.25000000000002
 10
10.0
 20
55.25000000000002
 42
0.4142135623730951
 10
4.75
 20
50.00000000000002
 10
4.75
 20
10.00000000000002
 42
0.4142135623730951
 10
10.0
 20
4.750000000000021
 10
160.0
 20
4.750000000000021
 42
0.4142135623730951
 10
165.25
 20
10.00000000000002
 10
165.25
 20
50.00000000000002
 42
0.4142135623730951
  0
LINE
  5
20CE1
330
202F2
100
AcDbEntity
  8
LAYER_1
100
AcDbLine
 10
51.33086054657955
 20
60.0
 30
0.0
 11
55.33086054657955
 21
60.0
 31
0.0
  0
LWPOLYLINE
  5
20CE5
330
202F2
100
AcDbEntity
  8
Ausschnitt Rückseite
100
AcDbPolyline
 90
        8
 70
     0
 43
0.0
 10
55.33086054657955
 20
60.0
 10
55.33086054657955
 20
67.0
 42
0.4142135623730951
 10
49.33086054657955
 20
73.0
 10
24.87334743593365
 20
73.0
 42
1.0
 10
24.87334743593365
 20
-13.0
 10
49.33086054657955
 20
-13.0
 42
0.4142135623730951
 10
55.33086054657955
 20
-7.0
 10
55.33086054657955
 20
0.0
  0
LWPOLYLINE
  5
20CFC
330
202F2
100
AcDbEntity
  8
LAYER_1
100
AcDbPolyline
 90
        4
 70
     1
 43
0.0
 10
192.0
 20
148.2311967635981
 10
302.0
 20
148.2311967635981
 10
302.0
 20
88.0
 10
192.0
 20
88.0
  0
LWPOLYLINE
  5
20D01
330
202F2
100
AcDbEntity
  8
LAYER_1
100
AcDbPolyline
 90
        4
 70
     1
 43
0.0
 10
304.0002308637375
 20
158.2311967635981
 10
384.0002308637374
 20
158.2311967635981
 10
384.0002308637374
 20
78.23119676359812
 10
304.0002308637375
 20
78.23119676359812
  0
ENDSEC
  0
SECTION
  2
OBJECTS
  0
DICTIONARY
  5
2028F
330
0
100
AcDbDictionary
281
     1
  3
ACAD_CIP_PREVIOUS_PRODUCT_INFO
350
2031B
  3
ACAD_COLOR
350
202E5
  3
ACAD_DETAILVIEWSTYLE
350
202EC
  3
ACAD_GROUP
350
20290
  3
ACAD_LAYOUT
350
202E4
  3
ACAD_MATERIAL
350
20293
  3
ACAD_MLEADERSTYLE
350
202E8
  3
ACAD_MLINESTYLE
350
202E1
  3
ACAD_PLOTSETTINGS
350
202E3
  3
ACAD_PLOTSTYLENAME
350
20291
  3
ACAD_SCALELIST
350
202C5
  3
ACAD_SECTIONVIEWSTYLE
350
202EA
  3
ACAD_TABLESTYLE
350
202E6
  3
ACAD_VISUALSTYLE
350
202AC
  3
ACDB_RECOMPOSE_DATA
350
20D0B
  3
AcDbVariableDictionary
350
20CA7
  0
DICTIONARY
  5
20367
330
20285
100
AcDbDictionary
280
     1
281
     1
  3
ACAD_LAYERSTATES
360
20368
  0
DICTIONARY
  5
2033E
330
202D7
100
AcDbDictionary
280
     1
281
     1
  3
ADSK_XREC_LAYER_RECONCILED
360
2033F
  0
DICTIONARY
  5
20340
330
202F6
100
AcDbDictionary
280
     1
281
     1
  3
ADSK_XREC_LAYER_RECONCILED
360
20341
  0
DICTIONARY
  5
20342
330
20331
100
AcDbDictionary
280
     1
281
     1
  3
ADSK_XREC_LAYER_RECONCILED
360
20343
  0
DICTIONARY
  5
20335
330
202F2
100
AcDbDictionary
280
     1
281
     1
  3
ACAD_SORTENTS
360
20336
  0
XRECORD
  5
2031B
102
{ACAD_REACTORS
330
2028F
102
}
330
2028F
100
AcDbXrecord
280
     1
300
ACD
300
2023
300

  0
DICTIONARY
  5
202E5
102
{ACAD_REACTORS
330
2028F
102
}
330
2028F
100
AcDbDictionary
281
     1
  0
DICTIONARY
  5
202EC
102
{ACAD_REACTORS
330
2028F
102
}
330
2028F
100
AcDbDictionary
281
     1
  3
Imperial24
350
202ED
  0
DICTIONARY
  5
20290
102
{ACAD_REACTORS
330
2028F
102
}
330
2028F
100
AcDbDictionary
281
     1
  0
DICTIONARY
  5
202E4
102
{ACAD_REACTORS
330
2028F
102
}
330
2028F
100
AcDbDictionary
281
     1
  3
Layout1
350
202F1
  3
Model
350
202F5
  0
DICTIONARY
  5
20293
102
{ACAD_REACTORS
330
2028F
102
}
330
2028F
100
AcDbDictionary
281
     1
  3
ByBlock
350
2029C
  3
ByLayer
350
20294
  3
Global
350
202A4
  0
DICTIONARY
  5
202E8
102
{ACAD_REACTORS
330
2028F
102
}
330
2028F
100
AcDbDictionary
281
     1
  3
Standard
350
202E9
  0
DICTIONARY
  5
202E1
102
{ACAD_REACTORS
330
2028F
102
}
330
2028F
100
AcDbDictionary
281
     1
  3
Standard
350
202E2
  0
DICTIONARY
  5
202E3
102
{ACAD_REACTORS
330
2028F
102
}
330
2028F
100
AcDbDictionary
281
     1
  0
ACDBDICTIONARYWDFLT
  5
20291
102
{ACAD_REACTORS
330
2028F
102
}
330
2028F
100
AcDbDictionary
281
     1
  3
Normal
350
20292
100
AcDbDictionaryWithDefault
340
20292
  0
DICTIONARY
  5
202C5
102
{ACAD_REACTORS
330
2028F
102
}
330
2028F
100
AcDbDictionary
281
     1
  3
A0
350
202C6
  3
A1
350
202C7
  3
A2
350
202C8
  3
A3
350
202C9
  3
A4
350
202CA
  3
A5
350
202CB
  3
A6
350
202CC
  3
A7
350
202CD
  3
A8
350
202CE
  3
A9
350
202CF
  3
B0
350
202D0
  3
B1
350
202D1
  3
B2
350
202D2
  3
B3
350
202D3
  3
B4
350
202D4
  3
B5
350
202D5
  3
B6
350
202D6
  0
DICTIONARY
  5
202EA
102
{ACAD_REACTORS
330
2028F
102
}
330
2028F
100
AcDbDictionary
281
     1
  3
Imperial24
350
202EB
  0
DICTIONARY
  5
202E6
102
{ACAD_REACTORS
330
2028F
102
}
330
2028F
100
AcDbDictionary
281
     1
  3
Standard
350
202E7
  0
DICTIONARY
  5
202AC
102
{ACAD_REACTORS
330
2028F
102
}
330
2028F
100
AcDbDictionary
281
     1
  3
2dWireframe
350
202B2
  3
Basic
350
202B1
  3
Brighten
350
202B8
  3
ColorChange
350
202BC
  3
Conceptual
350
202B5
  3
Dim
350
202B7
  3
EdgeColorOff
350
202C4
  3
Facepattern
350
202BB
  3
Flat
350
202AD
  3
FlatWithEdges
350
202AE
  3
Gouraud
350
202AF
  3
GouraudWithEdges
350
202B0
  3
Hidden
350
202B4
  3
JitterOff
350
202C2
  3
Linepattern
350
202BA
  3
OverhangOff
350
202C3
  3
Realistic
350
202B6
  3
Shaded
350
202C1
  3
Shaded with edges
350
202C0
  3
Shades of Gray
350
202BD
  3
Sketchy
350
202BE
  3
Thicken
350
202B9
  3
Wireframe
350
202B3
  3
X-Ray
350
202BF
  0
XRECORD
  5
20D0B
102
{ACAD_REACTORS
330
2028F
102
}
330
2028F
100
AcDbXrecord
280
     1
 90
        1
330
202E7
  0
DICTIONARY
  5
20CA7
102
{ACAD_REACTORS
330
2028F
102
}
330
2028F
100
AcDbDictionary
281
     1
  3
CANNOSCALE
350
20CAD
  3
CMLEADERSTYLE
350
20CA9
  3
CTABLESTYLE
350
20CA8
  3
CVIEWDETAILSTYLE
350
20CAA
  3
CVIEWSECTIONSTYLE
350
20CAB
  3
LAYEREVAL
350
20CAF
  3
LAYERNOTIFY
350
20CB0
  3
LIGHTINGUNITS
350
20CAE
  3
MSLTSCALE
350
20CAC
  0
DICTIONARY
  5
20368
102
{ACAD_REACTORS
330
20367
102
}
330
20367
100
AcDbDictionary
281
     1
  0
XRECORD
  5
2033F
102
{ACAD_REACTORS
330
2033E
102
}
330
2033E
100
AcDbXrecord
280
     1
290
     1
  0
XRECORD
  5
20341
102
{ACAD_REACTORS
330
20340
102
}
330
20340
100
AcDbXrecord
280
     1
290
     1
  0
XRECORD
  5
20343
102
{ACAD_REACTORS
330
20342
102
}
330
20342
100
AcDbXrecord
280
     1
290
     1
  0
SORTENTSTABLE
  5
20336
102
{ACAD_REACTORS
330
20335
102
}
330
20335
100
AcDbSortentsTable
330
202F2
331
20213
  5
20323
331
20214
  5
20334
331
20215
  5
20337
331
20216
  5
2033D
331
2021D
  5
20352
331
2022E
  5
20353
331
20352
  5
20583
331
20353
  5
20587
331
20583
  5
2058B
331
20587
  5
20596
331
2058B
  5
205A0
331
20596
  5
205A4
331
205A0
  5
205AA
331
205A4
  5
205AE
331
205AA
  5
205B2
331
205AE
  5
205BD
331
205B2
  5
205C1
331
205BD
  5
205CC
331
205C1
  5
205D0
331
205CC
  5
205D6
331
205D0
  5
205DC
331
205D6
  5
205E0
331
205DC
  5
205E6
331
205E0
  5
205EC
331
205E6
  5
205F9
331
205EC
  5
205FD
331
205F9
  5
20603
331
205FD
  5
20609
331
20603
  5
2060D
331
20609
  5
20611
331
2060D
  5
20619
331
20611
  5
20627
331
20619
  5
20632
331
20627
  5
20636
331
20632
  5
2063C
331
20636
  5
20647
331
2063C
  5
2064B
331
20647
  5
20651
331
2064B
  5
20658
331
20651
  5
2065C
331
20658
  5
20663
331
2065C
  5
20667
331
20663
  5
20671
331
20667
  5
2067B
331
20671
  5
20683
331
2067B
  5
20687
331
20683
  5
2068E
331
20687
  5
20692
331
2068E
  5
20699
331
20692
  5
2069D
331
20699
  5
206A1
331
2069D
  5
206A5
331
206A1
  5
206AB
331
206A5
  5
206AF
331
206AB
  5
206B5
331
206AF
  5
206B9
331
206B5
  5
206C0
331
206B9
  5
206C4
331
206C0
  5
206CB
331
206C4
  5
206CF
331
206CB
  5
206D3
331
206CF
  5
206D7
331
206D3
  5
206DD
331
206D7
  5
206E1
331
206DD
  5
206EB
331
206E1
  5
206F6
331
206EB
  5
20700
331
206F6
  5
2070A
331
20700
  5
20715
331
2070A
  5
20719
331
20715
  5
2071F
331
20719
  5
2072A
331
2071F
  5
20733
331
2072A
  5
2073E
331
20733
  5
20742
331
2073E
  5
2074C
331
20742
  5
20756
331
2074C
  5
2075A
331
20756
  5
20761
331
2075A
  5
2076C
331
20761
  5
20770
331
2076C
  5
20776
331
20770
  5
2077A
331
20776
  5
20780
331
2077A
  5
20786
331
20780
  5
20A21
331
20786
  5
20A26
331
20A21
  5
20A31
331
20A26
  5
20A35
331
20A31
  5
20A3B
331
20A35
  5
20A48
331
20A3B
  5
20A4C
331
20A48
  5
20A52
331
20A4C
  5
20A58
331
20A52
  5
20A5C
331
20A58
  5
20A60
331
20A5C
  5
20A68
331
20A60
  5
20A76
331
20A68
  5
20A81
331
20A76
  5
20A85
331
20A81
  5
20A8B
331
20A85
  5
20A92
331
20A8B
  5
20A96
331
20A92
  5
20A9A
331
20A96
  5
20AA1
331
20A9A
  5
20AAE
331
20AA1
  5
20AB8
331
20AAE
  5
20ABC
331
20AB8
  5
20AC7
331
20ABC
  5
20ACB
331
20AC7
  5
20AD1
331
20ACB
  5
20ADB
331
20AD1
  5
20ADF
331
20ADB
  5
20AE5
331
20ADF
  5
20AE9
331
20AE5
  5
20AED
331
20AE9
  5
20AF1
331
20AED
  5
20AF8
331
20AF1
  5
20AFC
331
20AF8
  5
20B03
331
20AFC
  5
20B07
331
20B03
  5
20B0D
331
20B07
  5
20B13
331
20B0D
  5
20B1A
331
20B13
  5
20B1E
331
20B1A
  5
20B23
331
20B1E
  5
20B2D
331
20B23
  5
20B31
331
20B2D
  5
20B3C
331
20B31
  5
20B40
331
20B3C
  5
20B47
331
20B40
  5
20B4B
331
20B47
  5
20B51
331
20B4B
  5
20B5C
331
20B51
  5
20B63
331
20B5C
  5
20B67
331
20B63
  5
20B72
331
20B67
  5
20B76
331
20B72
  5
20B7C
331
20B76
  5
20B80
331
20B7C
  5
20B85
331
20B80
  5
20B89
331
20B85
  5
20B8D
331
20B89
  5
20B93
331
20B8D
  5
20B9E
331
20B93
  5
20BA2
331
20B9E
  5
20BA6
331
20BA2
  5
20BB0
331
20BA6
  5
20BB4
331
20BB0
  5
20BBB
331
20BB4
  5
20BBF
331
20BBB
  5
20BC6
331
20BBF
  5
20BCA
331
20BC6
  5
20BCE
331
20BCA
  5
20BD2
331
20BCE
  5
20BD8
331
20BD2
  5
20BDF
331
20BD8
  5
20BE3
331
20BDF
  5
20BEA
331
20BE3
  5
20BEE
331
20BEA
  5
20BF8
331
20BEE
  5
20C02
331
20BF8
  5
20C0A
331
20C02
  5
20C0E
331
20C0A
  5
20C15
331
20C0E
  5
20C19
331
20C15
  5
20C20
331
20C19
  5
20C24
331
20C20
  5
20C28
331
20C24
  5
20C2C
331
20C28
  5
20C32
331
20C2C
  5
20C36
331
20C32
  5
20C3C
331
20C36
  5
20C45
331
20C3C
  5
20C49
331
20C45
  5
20C4D
331
20C49
  5
20C54
331
20C4D
  5
20C58
331
20C54
  5
20C5C
331
20C58
  5
20C64
331
20C5C
  5
20C68
331
20C64
  5
20C6D
331
20C68
  5
20C71
331
20C6D
  5
20C7B
331
20C71
  5
20C86
331
20C7B
  5
20C8A
331
20C86
  5
20C8E
331
20C8A
  5
20C92
331
20C8E
  5
20C98
331
20C92
  5
20CA3
331
20C98
  5
20CB4
331
20CA3
  5
20CB5
331
20CB4
  5
20CCA
331
20CB5
  5
20CD2
331
20CE1
  5
20CE5
331
20CE5
  5
20CE7
  0
ACDBDETAILVIEWSTYLE
  5
202ED
102
{ACAD_REACTORS
330
202EC
102
}
330
202EC
100
AcDbModelDocViewStyle
 70
     0
  3
Imperial24
290
     0
300
Imperial24
 90
        0
100
AcDbDetailViewStyle
 70
     0
 71
     0
 90
        3
 71
     1
340
202D8
 62
   256
 40
0.24
340
0
 62
   256
 40
0.24
300

 40
0.36
280
     3
 71
     2
340
202DF
 90
       25
 62
   256
 71
     3
340
202D8
 62
   256
 40
0.24
 90
        1
 40
0.75
 90
        1
300
%<\AcVar ViewType \f "%tc1">% %<\AcVar ViewDetailId>%\PSCALE %<\AcVar ViewScale \f "%sn">%
 71
     4
340
202DF
 90
       25
 62
   256
340
202DF
 90
       25
 62
   256
280
     0
  0
LAYOUT
  5
202F1
102
{ACAD_REACTORS
330
202E4
102
}
330
202E4
100
AcDbPlotSettings
  1

  2
Brother MFC-J5730DW Printer
  4

  6

 40
0.0
 41
0.0
 42
0.0
 43
0.0
 44
0.0
 45
0.0
 46
0.0
 47
0.0
 48
0.0
 49
0.0
140
0.0
141
0.0
142
1.0
143
1.0
 70
   688
 72
     0
 73
     0
 74
     5
  7

 75
    16
147
1.0
 76
     0
 77
     2
 78
   300
148
0.0
149
0.0
100
AcDbLayout
  1
Layout1
 70
     1
 71
     1
 10
0.0
 20
0.0
 11
210.0
 21
297.0
 12
0.0
 22
0.0
 32
0.0
 14
0.0
 24
0.0
 34
0.0
 15
0.0
 25
0.0
 35
0.0
146
0.0
 13
0.0
 23
0.0
 33
0.0
 16
1.0
 26
0.0
 36
0.0
 17
0.0
 27
1.0
 37
0.0
 76
     0
330
202EE
  0
LAYOUT
  5
202F5
102
{ACAD_REACTORS
330
202E4
102
}
330
202E4
100
AcDbPlotSettings
  1

  2
Brother MFC-J5730DW Printer
  4

  6

 40
0.0
 41
0.0
 42
0.0
 43
0.0
 44
0.0
 45
0.0
 46
0.0
 47
0.0
 48
0.0
 49
0.0
140
0.0
141
0.0
142
1.0
143
1.0
 70
  1712
 72
     0
 73
     0
 74
     0
  7

 75
     0
147
1.0
 76
     0
 77
     2
 78
   300
148
0.0
149
0.0
100
AcDbLayout
  1
Model
 70
     1
 71
     0
 10
0.0
 20
0.0
 11
12.0
 21
9.0
 12
0.0
 22
0.0
 32
0.0
 14
0.0
 24
0.0
 34
0.0
 15
0.0
 25
0.0
 35
0.0
146
0.0
 13
0.0
 23
0.0
 33
0.0
 16
1.0
 26
0.0
 36
0.0
 17
0.0
 27
1.0
 37
0.0
 76
     0
330
202F2
331
202F7
  0
MATERIAL
  5
2029C
102
{ACAD_XDICTIONARY
360
2029D
102
}
102
{ACAD_REACTORS
330
20293
102
}
330
20293
100
AcDbMaterial
  1
ByBlock
 72
     0
 43
0.0208333333333333
 43
0.0
 43
0.0
 43
0.0
 43
0.0
 43
0.0208333333333333
 43
0.0
 43
0.0
 43
0.0
 43
0.0
 43
1.0
 43
0.0
 43
0.0
 43
0.0
 43
0.0
 43
1.0
 77
     0
 47
0.0208333333333333
 47
0.0
 47
0.0
 47
0.0
 47
0.0
 47
0.0208333333333333
 47
0.0
 47
0.0
 47
0.0
 47
0.0
 47
1.0
 47
0.0
 47
0.0
 47
0.0
 47
0.0
 47
1.0
171
     0
 49
0.0208333333333333
 49
0.0
 49
0.0
 49
0.0
 49
0.0
 49
0.0208333333333333
 49
0.0
 49
0.0
 49
0.0
 49
0.0
 49
1.0
 49
0.0
 49
0.0
 49
0.0
 49
0.0
 49
1.0
175
     0
142
0.0208333333333333
142
0.0
142
0.0
142
0.0
142
0.0
142
0.0208333333333333
142
0.0
142
0.0
142
0.0
142
0.0
142
1.0
142
0.0
142
0.0
142
0.0
142
0.0
142
1.0
179
     0
144
0.0208333333333333
144
0.0
144
0.0
144
0.0
144
0.0
144
0.0208333333333333
144
0.0
144
0.0
144
0.0
144
0.0
144
1.0
144
0.0
144
0.0
144
0.0
144
0.0
144
1.0
147
0.0208333333333333
147
0.0
147
0.0
147
0.0
147
0.0
147
0.0208333333333333
147
0.0
147
0.0
147
0.0
147
0.0
147
1.0
147
0.0
147
0.0
147
0.0
147
0.0
147
1.0
  0
MATERIAL
  5
20294
102
{ACAD_XDICTIONARY
360
20295
102
}
102
{ACAD_REACTORS
330
20293
102
}
330
20293
100
AcDbMaterial
  1
ByLayer
 72
     0
 43
0.0208333333333333
 43
0.0
 43
0.0
 43
0.0
 43
0.0
 43
0.0208333333333333
 43
0.0
 43
0.0
 43
0.0
 43
0.0
 43
1.0
 43
0.0
 43
0.0
 43
0.0
 43
0.0
 43
1.0
 77
     0
 47
0.0208333333333333
 47
0.0
 47
0.0
 47
0.0
 47
0.0
 47
0.0208333333333333
 47
0.0
 47
0.0
 47
0.0
 47
0.0
 47
1.0
 47
0.0
 47
0.0
 47
0.0
 47
0.0
 47
1.0
171
     0
 49
0.0208333333333333
 49
0.0
 49
0.0
 49
0.0
 49
0.0
 49
0.0208333333333333
 49
0.0
 49
0.0
 49
0.0
 49
0.0
 49
1.0
 49
0.0
 49
0.0
 49
0.0
 49
0.0
 49
1.0
175
     0
142
0.0208333333333333
142
0.0
142
0.0
142
0.0
142
0.0
142
0.0208333333333333
142
0.0
142
0.0
142
0.0
142
0.0
142
1.0
142
0.0
142
0.0
142
0.0
142
0.0
142
1.0
179
     0
144
0.0208333333333333
144
0.0
144
0.0
144
0.0
144
0.0
144
0.0208333333333333
144
0.0
144
0.0
144
0.0
144
0.0
144
1.0
144
0.0
144
0.0
144
0.0
144
0.0
144
1.0
147
0.0208333333333333
147
0.0
147
0.0
147
0.0
147
0.0
147
0.0208333333333333
147
0.0
147
0.0
147
0.0
147
0.0
147
1.0
147
0.0
147
0.0
147
0.0
147
0.0
147
1.0
  0
MATERIAL
  5
202A4
102
{ACAD_XDICTIONARY
360
202A5
102
}
102
{ACAD_REACTORS
330
20293
102
}
330
20293
100
AcDbMaterial
  1
Global
 72
     0
 43
0.0208333333333333
 43
0.0
 43
0.0
 43
0.0
 43
0.0
 43
0.0208333333333333
 43
0.0
 43
0.0
 43
0.0
 43
0.0
 43
1.0
 43
0.0
 43
0.0
 43
0.0
 43
0.0
 43
1.0
 77
     0
 47
0.0208333333333333
 47
0.0
 47
0.0
 47
0.0
 47
0.0
 47
0.0208333333333333
 47
0.0
 47
0.0
 47
0.0
 47
0.0
 47
1.0
 47
0.0
 47
0.0
 47
0.0
 47
0.0
 47
1.0
171
     0
 49
0.0208333333333333
 49
0.0
 49
0.0
 49
0.0
 49
0.0
 49
0.0208333333333333
 49
0.0
 49
0.0
 49
0.0
 49
0.0
 49
1.0
 49
0.0
 49
0.0
 49
0.0
 49
0.0
 49
1.0
175
     0
142
0.0208333333333333
142
0.0
142
0.0
142
0.0
142
0.0
142
0.0208333333333333
142
0.0
142
0.0
142
0.0
142
0.0
142
1.0
142
0.0
142
0.0
142
0.0
142
0.0
142
1.0
179
     0
144
0.0208333333333333
144
0.0
144
0.0
144
0.0
144
0.0
144
0.0208333333333333
144
0.0
144
0.0
144
0.0
144
0.0
144
1.0
144
0.0
144
0.0
144
0.0
144
0.0
144
1.0
147
0.0208333333333333
147
0.0
147
0.0
147
0.0
147
0.0
147
0.0208333333333333
147
0.0
147
0.0
147
0.0
147
0.0
147
1.0
147
0.0
147
0.0
147
0.0
147
0.0
147
1.0
  0
MLEADERSTYLE
  5
202E9
102
{ACAD_REACTORS
330
202E8
102
}
330
202E8
100
AcDbMLeaderStyle
179
     2
170
     2
171
     1
172
     0
 90
        2
 40
0.0
 41
0.0
173
     1
 91
-1056964608
340
202DD
 92
       -2
290
     1
 42
0.09
291
     1
 43
0.36
  3
Standard
 44
0.18
300

342
202D8
174
     1
178
     6
175
     1
176
     0
 93
-1056964608
 45
0.18
292
     0
297
     0
 46
0.18
 94
-1056964608
 47
1.0
 49
1.0
140
1.0
293
     1
141
0.0
294
     1
177
     0
142
1.0
295
     0
296
     0
143
0.125
271
     0
272
     9
273
     9
298
     0
  0
MLINESTYLE
  5
202E2
102
{ACAD_REACTORS
330
202E1
102
}
330
202E1
100
AcDbMlineStyle
  2
STANDARD
 70
     0
  3

 62
   256
 51
90.0
 52
90.0
 71
     2
 49
0.5
 62
   256
  6
BYLAYER
 49
-0.5
 62
   256
  6
BYLAYER
  0
ACDBPLACEHOLDER
  5
20292
102
{ACAD_REACTORS
330
20291
102
}
330
20291
  0
SCALE
  5
202C6
102
{ACAD_REACTORS
330
202C5
102
}
330
202C5
100
AcDbScale
 70
     0
300
1:1
140
1.0
141
1.0
290
     1
  0
SCALE
  5
202C7
102
{ACAD_REACTORS
330
202C5
102
}
330
202C5
100
AcDbScale
 70
     0
300
1/128" = 1'-0"
140
0.0078125
141
12.0
290
     0
  0
SCALE
  5
202C8
102
{ACAD_REACTORS
330
202C5
102
}
330
202C5
100
AcDbScale
 70
     0
300
1/64" = 1'-0"
140
0.015625
141
12.0
290
     0
  0
SCALE
  5
202C9
102
{ACAD_REACTORS
330
202C5
102
}
330
202C5
100
AcDbScale
 70
     0
300
1/32" = 1'-0"
140
0.03125
141
12.0
290
     0
  0
SCALE
  5
202CA
102
{ACAD_REACTORS
330
202C5
102
}
330
202C5
100
AcDbScale
 70
     0
300
1/16" = 1'-0"
140
0.0625
141
12.0
290
     0
  0
SCALE
  5
202CB
102
{ACAD_REACTORS
330
202C5
102
}
330
202C5
100
AcDbScale
 70
     0
300
3/32" = 1'-0"
140
0.09375
141
12.0
290
     0
  0
SCALE
  5
202CC
102
{ACAD_REACTORS
330
202C5
102
}
330
202C5
100
AcDbScale
 70
     0
300
1/8" = 1'-0"
140
0.125
141
12.0
290
     0
  0
SCALE
  5
202CD
102
{ACAD_REACTORS
330
202C5
102
}
330
202C5
100
AcDbScale
 70
     0
300
3/16" = 1'-0"
140
0.1875
141
12.0
290
     0
  0
SCALE
  5
202CE
102
{ACAD_REACTORS
330
202C5
102
}
330
202C5
100
AcDbScale
 70
     0
300
1/4" = 1'-0"
140
0.25
141
12.0
290
     0
  0
SCALE
  5
202CF
102
{ACAD_REACTORS
330
202C5
102
}
330
202C5
100
AcDbScale
 70
     0
300
3/8" = 1'-0"
140
0.375
141
12.0
290
     0
  0
SCALE
  5
202D0
102
{ACAD_REACTORS
330
202C5
102
}
330
202C5
100
AcDbScale
 70
     0
300
1/2" = 1'-0"
140
0.5
141
12.0
290
     0
  0
SCALE
  5
202D1
102
{ACAD_REACTORS
330
202C5
102
}
330
202C5
100
AcDbScale
 70
     0
300
3/4" = 1'-0"
140
0.75
141
12.0
290
     0
  0
SCALE
  5
202D2
102
{ACAD_REACTORS
330
202C5
102
}
330
202C5
100
AcDbScale
 70
     0
300
1" = 1'-0"
140
1.0
141
12.0
290
     0
  0
SCALE
  5
202D3
102
{ACAD_REACTORS
330
202C5
102
}
330
202C5
100
AcDbScale
 70
     0
300
1-1/2" = 1'-0"
140
1.5
141
12.0
290
     0
  0
SCALE
  5
202D4
102
{ACAD_REACTORS
330
202C5
102
}
330
202C5
100
AcDbScale
 70
     0
300
3" = 1'-0"
140
3.0
141
12.0
290
     0
  0
SCALE
  5
202D5
102
{ACAD_REACTORS
330
202C5
102
}
330
202C5
100
AcDbScale
 70
     0
300
6" = 1'-0"
140
6.0
141
12.0
290
     0
  0
SCALE
  5
202D6
102
{ACAD_REACTORS
330
202C5
102
}
330
202C5
100
AcDbScale
 70
     0
300
1'-0" = 1'-0"
140
12.0
141
12.0
290
     0
  0
ACDBSECTIONVIEWSTYLE
  5
202EB
102
{ACAD_REACTORS
330
202EA
102
}
330
202EA
100
AcDbModelDocViewStyle
 70
     0
  3
Imperial24
290
     0
300
Imperial24
 90
        0
100
AcDbSectionViewStyle
 70
     0
 71
     0
 90
       78
 71
     1
340
202D8
 62
   256
 40
0.24
340
0
340
0
 62
   256
 40
0.24
300
I, O, Q, S, X, Z
 40
0.48
 90
        3
 40
0.18
 90
        1
 71
     2
340
202DF
 90
       25
 62
   256
340
202DF
 90
       50
 62
   256
 40
0.24
 40
0.0
 40
0.24
 71
     3
340
202D8
 62
   256
 40
0.24
 90
        1
 40
0.75
 90
        1
300
%<\AcVar ViewType \f "%tc1">% %<\AcVar ViewSectionStartId>%-%<\AcVar ViewSectionEndId>%\PSCALE %<\AcVar ViewScale \f "%sn">%
 71
     4
 62
   256
 62
   257
300
ANSI31
 40
1.0
 90
        0
290
     0
290
     0
 90
        6
 40
0.0
 40
1.570796326794896
 40
0.2617993877991494
 40
1.308996938995747
 40
-0.2617993877991494
 40
1.832595714594046
  0
TABLESTYLE
  5
202E7
102
{ACAD_XDICTIONARY
360
20D09
102
}
102
{ACAD_REACTORS
330
202E6
102
}
330
202E6
100
AcDbTableStyle
280
     0
  3
Standard
 70
     0
 71
     0
 40
0.06
 41
0.06
280
     0
281
     0
  7
STANDARD
140
0.18
170
     2
 62
     0
 63
     7
283
     0
 90
      512
 91
        0
  1

274
    -2
284
     1
 64
     0
275
    -2
285
     1
 65
     0
276
    -2
286
     1
 66
     0
277
    -2
287
     1
 67
     0
278
    -2
288
     1
 68
     0
279
    -2
289
     1
 69
     0
  7
STANDARD
140
0.25
170
     5
 62
     0
 63
     7
283
     0
 90
      512
 91
        0
  1

274
    -2
284
     1
 64
     0
275
    -2
285
     1
 65
     0
276
    -2
286
     1
 66
     0
277
    -2
287
     1
 67
     0
278
    -2
288
     1
 68
     0
279
    -2
289
     1
 69
     0
  7
STANDARD
140
0.18
170
     5
 62
     0
 63
     7
283
     0
 90
      512
 91
        0
  1

274
    -2
284
     1
 64
     0
275
    -2
285
     1
 65
     0
276
    -2
286
     1
 66
     0
277
    -2
287
     1
 67
     0
278
    -2
288
     1
 68
     0
279
    -2
289
     1
 69
     0
  0
VISUALSTYLE
  5
202B2
102
{ACAD_REACTORS
330
202AC
102
}
330
202AC
100
AcDbVisualStyle
  2
2dWireframe
 70
     4
177
     3
291
     0
 70
    58
 90
        0
176
     1
 90
        2
176
     1
 90
        0
176
     1
 90
        0
176
     1
 40
0.6
176
     1
 40
30.0
176
     1
 62
     7
420
 16777215
176
     1
 90
        1
176
     1
 90
        4
176
     1
 62
     7
176
     1
 62
   257
176
     1
 90
        1
176
     1
 90
        1
176
     1
 40
1.0
176
     1
 90
        0
176
     1
 62
   257
176
     1
 40
1.0
176
     1
 90
        1
176
     1
 90
        6
176
     1
 90
        2
176
     1
 62
     7
176
     1
 90
        5
176
     1
 90
        0
176
     1
 90
        0
176
     1
290
     0
176
     1
 90
        1
176
     1
 40
0.0
176
     1
 90
        0
176
     1
290
     1
176
     1
290
     1
176
     1
290
     0
176
     1
290
     0
176
     1
290
     0
176
     1
290
     0
176
     1
290
     0
176
     1
290
     0
176
     1
290
     0
176
     1
 90
       50
176
     1
 40
0.0
176
     1
 40
1.0
176
     1
 90
        0
176
     1
 62
    18
420
        0
176
     1
 90
       50
176
     1
 90
        3
176
     1
 62
     5
420
      255
176
     1
290
     0
176
     1
 90
       50
176
     1
 90
       50
176
     1
 90
       50
176
     1
290
     0
176
     1
 90
       50
176
     1
 62
   256
176
     0
 40
1.0
176
     0
 90
        2
176
     1
  1
strokes_ogs.tif
176
     1
290
     0
176
     1
 40
1.0
176
     1
 40
1.0
176
     1
  0
VISUALSTYLE
  5
202B1
102
{ACAD_REACTORS
330
202AC
102
}
330
202AC
100
AcDbVisualStyle
  2
Basic
 70
     7
177
     3
291
     1
 70
    58
 90
        1
176
     1
 90
        0
176
     1
 90
        1
176
     1
 90
        0
176
     1
 40
0.6
176
     1
 40
30.0
176
     1
 62
     7
420
 16777215
176
     1
 90
        0
176
     1
 90
        4
176
     1
 62
     7
176
     1
 62
   257
176
     1
 90
        1
176
     1
 90
        1
176
     1
 40
1.0
176
     1
 90
        8
176
     1
 62
     7
176
     1
 40
1.0
176
     1
 90
        1
176
     1
 90
        6
176
     1
 90
        2
176
     1
 62
     7
176
     1
 90
        5
176
     1
 90
        0
176
     1
 90
        0
176
     1
290
     0
176
     1
 90
        1
176
     1
 40
0.0
176
     1
 90
        0
176
     1
290
     0
176
     1
290
     1
176
     1
290
     1
176
     1
290
     0
176
     1
290
     0
176
     1
290
     0
176
     1
290
     0
176
     1
290
     0
176
     1
290
     0
176
     1
 90
       50
176
     1
 40
0.0
176
     1
 40
1.0
176
     1
 90
        0
176
     1
 62
    18
420
        0
176
     1
 90
       50
176
     1
 90
        3
176
     1
 62
     5
420
      255
176
     1
290
     0
176
     1
 90
       50
176
     1
 90
       50
176
     1
 90
       50
176
     1
290
     0
176
     1
 90
       50
176
     1
 62
   256
176
     0
 40
1.0
176
     0
 90
        2
176
     1
  1
strokes_ogs.tif
176
     1
290
     0
176
     1
 40
1.0
176
     1
 40
1.0
176
     1
  0
VISUALSTYLE
  5
202B8
102
{ACAD_REACTORS
330
202AC
102
}
330
202AC
100
AcDbVisualStyle
  2
Brighten
 70
    12
177
     3
291
     1
 70
    58
 90
        2
176
     1
 90
        2
176
     1
 90
        0
176
     1
 90
        0
176
     1
 40
0.6
176
     1
 40
30.0
176
     1
 62
     7
420
 16777215
176
     1
 90
        1
176
     1
 90
        4
176
     1
 62
     7
176
     1
 62
   257
176
     1
 90
        1
176
     1
 90
        1
176
     1
 40
1.0
176
     1
 90
        8
176
     1
 62
     7
176
     1
 40
1.0
176
     1
 90
        1
176
     1
 90
        6
176
     1
 90
        2
176
     1
 62
     7
176
     1
 90
        5
176
     1
 90
        0
176
     1
 90
        0
176
     1
290
     0
176
     1
 90
        1
176
     1
 40
50.0
176
     1
 90
        0
176
     1
290
     0
176
     1
290
     1
176
     1
290
     1
176
     1
290
     0
176
     1
290
     0
176
     1
290
     0
176
     1
290
     0
176
     1
290
     0
176
     1
290
     0
176
     1
 90
       50
176
     1
 40
0.0
176
     1
 40
1.0
176
     1
 90
        0
176
     1
 62
    18
420
        0
176
     1
 90
       50
176
     1
 90
        3
176
     1
 62
     5
420
      255
176
     1
290
     0
176
     1
 90
       50
176
     1
 90
       50
176
     1
 90
       50
176
     1
290
     0
176
     1
 90
       50
176
     1
 62
   256
176
     0
 40
1.0
176
     0
 90
        2
176
     1
  1
strokes_ogs.tif
176
     1
290
     0
176
     1
 40
1.0
176
     1
 40
1.0
176
     1
  0
VISUALSTYLE
  5
202BC
102
{ACAD_REACTORS
330
202AC
102
}
330
202AC
100
AcDbVisualStyle
  2
ColorChange
 70
    16
177
     3
291
     1
 70
    58
 90
        2
176
     1
 90
        2
176
     1
 90
        3
176
     1
 90
        0
176
     1
 40
0.6
176
     1
 40
30.0
176
     1
 62
     8
420
  8421504
176
     1
 90
        1
176
     1
 90
        4
176
     1
 62
     7
176
     1
 62
   257
176
     1
 90
        1
176
     1
 90
        1
176
     1
 40
1.0
176
     1
 90
        8
176
     1
 62
     8
420
  8421504
176
     1
 40
1.0
176
     1
 90
        1
176
     1
 90
        6
176
     1
 90
        2
176
     1
 62
     7
176
     1
 90
        5
176
     1
 90
        0
176
     1
 90
        0
176
     1
290
     0
176
     1
 90
        1
176
     1
 40
0.0
176
     1
 90
        0
176
     1
290
     0
176
     1
290
     1
176
     1
290
     1
176
     1
290
     0
176
     1
290
     0
176
     1
290
     0
176
     1
290
     0
176
     1
290
     0
176
     1
290
     0
176
     1
 90
       50
176
     1
 40
0.0
176
     1
 40
1.0
176
     1
 90
        0
176
     1
 62
    18
420
        0
176
     1
 90
       50
176
     1
 90
        3
176
     1
 62
     5
420
      255
176
     1
290
     0
176
     1
 90
       50
176
     1
 90
       50
176
     1
 90
       50
176
     1
290
     0
176
     1
 90
       50
176
     1
 62
   256
176
     0
 40
1.0
176
     0
 90
        2
176
     1
  1
strokes_ogs.tif
176
     1
290
     0
176
     1
 40
1.0
176
     1
 40
1.0
176
     1
  0
VISUALSTYLE
  5
202B5
102
{ACAD_REACTORS
330
202AC
102
}
330
202AC
100
AcDbVisualStyle
  2
Conceptual
 70
     9
177
     3
291
     0
 70
    58
 90
        3
176
     1
 90
        2
176
     1
 90
        0
176
     1
 90
        0
176
     1
 40
0.6
176
     1
 40
30.0
176
     1
 62
     7
420
 16777215
176
     1
 90
        2
176
     1
 90
        2
176
     1
 62
     7
176
     1
 62
   257
176
     1
 90
        1
176
     1
 90
        1
176
     1
 40
179.0
176
     1
 90
        8
176
     1
 62
     7
176
     1
 40
1.0
176
     1
 90
        1
176
     1
 90
        6
176
     1
 90
        2
176
     1
 62
     7
176
     1
 90
        3
176
     1
 90
        0
176
     1
 90
        0
176
     1
290
     0
176
     1
 90
        1
176
     1
 40
0.0
176
     1
 90
        0
176
     1
290
     0
176
     1
290
     1
176
     1
290
     1
176
     1
290
     0
176
     1
290
     0
176
     1
290
     0
176
     1
290
     0
176
     1
290
     0
176
     1
290
     0
176
     1
 90
       50
176
     1
 40
0.0
176
     1
 40
1.0
176
     1
 90
        0
176
     1
 62
    18
420
        0
176
     1
 90
       50
176
     1
 90
        3
176
     1
 62
     5
420
      255
176
     1
290
     0
176
     1
 90
       50
176
     1
 90
       50
176
     1
 90
       50
176
     1
290
     0
176
     1
 90
       50
176
     1
 62
   256
176
     0
 40
1.0
176
     0
 90
        2
176
     1
  1
strokes_ogs.tif
176
     1
290
     0
176
     1
 40
1.0
176
     1
 40
1.0
176
     1
  0
VISUALSTYLE
  5
202B7
102
{ACAD_REACTORS
330
202AC
102
}
330
202AC
100
AcDbVisualStyle
  2
Dim
 70
    11
177
     3
291
     1
 70
    58
 90
        2
176
     1
 90
        2
176
     1
 90
        0
176
     1
 90
        0
176
     1
 40
0.6
176
     1
 40
30.0
176
     1
 62
     7
420
 16777215
176
     1
 90
        1
176
     1
 90
        4
176
     1
 62
     7
176
     1
 62
   257
176
     1
 90
        1
176
     1
 90
        1
176
     1
 40
1.0
176
     1
 90
        8
176
     1
 62
     7
176
     1
 40
1.0
176
     1
 90
        1
176
     1
 90
        6
176
     1
 90
        2
176
     1
 62
     7
176
     1
 90
        5
176
     1
 90
        0
176
     1
 90
        0
176
     1
290
     0
176
     1
 90
        1
176
     1
 40
-50.0
176
     1
 90
        0
176
     1
290
     0
176
     1
290
     1
176
     1
290
     1
176
     1
290
     0
176
     1
290
     0
176
     1
290
     0
176
     1
290
     0
176
     1
290
     0
176
     1
290
     0
176
     1
 90
       50
176
     1
 40
0.0
176
     1
 40
1.0
176
     1
 90
        0
176
     1
 62
    18
420
        0
176
     1
 90
       50
176
     1
 90
        3
176
     1
 62
     5
420
      255
176
     1
290
     0
176
     1
 90
       50
176
     1
 90
       50
176
     1
 90
       50
176
     1
290
     0
176
     1
 90
       50
176
     1
 62
   256
176
     0
 40
1.0
176
     0
 90
        2
176
     1
  1
strokes_ogs.tif
176
     1
290
     0
176
     1
 40
1.0
176
     1
 40
1.0
176
     1
  0
VISUALSTYLE
  5
202C4
102
{ACAD_REACTORS
330
202AC
102
}
330
202AC
100
AcDbVisualStyle
  2
EdgeColorOff
 70
    22
177
     3
291
     1
 70
    58
 90
        2
176
     0
 90
        2
176
     0
 90
        0
176
     0
 90
        0
176
     0
 40
0.6
176
     0
 40
30.0
176
     0
 62
     7
420
 16777215
176
     0
 90
        1
176
     0
 90
        4
176
     0
 62
     7
176
     0
 62
   257
176
     0
 90
        1
176
     0
 90
        1
176
     0
 40
1.0
176
     0
 90
        8
176
     2
 62
     7
176
     0
 40
1.0
176
     0
 90
        1
176
     0
 90
        6
176
     0
 90
        2
176
     0
 62
     7
176
     0
 90
        5
176
     0
 90
        0
176
     0
 90
        0
176
     0
290
     0
176
     0
 90
        1
176
     0
 40
0.0
176
     0
 90
        0
176
     0
290
     0
176
     1
290
     1
176
     1
290
     1
176
     1
290
     0
176
     1
290
     0
176
     1
290
     0
176
     1
290
     0
176
     1
290
     0
176
     1
290
     0
176
     1
 90
       50
176
     0
 40
0.0
176
     0
 40
1.0
176
     0
 90
        0
176
     0
 62
    18
420
        0
176
     0
 90
       50
176
     0
 90
        3
176
     0
 62
     5
420
      255
176
     0
290
     0
176
     1
 90
       50
176
     0
 90
       50
176
     0
 90
       50
176
     0
290
     0
176
     1
 90
       50
176
     0
 62
   256
176
     0
 40
1.0
176
     0
 90
        2
176
     0
  1
strokes_ogs.tif
176
     0
290
     0
176
     1
 40
1.0
176
     0
 40
1.0
176
     0
  0
VISUALSTYLE
  5
202BB
102
{ACAD_REACTORS
330
202AC
102
}
330
202AC
100
AcDbVisualStyle
  2
Facepattern
 70
    15
177
     3
291
     1
 70
    58
 90
        2
176
     1
 90
        2
176
     1
 90
        0
176
     1
 90
        0
176
     1
 40
0.6
176
     1
 40
30.0
176
     1
 62
     7
420
 16777215
176
     1
 90
        1
176
     1
 90
        4
176
     1
 62
     7
176
     1
 62
   257
176
     1
 90
        1
176
     1
 90
        1
176
     1
 40
1.0
176
     1
 90
        8
176
     1
 62
     7
176
     1
 40
1.0
176
     1
 90
        1
176
     1
 90
        6
176
     1
 90
        2
176
     1
 62
     7
176
     1
 90
        5
176
     1
 90
        0
176
     1
 90
        0
176
     1
290
     0
176
     1
 90
        1
176
     1
 40
0.0
176
     1
 90
        0
176
     1
290
     0
176
     1
290
     1
176
     1
290
     1
176
     1
290
     0
176
     1
290
     0
176
     1
290
     0
176
     1
290
     0
176
     1
290
     0
176
     1
290
     0
176
     1
 90
       50
176
     1
 40
0.0
176
     1
 40
1.0
176
     1
 90
        0
176
     1
 62
    18
420
        0
176
     1
 90
       50
176
     1
 90
        3
176
     1
 62
     5
420
      255
176
     1
290
     0
176
     1
 90
       50
176
     1
 90
       50
176
     1
 90
       50
176
     1
290
     0
176
     1
 90
       50
176
     1
 62
   256
176
     0
 40
1.0
176
     0
 90
        2
176
     1
  1
strokes_ogs.tif
176
     1
290
     0
176
     1
 40
1.0
176
     1
 40
1.0
176
     1
  0
VISUALSTYLE
  5
202AD
102
{ACAD_REACTORS
330
202AC
102
}
330
202AC
100
AcDbVisualStyle
  2
Flat
 70
     0
177
     3
291
     1
 70
    58
 90
        2
176
     1
 90
        1
176
     1
 90
        1
176
     1
 90
        2
176
     1
 40
0.6
176
     1
 40
30.0
176
     1
 62
     7
420
 16777215
176
     1
 90
        0
176
     1
 90
        0
176
     1
 62
     7
176
     1
 62
   257
176
     1
 90
        1
176
     1
 90
        1
176
     1
 40
1.0
176
     1
 90
        8
176
     1
 62
     7
176
     1
 40
1.0
176
     1
 90
        1
176
     1
 90
        6
176
     1
 90
        2
176
     1
 62
     7
176
     1
 90
        5
176
     1
 90
        0
176
     1
 90
        0
176
     1
290
     0
176
     1
 90
       13
176
     1
 40
0.0
176
     1
 90
        0
176
     1
290
     0
176
     1
290
     1
176
     1
290
     1
176
     1
290
     0
176
     1
290
     0
176
     1
290
     0
176
     1
290
     0
176
     1
290
     0
176
     1
290
     0
176
     1
 90
       50
176
     1
 40
0.0
176
     1
 40
1.0
176
     1
 90
        0
176
     1
 62
    18
420
        0
176
     1
 90
       50
176
     1
 90
        3
176
     1
 62
     5
420
      255
176
     1
290
     0
176
     1
 90
       50
176
     1
 90
       50
176
     1
 90
       50
176
     1
290
     0
176
     1
 90
       50
176
     1
 62
   256
176
     0
 40
1.0
176
     0
 90
        2
176
     1
  1
strokes_ogs.tif
176
     1
290
     0
176
     1
 40
1.0
176
     1
 40
1.0
176
     1
  0
VISUALSTYLE
  5
202AE
102
{ACAD_REACTORS
330
202AC
102
}
330
202AC
100
AcDbVisualStyle
  2
FlatWithEdges
 70
     1
177
     3
291
     1
 70
    58
 90
        2
176
     1
 90
        1
176
     1
 90
        1
176
     1
 90
        2
176
     1
 40
0.6
176
     1
 40
30.0
176
     1
 62
     7
420
 16777215
176
     1
 90
        1
176
     1
 90
        0
176
     1
 62
     7
176
     1
 62
   257
176
     1
 90
        1
176
     1
 90
        1
176
     1
 40
1.0
176
     1
 90
        0
176
     1
 62
   257
176
     1
 40
1.0
176
     1
 90
        1
176
     1
 90
        6
176
     1
 90
        2
176
     1
 62
     7
176
     1
 90
        5
176
     1
 90
        0
176
     1
 90
        0
176
     1
290
     0
176
     1
 90
       13
176
     1
 40
0.0
176
     1
 90
        0
176
     1
290
     0
176
     1
290
     1
176
     1
290
     1
176
     1
290
     0
176
     1
290
     0
176
     1
290
     0
176
     1
290
     0
176
     1
290
     0
176
     1
290
     0
176
     1
 90
       50
176
     1
 40
0.0
176
     1
 40
1.0
176
     1
 90
        0
176
     1
 62
    18
420
        0
176
     1
 90
       50
176
     1
 90
        3
176
     1
 62
     5
420
      255
176
     1
290
     0
176
     1
 90
       50
176
     1
 90
       50
176
     1
 90
       50
176
     1
290
     0
176
     1
 90
       50
176
     1
 62
   256
176
     0
 40
1.0
176
     0
 90
        2
176
     1
  1
strokes_ogs.tif
176
     1
290
     0
176
     1
 40
1.0
176
     1
 40
1.0
176
     1
  0
VISUALSTYLE
  5
202AF
102
{ACAD_REACTORS
330
202AC
102
}
330
202AC
100
AcDbVisualStyle
  2
Gouraud
 70
     2
177
     3
291
     1
 70
    58
 90
        2
176
     1
 90
        2
176
     1
 90
        1
176
     1
 90
        2
176
     1
 40
0.6
176
     1
 40
30.0
176
     1
 62
     7
420
 16777215
176
     1
 90
        0
176
     1
 90
        0
176
     1
 62
     7
176
     1
 62
   257
176
     1
 90
        1
176
     1
 90
        1
176
     1
 40
1.0
176
     1
 90
        0
176
     1
 62
     7
176
     1
 40
1.0
176
     1
 90
        1
176
     1
 90
        6
176
     1
 90
        2
176
     1
 62
     7
176
     1
 90
        5
176
     1
 90
        0
176
     1
 90
        0
176
     1
290
     0
176
     1
 90
       13
176
     1
 40
0.0
176
     1
 90
        0
176
     1
290
     0
176
     1
290
     1
176
     1
290
     1
176
     1
290
     0
176
     1
290
     0
176
     1
290
     0
176
     1
290
     0
176
     1
290
     0
176
     1
290
     0
176
     1
 90
       50
176
     1
 40
0.0
176
     1
 40
1.0
176
     1
 90
        0
176
     1
 62
    18
420
        0
176
     1
 90
       50
176
     1
 90
        3
176
     1
 62
     5
420
      255
176
     1
290
     0
176
     1
 90
       50
176
     1
 90
       50
176
     1
 90
       50
176
     1
290
     0
176
     1
 90
       50
176
     1
 62
   256
176
     0
 40
1.0
176
     0
 90
        2
176
     1
  1
strokes_ogs.tif
176
     1
290
     0
176
     1
 40
1.0
176
     1
 40
1.0
176
     1
  0
VISUALSTYLE
  5
202B0
102
{ACAD_REACTORS
330
202AC
102
}
330
202AC
100
AcDbVisualStyle
  2
GouraudWithEdges
 70
     3
177
     3
291
     1
 70
    58
 90
        2
176
     1
 90
        2
176
     1
 90
        1
176
     1
 90
        2
176
     1
 40
0.6
176
     1
 40
30.0
176
     1
 62
     7
420
 16777215
176
     1
 90
        1
176
     1
 90
        0
176
     1
 62
     7
176
     1
 62
   257
176
     1
 90
        1
176
     1
 90
        1
176
     1
 40
1.0
176
     1
 90
        0
176
     1
 62
   257
176
     1
 40
1.0
176
     1
 90
        1
176
     1
 90
        6
176
     1
 90
        2
176
     1
 62
     7
176
     1
 90
        5
176
     1
 90
        0
176
     1
 90
        0
176
     1
290
     0
176
     1
 90
       13
176
     1
 40
0.0
176
     1
 90
        0
176
     1
290
     0
176
     1
290
     1
176
     1
290
     1
176
     1
290
     0
176
     1
290
     0
176
     1
290
     0
176
     1
290
     0
176
     1
290
     0
176
     1
290
     0
176
     1
 90
       50
176
     1
 40
0.0
176
     1
 40
1.0
176
     1
 90
        0
176
     1
 62
    18
420
        0
176
     1
 90
       50
176
     1
 90
        3
176
     1
 62
     5
420
      255
176
     1
290
     0
176
     1
 90
       50
176
     1
 90
       50
176
     1
 90
       50
176
     1
290
     0
176
     1
 90
       50
176
     1
 62
   256
176
     0
 40
1.0
176
     0
 90
        2
176
     1
  1
strokes_ogs.tif
176
     1
290
     0
176
     1
 40
1.0
176
     1
 40
1.0
176
     1
  0
VISUALSTYLE
  5
202B4
102
{ACAD_REACTORS
330
202AC
102
}
330
202AC
100
AcDbVisualStyle
  2
Hidden
 70
     6
177
     3
291
     0
 70
    58
 90
        1
176
     1
 90
        2
176
     1
 90
        2
176
     1
 90
        0
176
     1
 40
0.6
176
     1
 40
30.0
176
     1
 62
     7
420
 16777215
176
     1
 90
        2
176
     1
 90
        2
176
     1
 62
     7
176
     1
 62
   257
176
     1
 90
        2
176
     1
 90
        1
176
     1
 40
40.0
176
     1
 90
        0
176
     1
 62
   257
176
     1
 40
1.0
176
     1
 90
        1
176
     1
 90
        6
176
     1
 90
        2
176
     1
 62
     7
176
     1
 90
        3
176
     1
 90
        0
176
     1
 90
        0
176
     1
290
     0
176
     1
 90
        1
176
     1
 40
0.0
176
     1
 90
        0
176
     1
290
     0
176
     1
290
     1
176
     1
290
     1
176
     1
290
     0
176
     1
290
     0
176
     1
290
     0
176
     1
290
     0
176
     1
290
     0
176
     1
290
     0
176
     1
 90
       50
176
     1
 40
0.0
176
     1
 40
1.0
176
     1
 90
        0
176
     1
 62
    18
420
        0
176
     1
 90
       50
176
     1
 90
        3
176
     1
 62
     5
420
      255
176
     1
290
     0
176
     1
 90
       50
176
     1
 90
       50
176
     1
 90
       50
176
     1
290
     0
176
     1
 90
       50
176
     1
 62
   256
176
     0
 40
1.0
176
     0
 90
        2
176
     1
  1
strokes_ogs.tif
176
     1
290
     0
176
     1
 40
1.0
176
     1
 40
1.0
176
     1
  0
VISUALSTYLE
  5
202C2
102
{ACAD_REACTORS
330
202AC
102
}
330
202AC
100
AcDbVisualStyle
  2
JitterOff
 70
    20
177
     3
291
     1
 70
    58
 90
        2
176
     0
 90
        2
176
     0
 90
        0
176
     0
 90
        0
176
     0
 40
0.6
176
     0
 40
30.0
176
     0
 62
     7
420
 16777215
176
     0
 90
        1
176
     0
 90
        4
176
     0
 62
     7
176
     0
 62
   257
176
     0
 90
        1
176
     0
 90
        1
176
     0
 40
1.0
176
     0
 90
       10
176
     2
 62
     7
176
     0
 40
1.0
176
     0
 90
        1
176
     0
 90
        6
176
     0
 90
        2
176
     0
 62
     7
176
     0
 90
        5
176
     0
 90
        0
176
     0
 90
        0
176
     0
290
     0
176
     0
 90
        1
176
     0
 40
0.0
176
     0
 90
        0
176
     0
290
     0
176
     1
290
     1
176
     1
290
     1
176
     1
290
     0
176
     1
290
     0
176
     1
290
     0
176
     1
290
     0
176
     1
290
     0
176
     1
290
     0
176
     1
 90
       50
176
     0
 40
0.0
176
     0
 40
1.0
176
     0
 90
        0
176
     0
 62
    18
420
        0
176
     0
 90
       50
176
     0
 90
        3
176
     0
 62
     5
420
      255
176
     0
290
     0
176
     1
 90
       50
176
     0
 90
       50
176
     0
 90
       50
176
     0
290
     0
176
     1
 90
       50
176
     0
 62
   256
176
     0
 40
1.0
176
     0
 90
        2
176
     0
  1
strokes_ogs.tif
176
     0
290
     0
176
     1
 40
1.0
176
     0
 40
1.0
176
     0
  0
VISUALSTYLE
  5
202BA
102
{ACAD_REACTORS
330
202AC
102
}
330
202AC
100
AcDbVisualStyle
  2
Linepattern
 70
    14
177
     3
291
     1
 70
    58
 90
        2
176
     1
 90
        2
176
     1
 90
        0
176
     1
 90
        0
176
     1
 40
0.6
176
     1
 40
30.0
176
     1
 62
     7
420
 16777215
176
     1
 90
        1
176
     1
 90
        4
176
     1
 62
     7
176
     1
 62
   257
176
     1
 90
        7
176
     1
 90
        7
176
     1
 40
1.0
176
     1
 90
        8
176
     1
 62
     7
176
     1
 40
1.0
176
     1
 90
        1
176
     1
 90
        6
176
     1
 90
        2
176
     1
 62
     7
176
     1
 90
        5
176
     1
 90
        0
176
     1
 90
        0
176
     1
290
     0
176
     1
 90
        1
176
     1
 40
0.0
176
     1
 90
        0
176
     1
290
     0
176
     1
290
     1
176
     1
290
     1
176
     1
290
     0
176
     1
290
     0
176
     1
290
     0
176
     1
290
     0
176
     1
290
     0
176
     1
290
     0
176
     1
 90
       50
176
     1
 40
0.0
176
     1
 40
1.0
176
     1
 90
        0
176
     1
 62
    18
420
        0
176
     1
 90
       50
176
     1
 90
        3
176
     1
 62
     5
420
      255
176
     1
290
     0
176
     1
 90
       50
176
     1
 90
       50
176
     1
 90
       50
176
     1
290
     0
176
     1
 90
       50
176
     1
 62
   256
176
     0
 40
1.0
176
     0
 90
        2
176
     1
  1
strokes_ogs.tif
176
     1
290
     0
176
     1
 40
1.0
176
     1
 40
1.0
176
     1
  0
VISUALSTYLE
  5
202C3
102
{ACAD_REACTORS
330
202AC
102
}
330
202AC
100
AcDbVisualStyle
  2
OverhangOff
 70
    21
177
     3
291
     1
 70
    58
 90
        2
176
     0
 90
        2
176
     0
 90
        0
176
     0
 90
        0
176
     0
 40
0.6
176
     0
 40
30.0
176
     0
 62
     7
420
 16777215
176
     0
 90
        1
176
     0
 90
        4
176
     0
 62
     7
176
     0
 62
   257
176
     0
 90
        1
176
     0
 90
        1
176
     0
 40
1.0
176
     0
 90
        9
176
     2
 62
     7
176
     0
 40
1.0
176
     0
 90
        1
176
     0
 90
        6
176
     0
 90
        2
176
     0
 62
     7
176
     0
 90
        5
176
     0
 90
        0
176
     0
 90
        0
176
     0
290
     0
176
     0
 90
        1
176
     0
 40
0.0
176
     0
 90
        0
176
     0
290
     0
176
     1
290
     1
176
     1
290
     1
176
     1
290
     0
176
     1
290
     0
176
     1
290
     0
176
     1
290
     0
176
     1
290
     0
176
     1
290
     0
176
     1
 90
       50
176
     0
 40
0.0
176
     0
 40
1.0
176
     0
 90
        0
176
     0
 62
    18
420
        0
176
     0
 90
       50
176
     0
 90
        3
176
     0
 62
     5
420
      255
176
     0
290
     0
176
     1
 90
       50
176
     0
 90
       50
176
     0
 90
       50
176
     0
290
     0
176
     1
 90
       50
176
     0
 62
   256
176
     0
 40
1.0
176
     0
 90
        2
176
     0
  1
strokes_ogs.tif
176
     0
290
     0
176
     1
 40
1.0
176
     0
 40
1.0
176
     0
  0
VISUALSTYLE
  5
202B6
102
{ACAD_REACTORS
330
202AC
102
}
330
202AC
100
AcDbVisualStyle
  2
Realistic
 70
     8
177
     3
291
     0
 70
    58
 90
        2
176
     1
 90
        3
176
     1
 90
        0
176
     1
 90
        2
176
     1
 40
0.6
176
     1
 40
30.0
176
     1
 62
     7
420
 16777215
176
     1
 90
        0
176
     1
 90
        0
176
     1
 62
     7
176
     1
 62
   257
176
     1
 90
        1
176
     1
 90
        1
176
     1
 40
1.0
176
     1
 90
        8
176
     1
 62
   257
176
     1
 40
1.0
176
     1
 90
        1
176
     1
 90
        6
176
     1
 90
        2
176
     1
 62
     7
176
     1
 90
        3
176
     1
 90
        0
176
     1
 90
        0
176
     1
290
     0
176
     1
 90
       13
176
     1
 40
0.0
176
     1
 90
        0
176
     1
290
     0
176
     1
290
     1
176
     1
290
     1
176
     1
290
     0
176
     1
290
     0
176
     1
290
     0
176
     1
290
     0
176
     1
290
     0
176
     1
290
     0
176
     1
 90
       50
176
     1
 40
0.0
176
     1
 40
1.0
176
     1
 90
        0
176
     1
 62
    18
420
        0
176
     1
 90
       50
176
     1
 90
        3
176
     1
 62
     5
420
      255
176
     1
290
     0
176
     1
 90
       50
176
     1
 90
       50
176
     1
 90
       50
176
     1
290
     0
176
     1
 90
       50
176
     1
 62
   256
176
     0
 40
1.0
176
     0
 90
        2
176
     1
  1
strokes_ogs.tif
176
     1
290
     0
176
     1
 40
1.0
176
     1
 40
1.0
176
     1
  0
VISUALSTYLE
  5
202C1
102
{ACAD_REACTORS
330
202AC
102
}
330
202AC
100
AcDbVisualStyle
  2
Shaded
 70
    27
177
     3
291
     0
 70
    58
 90
        2
176
     1
 90
        2
176
     1
 90
        1
176
     1
 90
        2
176
     1
 40
0.6
176
     1
 40
30.0
176
     1
 62
     7
420
 16777215
176
     1
 90
        0
176
     1
 90
        4
176
     1
 62
     7
176
     1
 62
   257
176
     1
 90
        1
176
     1
 90
        1
176
     1
 40
1.0
176
     1
 90
        8
176
     1
 62
   257
176
     1
 40
1.0
176
     1
 90
        1
176
     1
 90
        6
176
     1
 90
        2
176
     1
 62
     8
420
  7895160
176
     1
 90
        3
176
     1
 90
        0
176
     1
 90
        0
176
     1
290
     0
176
     1
 90
        5
176
     1
 40
0.0
176
     1
 90
        0
176
     1
290
     0
176
     1
290
     1
176
     1
290
     1
176
     1
290
     0
176
     1
290
     0
176
     1
290
     0
176
     1
290
     0
176
     1
290
     0
176
     1
290
     0
176
     1
 90
       50
176
     1
 40
0.0
176
     1
 40
1.0
176
     1
 90
        0
176
     1
 62
    18
420
        0
176
     1
 90
       50
176
     1
 90
        3
176
     1
 62
     5
420
      255
176
     1
290
     0
176
     1
 90
       50
176
     1
 90
       50
176
     1
 90
       50
176
     1
290
     0
176
     1
 90
       50
176
     1
 62
   256
176
     0
 40
1.0
176
     0
 90
        2
176
     1
  1
strokes_ogs.tif
176
     1
290
     0
176
     1
 40
1.0
176
     1
 40
1.0
176
     1
  0
VISUALSTYLE
  5
202C0
102
{ACAD_REACTORS
330
202AC
102
}
330
202AC
100
AcDbVisualStyle
  2
Shaded with edges
 70
    26
177
     3
291
     0
 70
    58
 90
        2
176
     1
 90
        2
176
     1
 90
        1
176
     1
 90
        2
176
     1
 40
0.6
176
     1
 40
30.0
176
     1
 62
     7
420
 16777215
176
     1
 90
        1
176
     1
 90
        2
176
     1
 62
     7
176
     1
 62
   257
176
     1
 90
        2
176
     1
 90
        1
176
     1
 40
1.0
176
     1
 90
        8
176
     1
 62
   257
176
     1
 40
1.0
176
     1
 90
        1
176
     1
 90
        6
176
     1
 90
        2
176
     1
 62
     7
176
     1
 90
        3
176
     1
 90
        0
176
     1
 90
        0
176
     1
290
     0
176
     1
 90
        5
176
     1
 40
0.0
176
     1
 90
        0
176
     1
290
     0
176
     1
290
     1
176
     1
290
     1
176
     1
290
     0
176
     1
290
     0
176
     1
290
     0
176
     1
290
     0
176
     1
290
     0
176
     1
290
     0
176
     1
 90
       50
176
     1
 40
0.0
176
     1
 40
1.0
176
     1
 90
        0
176
     1
 62
    18
420
        0
176
     1
 90
       50
176
     1
 90
        3
176
     1
 62
     5
420
      255
176
     1
290
     0
176
     1
 90
       50
176
     1
 90
       50
176
     1
 90
       50
176
     1
290
     0
176
     1
 90
       50
176
     1
 62
   256
176
     0
 40
1.0
176
     0
 90
        2
176
     1
  1
strokes_ogs.tif
176
     1
290
     0
176
     1
 40
1.0
176
     1
 40
1.0
176
     1
  0
VISUALSTYLE
  5
202BD
102
{ACAD_REACTORS
330
202AC
102
}
330
202AC
100
AcDbVisualStyle
  2
Shades of Gray
 70
    23
177
     3
291
     0
 70
    58
 90
        2
176
     1
 90
        2
176
     1
 90
        3
176
     1
 90
        0
176
     1
 40
0.6
176
     1
 40
30.0
176
     1
 62
     7
420
 16777215
176
     1
 90
        2
176
     1
 90
        2
176
     1
 62
     7
176
     1
 62
     7
176
     1
 90
        1
176
     1
 90
        1
176
     1
 40
40.0
176
     1
 90
        8
176
     1
 62
     7
176
     1
 40
1.0
176
     1
 90
        1
176
     1
 90
        6
176
     1
 90
        2
176
     1
 62
     7
176
     1
 90
        3
176
     1
 90
        0
176
     1
 90
        0
176
     1
290
     0
176
     1
 90
        1
176
     1
 40
0.0
176
     1
 90
        0
176
     1
290
     0
176
     1
290
     1
176
     1
290
     1
176
     1
290
     0
176
     1
290
     0
176
     1
290
     0
176
     1
290
     0
176
     1
290
     0
176
     1
290
     0
176
     1
 90
       50
176
     1
 40
0.0
176
     1
 40
1.0
176
     1
 90
        0
176
     1
 62
    18
420
        0
176
     1
 90
       50
176
     1
 90
        3
176
     1
 62
     5
420
      255
176
     1
290
     0
176
     1
 90
       50
176
     1
 90
       50
176
     1
 90
       50
176
     1
290
     0
176
     1
 90
       50
176
     1
 62
   256
176
     0
 40
1.0
176
     0
 90
        2
176
     1
  1
strokes_ogs.tif
176
     1
290
     0
176
     1
 40
1.0
176
     1
 40
1.0
176
     1
  0
VISUALSTYLE
  5
202BE
102
{ACAD_REACTORS
330
202AC
102
}
330
202AC
100
AcDbVisualStyle
  2
Sketchy
 70
    24
177
     3
291
     0
 70
    58
 90
        1
176
     1
 90
        2
176
     1
 90
        2
176
     1
 90
        0
176
     1
 40
0.6
176
     1
 40
30.0
176
     1
 62
     7
420
 16777215
176
     1
 90
        2
176
     1
 90
        2
176
     1
 62
     7
176
     1
 62
     7
176
     1
 90
        1
176
     1
 90
        1
176
     1
 40
40.0
176
     1
 90
       11
176
     1
 62
     7
176
     1
 40
1.0
176
     1
 90
        1
176
     1
 90
        6
176
     1
 90
        2
176
     1
 62
     7
176
     1
 90
        6
176
     1
 90
        0
176
     1
 90
        0
176
     1
290
     0
176
     1
 90
        1
176
     1
 40
0.0
176
     1
 90
        0
176
     1
290
     0
176
     1
290
     1
176
     1
290
     1
176
     1
290
     0
176
     1
290
     0
176
     1
290
     0
176
     1
290
     0
176
     1
290
     0
176
     1
290
     0
176
     1
 90
       50
176
     1
 40
0.0
176
     1
 40
1.0
176
     1
 90
        0
176
     1
 62
    18
420
        0
176
     1
 90
       50
176
     1
 90
        3
176
     1
 62
     5
420
      255
176
     1
290
     0
176
     1
 90
       50
176
     1
 90
       50
176
     1
 90
       50
176
     1
290
     0
176
     1
 90
       50
176
     1
 62
   256
176
     0
 40
1.0
176
     0
 90
        2
176
     1
  1
strokes_ogs.tif
176
     1
290
     0
176
     1
 40
1.0
176
     1
 40
1.0
176
     1
  0
VISUALSTYLE
  5
202B9
102
{ACAD_REACTORS
330
202AC
102
}
330
202AC
100
AcDbVisualStyle
  2
Thicken
 70
    13
177
     3
291
     1
 70
    58
 90
        2
176
     1
 90
        2
176
     1
 90
        0
176
     1
 90
        0
176
     1
 40
0.6
176
     1
 40
30.0
176
     1
 62
     7
420
 16777215
176
     1
 90
        1
176
     1
 90
        4
176
     1
 62
     7
176
     1
 62
   257
176
     1
 90
        1
176
     1
 90
        1
176
     1
 40
1.0
176
     1
 90
       12
176
     1
 62
     7
176
     1
 40
1.0
176
     1
 90
        1
176
     1
 90
        6
176
     1
 90
        2
176
     1
 62
     7
176
     1
 90
        5
176
     1
 90
        0
176
     1
 90
        0
176
     1
290
     0
176
     1
 90
        1
176
     1
 40
0.0
176
     1
 90
        0
176
     1
290
     0
176
     1
290
     1
176
     1
290
     1
176
     1
290
     0
176
     1
290
     0
176
     1
290
     0
176
     1
290
     0
176
     1
290
     0
176
     1
290
     0
176
     1
 90
       50
176
     1
 40
0.0
176
     1
 40
1.0
176
     1
 90
        0
176
     1
 62
    18
420
        0
176
     1
 90
       50
176
     1
 90
        3
176
     1
 62
     5
420
      255
176
     1
290
     0
176
     1
 90
       50
176
     1
 90
       50
176
     1
 90
       50
176
     1
290
     0
176
     1
 90
       50
176
     1
 62
   256
176
     0
 40
1.0
176
     0
 90
        2
176
     1
  1
strokes_ogs.tif
176
     1
290
     0
176
     1
 40
1.0
176
     1
 40
1.0
176
     1
  0
VISUALSTYLE
  5
202B3
102
{ACAD_REACTORS
330
202AC
102
}
330
202AC
100
AcDbVisualStyle
  2
Wireframe
 70
     5
177
     3
291
     0
 70
    58
 90
        0
176
     1
 90
        2
176
     1
 90
        0
176
     1
 90
        0
176
     1
 40
0.6
176
     1
 40
30.0
176
     1
 62
     7
420
 16777215
176
     1
 90
        1
176
     1
 90
        4
176
     1
 62
     7
176
     1
 62
   257
176
     1
 90
        1
176
     1
 90
        1
176
     1
 40
1.0
176
     1
 90
        0
176
     1
 62
   257
176
     1
 40
1.0
176
     1
 90
        1
176
     1
 90
        6
176
     1
 90
        2
176
     1
 62
     7
176
     1
 90
        3
176
     1
 90
        0
176
     1
 90
        0
176
     1
290
     0
176
     1
 90
        1
176
     1
 40
0.0
176
     1
 90
        0
176
     1
290
     0
176
     1
290
     1
176
     1
290
     1
176
     1
290
     0
176
     1
290
     0
176
     1
290
     0
176
     1
290
     0
176
     1
290
     0
176
     1
290
     0
176
     1
 90
       50
176
     1
 40
0.0
176
     1
 40
1.0
176
     1
 90
        0
176
     1
 62
    18
420
        0
176
     1
 90
       50
176
     1
 90
        3
176
     1
 62
     5
420
      255
176
     1
290
     0
176
     1
 90
       50
176
     1
 90
       50
176
     1
 90
       50
176
     1
290
     0
176
     1
 90
       50
176
     1
 62
   256
176
     0
 40
1.0
176
     0
 90
        2
176
     1
  1
strokes_ogs.tif
176
     1
290
     0
176
     1
 40
1.0
176
     1
 40
1.0
176
     1
  0
VISUALSTYLE
  5
202BF
102
{ACAD_REACTORS
330
202AC
102
}
330
202AC
100
AcDbVisualStyle
  2
X-Ray
 70
    25
177
     3
291
     0
 70
    58
 90
        2
176
     1
 90
        2
176
     1
 90
        1
176
     1
 90
        1
176
     1
 40
0.5
176
     1
 40
30.0
176
     1
 62
     7
420
 16777215
176
     1
 90
        1
176
     1
 90
        0
176
     1
 62
     7
176
     1
 62
   257
176
     1
 90
        1
176
     1
 90
        1
176
     1
 40
1.0
176
     1
 90
        8
176
     1
 62
     7
176
     1
 40
1.0
176
     1
 90
        1
176
     1
 90
        6
176
     1
 90
        2
176
     1
 62
     7
176
     1
 90
        3
176
     1
 90
        0
176
     1
 90
        0
176
     1
290
     0
176
     1
 90
       13
176
     1
 40
0.0
176
     1
 90
        0
176
     1
290
     0
176
     1
290
     1
176
     1
290
     1
176
     1
290
     0
176
     1
290
     0
176
     1
290
     0
176
     1
290
     0
176
     1
290
     0
176
     1
290
     0
176
     1
 90
       50
176
     1
 40
0.0
176
     1
 40
1.0
176
     1
 90
        0
176
     1
 62
    18
420
        0
176
     1
 90
       50
176
     1
 90
        3
176
     1
 62
     5
420
      255
176
     1
290
     0
176
     1
 90
       50
176
     1
 90
       50
176
     1
 90
       50
176
     1
290
     0
176
     1
 90
       50
176
     1
 62
   256
176
     0
 40
1.0
176
     0
 90
        2
176
     1
  1
strokes_ogs.tif
176
     1
290
     0
176
     1
 40
1.0
176
     1
 40
1.0
176
     1
  0
DICTIONARYVAR
  5
20CAD
102
{ACAD_REACTORS
330
20CA7
102
}
330
20CA7
100
DictionaryVariables
280
     0
  1
1:1
  0
DICTIONARYVAR
  5
20CA9
102
{ACAD_REACTORS
330
20CA7
102
}
330
20CA7
100
DictionaryVariables
280
     0
  1
STANDARD
  0
DICTIONARYVAR
  5
20CA8
102
{ACAD_REACTORS
330
20CA7
102
}
330
20CA7
100
DictionaryVariables
280
     0
  1
STANDARD
  0
DICTIONARYVAR
  5
20CAA
102
{ACAD_REACTORS
330
20CA7
102
}
330
20CA7
100
DictionaryVariables
280
     0
  1
Imperial24
  0
DICTIONARYVAR
  5
20CAB
102
{ACAD_REACTORS
330
20CA7
102
}
330
20CA7
100
DictionaryVariables
280
     0
  1
Imperial24
  0
DICTIONARYVAR
  5
20CAF
102
{ACAD_REACTORS
330
20CA7
102
}
330
20CA7
100
DictionaryVariables
280
     0
  1
1
  0
DICTIONARYVAR
  5
20CB0
102
{ACAD_REACTORS
330
20CA7
102
}
330
20CA7
100
DictionaryVariables
280
     0
  1
15
  0
DICTIONARYVAR
  5
20CAE
102
{ACAD_REACTORS
330
20CA7
102
}
330
20CA7
100
DictionaryVariables
280
     0
  1
0
  0
DICTIONARYVAR
  5
20CAC
102
{ACAD_REACTORS
330
20CA7
102
}
330
20CA7
100
DictionaryVariables
280
     0
  1
0
  0
DICTIONARY
  5
2029D
330
2029C
100
AcDbDictionary
280
     1
281
     1
  3
BUMPTILE
360
2029F
  3
DIFFUSETILE
360
2029E
  3
OPACITYTILE
360
202A2
  3
REFLECTIONTILE
360
202A1
  3
REFRACTIONTILE
360
202A3
  3
SPECULARTILE
360
202A0
  0
DICTIONARY
  5
20295
330
20294
100
AcDbDictionary
280
     1
281
     1
  3
BUMPTILE
360
20297
  3
DIFFUSETILE
360
20296
  3
OPACITYTILE
360
2029A
  3
REFLECTIONTILE
360
20299
  3
REFRACTIONTILE
360
2029B
  3
SPECULARTILE
360
20298
  0
DICTIONARY
  5
202A5
330
202A4
100
AcDbDictionary
280
     1
281
     1
  3
BUMPTILE
360
202A7
  3
DIFFUSETILE
360
202A6
  3
OPACITYTILE
360
202AA
  3
REFLECTIONTILE
360
202A9
  3
REFRACTIONTILE
360
202AB
  3
SPECULARTILE
360
202A8
  0
DICTIONARY
  5
20D09
330
202E7
100
AcDbDictionary
280
     1
281
     1
  3
ACAD_ROUNDTRIP_2008_TABLESTYLE_CELLSTYLEMAP
360
20D0A
  0
XRECORD
  5
2029F
102
{ACAD_REACTORS
330
2029D
102
}
330
2029D
100
AcDbXrecord
280
     1
270
     1
271
     1
  0
XRECORD
  5
2029E
102
{ACAD_REACTORS
330
2029D
102
}
330
2029D
100
AcDbXrecord
280
     1
270
     1
271
     1
  0
XRECORD
  5
202A2
102
{ACAD_REACTORS
330
2029D
102
}
330
2029D
100
AcDbXrecord
280
     1
270
     1
271
     1
  0
XRECORD
  5
202A1
102
{ACAD_REACTORS
330
2029D
102
}
330
2029D
100
AcDbXrecord
280
     1
270
     1
271
     1
  0
XRECORD
  5
202A3
102
{ACAD_REACTORS
330
2029D
102
}
330
2029D
100
AcDbXrecord
280
     1
270
     1
271
     1
  0
XRECORD
  5
202A0
102
{ACAD_REACTORS
330
2029D
102
}
330
2029D
100
AcDbXrecord
280
     1
270
     1
271
     1
  0
XRECORD
  5
20297
102
{ACAD_REACTORS
330
20295
102
}
330
20295
100
AcDbXrecord
280
     1
270
     1
271
     1
  0
XRECORD
  5
20296
102
{ACAD_REACTORS
330
20295
102
}
330
20295
100
AcDbXrecord
280
     1
270
     1
271
     1
  0
XRECORD
  5
2029A
102
{ACAD_REACTORS
330
20295
102
}
330
20295
100
AcDbXrecord
280
     1
270
     1
271
     1
  0
XRECORD
  5
20299
102
{ACAD_REACTORS
330
20295
102
}
330
20295
100
AcDbXrecord
280
     1
270
     1
271
     1
  0
XRECORD
  5
2029B
102
{ACAD_REACTORS
330
20295
102
}
330
20295
100
AcDbXrecord
280
     1
270
     1
271
     1
  0
XRECORD
  5
20298
102
{ACAD_REACTORS
330
20295
102
}
330
20295
100
AcDbXrecord
280
     1
270
     1
271
     1
  0
XRECORD
  5
202A7
102
{ACAD_REACTORS
330
202A5
102
}
330
202A5
100
AcDbXrecord
280
     1
270
     1
271
     1
  0
XRECORD
  5
202A6
102
{ACAD_REACTORS
330
202A5
102
}
330
202A5
100
AcDbXrecord
280
     1
270
     1
271
     1
  0
XRECORD
  5
202AA
102
{ACAD_REACTORS
330
202A5
102
}
330
202A5
100
AcDbXrecord
280
     1
270
     1
271
     1
  0
XRECORD
  5
202A9
102
{ACAD_REACTORS
330
202A5
102
}
330
202A5
100
AcDbXrecord
280
     1
270
     1
271
     1
  0
XRECORD
  5
202AB
102
{ACAD_REACTORS
330
202A5
102
}
330
202A5
100
AcDbXrecord
280
     1
270
     1
271
     1
  0
XRECORD
  5
202A8
102
{ACAD_REACTORS
330
202A5
102
}
330
202A5
100
AcDbXrecord
280
     1
270
     1
271
     1
  0
CELLSTYLEMAP
  5
20D0A
102
{ACAD_REACTORS
330
20D09
102
}
330
20D09
100
AcDbCellStyleMap
 90
        3
300
CELLSTYLE
  1
TABLEFORMAT_BEGIN
 90
        5
170
     1
 91
        0
 92
    32768
 62
   257
 93
        1
300
CONTENTFORMAT
  1
CONTENTFORMAT_BEGIN
 90
        0
 91
        0
 92
      512
 93
        0
300

 40
0.0
140
1.0
 94
        5
 62
     0
340
202D8
144
0.25
309
CONTENTFORMAT_END
171
     0
 94
        0
309
TABLEFORMAT_END
  1
CELLSTYLE_BEGIN
 90
        1
 91
        1
300
_TITLE
309
CELLSTYLE_END
300
CELLSTYLE
  1
TABLEFORMAT_BEGIN
 90
        5
170
     1
 91
        0
 92
        0
 62
   257
 93
        1
300
CONTENTFORMAT
  1
CONTENTFORMAT_BEGIN
 90
        0
 91
        0
 92
      512
 93
        0
300

 40
0.0
140
1.0
 94
        5
 62
     0
340
202D8
144
0.18
309
CONTENTFORMAT_END
171
     0
 94
        0
309
TABLEFORMAT_END
  1
CELLSTYLE_BEGIN
 90
        2
 91
        1
300
_HEADER
309
CELLSTYLE_END
300
CELLSTYLE
  1
TABLEFORMAT_BEGIN
 90
        5
170
     1
 91
        0
 92
        0
 62
   257
 93
        1
300
CONTENTFORMAT
  1
CONTENTFORMAT_BEGIN
 90
        0
 91
        0
 92
      512
 93
        0
300

 40
0.0
140
1.0
 94
        2
 62
     0
340
202D8
144
0.18
309
CONTENTFORMAT_END
171
     0
 94
        0
309
TABLEFORMAT_END
  1
CELLSTYLE_BEGIN
 90
        3
 91
        2
300
_DATA
309
CELLSTYLE_END
  0
ENDSEC
  0
SECTION
  2
ACDSDATA
 70
     2
 71
     8
  0
ACDSSCHEMA
 90
        0
  1
AcDb_Thumbnail_Schema
  2
AcDbDs::ID
280
    10
 91
        8
  2
Thumbnail_Data
280
    15
 91
        0
101
ACDSRECORD
 95
        0
 90
        1
  2
AcDbDs::TreatedAsObjectData
280
     1
291
     1
101
ACDSRECORD
 95
        0
 90
        2
  2
AcDbDs::Legacy
280
     1
291
     1
101
ACDSRECORD
  1
AcDbDs::ID
 90
        3
  2
AcDs:Indexable
280
     1
291
     1
101
ACDSRECORD
  1
AcDbDs::ID
 90
        4
  2
AcDbDs::HandleAttribute
280
     7
282
     1
  0
ACDSSCHEMA
 90
        1
  1
AcDbDs::TreatedAsObjectDataSchema
  2
AcDbDs::TreatedAsObjectData
280
     1
 91
        0
  0
ACDSSCHEMA
 90
        2
  1
AcDbDs::LegacySchema
  2
AcDbDs::Legacy
280
     1
 91
        0
  0
ACDSSCHEMA
 90
        3
  1
AcDbDs::IndexedPropertySchema
  2
AcDs:Indexable
280
     1
 91
        0
  0
ACDSSCHEMA
 90
        4
  1
AcDbDs::HandleAttributeSchema
  2
AcDbDs::HandleAttribute
280
     7
 91
        1
284
     1
  0
ACDSRECORD
 90
        0
  2
AcDbDs::ID
280
    10
320
202F5
  2
Thumbnail_Data
280
    15
 94
     1564
310
89504E470D0A1A0A0000000D49484452000001000000005F08030000003003E9C200000300504C5445212830FFFFFF2128300000000000000000000000000000000000000000000000000000330000660000990000CC0000FF0033000033330033660033990033CC0033FF0066000066330066660066990066CC0066FF0099
310
000099330099660099990099CC0099FF00CC0000CC3300CC6600CC9900CCCC00CCFF00FF0000FF3300FF6600FF9900FFCC00FFFF3300003300333300663300993300CC3300FF3333003333333333663333993333CC3333FF3366003366333366663366993366CC3366FF3399003399333399663399993399CC3399FF33CC00
310
33CC3333CC6633CC9933CCCC33CCFF33FF0033FF3333FF6633FF9933FFCC33FFFF6600006600336600666600996600CC6600FF6633006633336633666633996633CC6633FF6666006666336666666666996666CC6666FF6699006699336699666699996699CC6699FF66CC0066CC3366CC6666CC9966CCCC66CCFF66FF0066
310
FF3366FF6666FF9966FFCC66FFFF9900009900339900669900999900CC9900FF9933009933339933669933999933CC9933FF9966009966339966669966999966CC9966FF9999009999339999669999999999CC9999FF99CC0099CC3399CC6699CC9999CCCC99CCFF99FF0099FF3399FF6699FF9999FFCC99FFFFCC0000CC00
310
33CC0066CC0099CC00CCCC00FFCC3300CC3333CC3366CC3399CC33CCCC33FFCC6600CC6633CC6666CC6699CC66CCCC66FFCC9900CC9933CC9966CC9999CC99CCCC99FFCCCC00CCCC33CCCC66CCCC99CCCCCCCCCCFFCCFF00CCFF33CCFF66CCFF99CCFFCCCCFFFFFF0000FF0033FF0066FF0099FF00CCFF00FFFF3300FF3333
310
FF3366FF3399FF33CCFF33FFFF6600FF6633FF6666FF6699FF66CCFF66FFFF9900FF9933FF9966FF9999FF99CCFF99FFFFCC00FFCC33FFCC66FFCC99FFCCCCFFCCFFFFFF00FFFF33FFFF66FFFF99FFFFCCFFFFFF0000000D0D0D1A1A1A2828283535354343435050505D5D5D6B6B6B787878868686939393A1A1A1AEAEAEBB
310
BBBBC9C9C9D6D6D6E4E4E4F1F1F1FFFFFF0000000000000000000000000000000000000000000000000000000000002E4550F1000002024944415478DAED9A4D9202210C85731C3773372EFFF653A32D0203230E093F95F77481AD15C8D7604312118AA2288AA228EA54A1471346B00E80D26FFEEF7C6CF90350F8BC06C13A
310
00157FD1B722DBCB131834301100747ACA3D80C66D98030026A6CE01001B63C70080F806002100D700ECEC11C011000C57140110C001002C77150440000440007C0A100001F02C40008C0710C0D600DCC704754D1E191657B3796C62A4911972941AABB05F921DDD293B2CE20C40521F0097F501C9BA95655A5F2243F956C8
310
75BF767BAB0F3AF88A4A9AC9C5D5DE9757BA00C81800D904C0E57DFE37F37351CDF91CC03E37FEE57EA54C2E7859FBD228930B6EFC47BD282E8C6DE5A1A049FED78A4351D927FF3DA0E234A831FA09081EFEF76ED12CE3214BF6BE2FFF95E62B92612B9BB4F3FF7AAB9C2813002AB317E600703D00C7EF15EEFFA5E9A94A63
310
06C03434F19C001A9C71BDE2078D91C3780A84C75AD5E905520290DD0104710F008ABD00CE01C87100AE15E01900840008800008804F01AF00DCEF030840F72C702080F43428D81000C41C40120F180D4042391E80A741CB90508C08213646E277594448C79E6D442889092A07F00CC28C86041C47853BF3029FCC815FADD6
310
02EFCC354CCA8C4023355666867046722C34CBE43C6787E3173E0864F501B111DC00C82B44D289219E101437DC99FF1142512546511445511445EDAF6F9124957A485B4D380000000049454E44AE4260820250003A13D47B0105A000148002D0A7C2FA5E4001AC0680793728F2E5E0C8B7C30A600D00F5152222D7888C5C23
310
B40A80EA2A3192B8506CE43A4112F5C1BC07006A2B45210AC14D00CC6E81B0F85404837BABC488592C1D2F9B97B363E872B1749B0B241E206F42DCB55C9ED9302176DB44D78609C60566D27FE902F9D03FEBA6A9B909346C9B6BF10188C9FCF5DD33CC38D99006847F36B67FEB6C4E40F48773EB8D676559B1B7001D22D9D2
310
B7BFA0F03FEAF1A04AE91B1A6362EF273AFFB03F409C5E6020E61A390000000049454E44AE426082
  0
ENDSEC
  0
EOF
