0
SECTION
2
HEADER
9
$INSUNITS
70
4
9
$ACADVER
1
AC1014
9
$HANDSEED
5
FFFF
0
ENDSEC
0
SECTION
2
TABLES
0
TABLE
2
VPORT
5
8
100
AcDbSymbolTable
0
ENDTAB
0
TABLE
2
LTYPE
5
5
100
AcDbSymbolTable
0
LTYPE
5
14
100
AcDbSymbolTableRecord
100
AcDbLinetypeTableRecord
2
BYBLOCK
70
0
0
LTYPE
5
15
100
AcDbSymbolTableRecord
100
AcDbLinetypeTableRecord
2
BYLAYER
70
0
0
ENDTAB
0
TABLE
2
LAYER
5
2
100
AcDbSymbolTable
70
2
0
LAYER
5
50
100
AcDbSymbolTableRecord
100
AcDbLayerTableRecord
2
0
70
0
6
CONTINUOUS
0
ENDTAB
0
TABLE
2
STYLE
5
3
100
AcDbSymbolTable
70
1
0
STYLE
5
11
100
AcDbSymbolTableRecord
100
AcDbTextStyleTableRecord
2
STANDARD
70
0
0
ENDTAB
0
TABLE
2
VIEW
5
6
100
AcDbSymbolTable
70
0
0
ENDTAB
0
TABLE
2
UCS
5
7
100
AcDbSymbolTable
70
0
0
ENDTAB
0
TABLE
2
APPID
5
9
100
AcDbSymbolTable
70
2
0
APPID
5
12
100
AcDbSymbolTableRecord
100
AcDbRegAppTableRecord
2
ACAD
70
0
0
ENDTAB
0
TABLE
2
DIMSTYLE
5
A
100
AcDbSymbolTable
70
1
0
ENDTAB
0
TABLE
2
BLOCK_RECORD
5
1
100
AcDbSymbolTable
70
1
0
BLOCK_RECORD
5
1F
100
AcDbSymbolTableRecord
100
AcDbBlockTableRecord
2
*MODEL_SPACE
0
BLOCK_RECORD
5
1B
100
AcDbSymbolTableRecord
100
AcDbBlockTableRecord
2
*PAPER_SPACE
0
ENDTAB
0
ENDSEC
0
SECTION
2
BLOCKS
0
BLOCK
5
20
100
AcDbEntity
100
AcDbBlockBegin
2
*MODEL_SPACE
0
ENDBLK
5
21
100
AcDbEntity
100
AcDbBlockEnd
0
BLOCK
5
1C
100
AcDbEntity
100
AcDbBlockBegin
2
*PAPER_SPACE
0
ENDBLK
5
1D
100
AcDbEntity
100
AcDbBlockEnd
0
ENDSEC
0
SECTION
2
ENTITIES
0
LWPOLYLINE
5
100
100
AcDbEntity
8
0
100
AcDbPolyline
90
4
70
1
43
0.0
10
0
20
0
10
600
20
0
10
600
20
300
10
0
20
300
0
LWPOLYLINE
5
101
100
AcDbEntity
8
0
100
AcDbPolyline
90
8
70
1
43
0.0
10
10
20
10
10
495.83300000000008
20
10
10
495.83300000000008
20
12.405809567514289
42
-1.1664525325925299
10
495.83300000000008
20
17.594190432485707
10
495.83300000000008
20
80.405809567514382
42
-1.1664525325924724
10
495.83300000000008
20
85.594190432485647
10
495.83300000000008
20
88
10
10
20
88
0
CIRCLE
5
102
100
AcDbEntity
8
0
100
AcDbCircle
10
17.100000000000001
20
83
30
0
40
2.625
210
0
220
0
230
1
0
CIRCLE
5
103
100
AcDbEntity
8
0
100
AcDbCircle
10
17.100000000000001
20
14.999999999999991
30
0
40
2.625
210
0
220
0
230
1
0
CIRCLE
5
104
100
AcDbEntity
8
0
100
AcDbCircle
10
176.54400000000004
20
83
30
0
40
2.6249999999999996
210
0
220
0
230
1
0
CIRCLE
5
105
100
AcDbEntity
8
0
100
AcDbCircle
10
176.54399999999998
20
14.999999999999991
30
0
40
2.6250000000000018
210
0
220
0
230
1
0
CIRCLE
5
106
100
AcDbEntity
8
0
100
AcDbCircle
10
335.98800000000006
20
83
30
0
40
2.6249999999999978
210
0
220
0
230
1
0
CIRCLE
5
107
100
AcDbEntity
8
0
100
AcDbCircle
10
335.98799999999994
20
15.000000000000009
30
0
40
2.6249999999999996
210
0
220
0
230
1
0
LINE
5
108
100
AcDbEntity
8
0
100
AcDbLine
10
25.5
20
88
30
0
11
25.5
21
10
31
0
0
LINE
5
109
100
AcDbEntity
8
0
100
AcDbLine
10
168.54400000000001
20
88
30
0
11
168.54400000000001
21
10
31
0
0
LINE
5
110
100
AcDbEntity
8
0
100
AcDbLine
10
184.54400000000004
20
10
30
0
11
184.54400000000004
21
88
31
0
0
LINE
5
111
100
AcDbEntity
8
0
100
AcDbLine
10
327.98800000000006
20
88
30
0
11
327.98800000000006
21
10
31
0
0
LINE
5
112
100
AcDbEntity
8
0
100
AcDbLine
10
343.98800000000006
20
10
30
0
11
343.98800000000017
21
88
31
0
0
LINE
5
113
100
AcDbEntity
8
0
100
AcDbLine
10
487.83300000000008
20
88
30
0
11
487.83300000000008
21
10
31
0
0
LINE
5
114
100
AcDbEntity
8
0
100
AcDbLine
10
25.5
20
176
30
0
11
25.5
21
98
31
0
0
LINE
5
115
100
AcDbEntity
8
0
100
AcDbLine
10
184.54400000000004
20
98
30
0
11
184.54400000000004
21
176
31
0
0
LWPOLYLINE
5
116
100
AcDbEntity
8
0
100
AcDbPolyline
90
8
70
1
43
0.0
10
495.83300000000008
20
98
10
495.83300000000003
20
100.40580956731998
42
-1.1664525325791488
10
495.83300000000008
20
105.59419043268008
10
495.83300000000008
20
168.40580956751435
42
-1.1664525325925015
10
495.83300000000008
20
173.59419043248568
10
495.83300000000008
20
176
10
10
20
176
10
10
20
98
0
CIRCLE
5
117
100
AcDbEntity
8
0
100
AcDbCircle
10
176.54400000000004
20
171
30
0
40
2.6249999999999996
210
0
220
0
230
1
0
LINE
5
118
100
AcDbEntity
8
0
100
AcDbLine
10
487.83300000000008
20
176
30
0
11
487.83300000000008
21
98
31
0
0
LINE
5
119
100
AcDbEntity
8
0
100
AcDbLine
10
343.98799999999994
20
98
30
0
11
343.98799999999994
21
176
31
0
0
CIRCLE
5
120
100
AcDbEntity
8
0
100
AcDbCircle
10
176.54400000000004
20
103
30
0
40
2.6250000000000018
210
0
220
0
230
1
0
CIRCLE
5
121
100
AcDbEntity
8
0
100
AcDbCircle
10
17.100000000000001
20
171
30
0
40
2.625
210
0
220
0
230
1
0
CIRCLE
5
122
100
AcDbEntity
8
0
100
AcDbCircle
10
17.100000000000001
20
103
30
0
40
2.625
210
0
220
0
230
1
0
LINE
5
123
100
AcDbEntity
8
0
100
AcDbLine
10
327.988
20
176
30
0
11
327.988
21
98
31
0
0
CIRCLE
5
124
100
AcDbEntity
8
0
100
AcDbCircle
10
335.98799999999994
20
171
30
0
40
2.6249999999999978
210
0
220
0
230
1
0
LINE
5
125
100
AcDbEntity
8
0
100
AcDbLine
10
168.54400000000001
20
176
30
0
11
168.54400000000001
21
98
31
0
0
CIRCLE
5
126
100
AcDbEntity
8
0
100
AcDbCircle
10
335.98799999999994
20
102.99999999999997
30
0
40
2.6249999999999996
210
0
220
0
230
1
0
LWPOLYLINE
5
127
100
AcDbEntity
8
0
100
AcDbPolyline
90
12
70
1
43
0.0
10
10
20
186
10
488.33399999999995
20
186
10
488.33400000000006
20
188.37500076190486
42
-1.0007621952325969
10
488.33399999999995
20
193.62499923809514
10
488.33400000000006
20
256.37500076190486
42
-1.0007621952325969
10
488.33399999999995
20
261.62499923809514
10
488.33399999999995
20
264
10
10
20
264
10
10
20
261.625
42
-0.99999999999999989
10
10
20
256.375
10
10
20
193.625
42
-0.99999999999999989
10
10
20
188.37500000000003
0
CIRCLE
5
128
100
AcDbEntity
8
0
100
AcDbCircle
10
328.88800000000003
20
259
30
0
40
2.6250000000000107
210
0
220
0
230
1
0
CIRCLE
5
129
100
AcDbEntity
8
0
100
AcDbCircle
10
169.44399999999999
20
259
30
0
40
2.6250000000000022
210
0
220
0
230
1
0
CIRCLE
5
130
100
AcDbEntity
8
0
100
AcDbCircle
10
328.88800000000003
20
191
30
0
40
2.6250000000000124
210
0
220
0
230
1
0
CIRCLE
5
131
100
AcDbEntity
8
0
100
AcDbCircle
10
169.44399999999999
20
191
30
0
40
2.6250000000000067
210
0
220
0
230
1
0
LINE
5
132
100
AcDbEntity
8
0
100
AcDbLine
10
480.334
20
264
30
0
11
480.334
21
186
31
0
0
LINE
5
133
100
AcDbEntity
8
0
100
AcDbLine
10
336.88800000000009
20
186
30
0
11
336.88800000000009
21
264
31
0
0
LINE
5
134
100
AcDbEntity
8
0
100
AcDbLine
10
320.88800000000003
20
264
30
0
11
320.88800000000003
21
186
31
0
0
LINE
5
135
100
AcDbEntity
8
0
100
AcDbLine
10
177.44399999999999
20
186
30
0
11
177.44399999999999
21
264
31
0
0
LINE
5
136
100
AcDbEntity
8
0
100
AcDbLine
10
161.44399999999996
20
264
30
0
11
161.44399999999996
21
186
31
0
0
LINE
5
137
100
AcDbEntity
8
0
100
AcDbLine
10
18
20
186
30
0
11
18
21
264
31
0
0
ENDSEC
0
SECTION
2
OBJECTS
0
DICTIONARY
5
C
100
AcDbDictionary
3
ACAD_GROUP
350
D
3
ACAD_MLINESTYLE
350
17
0
DICTIONARY
5
D
100
AcDbDictionary
0
DICTIONARY
5
1A
330
C
100
AcDbDictionary
0
DICTIONARY
5
17
100
AcDbDictionary
0
ENDSEC
0
EOF
