0
SECTION
2
HEADER
9
$INSUNITS
70
4
9
$ACADVER
1
AC1014
9
$HANDSEED
5
FFFF
0
ENDSEC
0
SECTION
2
TABLES
0
TABLE
2
VPORT
5
8
100
AcDbSymbolTable
0
ENDTAB
0
TABLE
2
LTYPE
5
5
100
AcDbSymbolTable
0
LTYPE
5
14
100
AcDbSymbolTableRecord
100
AcDbLinetypeTableRecord
2
BYBLOCK
70
0
0
LTYPE
5
15
100
AcDbSymbolTableRecord
100
AcDbLinetypeTableRecord
2
BYLAYER
70
0
0
ENDTAB
0
TABLE
2
LAYER
5
2
100
AcDbSymbolTable
70
2
0
LAYER
5
50
100
AcDbSymbolTableRecord
100
AcDbLayerTableRecord
2
0
70
0
6
CONTINUOUS
0
ENDTAB
0
TABLE
2
STYLE
5
3
100
AcDbSymbolTable
70
1
0
STYLE
5
11
100
AcDbSymbolTableRecord
100
AcDbTextStyleTableRecord
2
STANDARD
70
0
0
ENDTAB
0
TABLE
2
VIEW
5
6
100
AcDbSymbolTable
70
0
0
ENDTAB
0
TABLE
2
UCS
5
7
100
AcDbSymbolTable
70
0
0
ENDTAB
0
TABLE
2
APPID
5
9
100
AcDbSymbolTable
70
2
0
APPID
5
12
100
AcDbSymbolTableRecord
100
AcDbRegAppTableRecord
2
ACAD
70
0
0
ENDTAB
0
TABLE
2
DIMSTYLE
5
A
100
AcDbSymbolTable
70
1
0
ENDTAB
0
TABLE
2
BLOCK_RECORD
5
1
100
AcDbSymbolTable
70
1
0
BLOCK_RECORD
5
1F
100
AcDbSymbolTableRecord
100
AcDbBlockTableRecord
2
*MODEL_SPACE
0
BLOCK_RECORD
5
1B
100
AcDbSymbolTableRecord
100
AcDbBlockTableRecord
2
*PAPER_SPACE
0
ENDTAB
0
ENDSEC
0
SECTION
2
BLOCKS
0
BLOCK
5
20
100
AcDbEntity
100
AcDbBlockBegin
2
*MODEL_SPACE
0
ENDBLK
5
21
100
AcDbEntity
100
AcDbBlockEnd
0
BLOCK
5
1C
100
AcDbEntity
100
AcDbBlockBegin
2
*PAPER_SPACE
0
ENDBLK
5
1D
100
AcDbEntity
100
AcDbBlockEnd
0
ENDSEC
0
SECTION
2
ENTITIES
0
LWPOLYLINE
5
100
100
AcDbEntity
8
0
100
AcDbPolyline
90
2
70
1
43
0.0
10
0
20
-175.88834764831844
42
1.0735899482212496
10
94.194173824159265
20
-94.194173824159265
42
-1.0735899482212496
0
LINE
5
101
100
AcDbEntity
8
0
100
AcDbLine
10
102.79733371721622
20
-171.83519432110515
30
0
11
102.79733371721622
21
-171.86488914481086
31
0
0
LWPOLYLINE
5
102
100
AcDbEntity
8
0
100
AcDbPolyline
90
2
70
1
43
0.0
10
0
20
0
10
-94.194173824159222
20
-94.194173824159222
0
LWPOLYLINE
5
103
100
AcDbEntity
8
0
100
AcDbPolyline
90
2
70
1
43
0.0
10
0
20
0
10
94.194173824159222
20
-94.194173824159222
0
LWPOLYLINE
5
104
100
AcDbEntity
8
0
100
AcDbPolyline
90
2
70
1
43
0.0
10
-94.194173824159222
20
-94.194173824159222
42
1.0735899482212496
10
-1.4432899320127035e-14
20
-175.88834764831847
42
-1.0735899482212496
0
LINE
5
105
100
AcDbEntity
8
0
100
AcDbLine
10
102.79733371721622
20
-171.86488914481086
30
0
11
102.77851048896345
21
-171.86488914481086
31
0
0
ARC
5
106
100
AcDbEntity
8
0
100
AcDbCircle
10
-4.9999999999885762
20
-135.96730124891022
30
0
40
5
210
0
220
0
230
1
100
AcDbArc
50
0
51
123.74898859583436
0
ARC
5
107
100
AcDbEntity
8
0
100
AcDbCircle
10
-4.9492014081918621
20
-98.554921926728611
30
0
40
5.0000000000002309
210
0
220
0
230
1
100
AcDbArc
50
236.0954188874382
51
359.99955687091511
0
ARC
5
108
100
AcDbEntity
8
0
100
AcDbCircle
10
-17.509971031977052
20
-117.24409104080479
30
0
40
17.517947857572047
210
0
220
-0
230
1
100
AcDbArc
50
56.095418887438193
51
303.74898859583436
0
SPLINE
5
109
100
AcDbEntity
8
0
100
AcDbSpline
70
4
71
5
72
21
73
15
74
0
42
0.000000001
43
0.0000000001
44
0.0000000001
40
0
40
0
40
0
40
0
40
0
40
0
40
0.10000000000000001
40
0.20000000000000001
40
0.30000000000000004
40
0.40000000000000002
40
0.5
40
0.59999999999999998
40
0.69999999999999996
40
0.79999999999999993
40
0.89999999999999991
40
1
40
1
40
1
40
1
40
1
40
1
41
1
41
1
41
1
41
1
41
1
41
1
41
1
41
1
41
1
41
1
41
1
41
1
41
1
41
1
41
1
10
0.050798591658601934
20
-98.554960597086975
30
0
10
0.16478711838546964
20
-96.827701915420548
30
0
10
0.39721108924143034
20
-93.314577107173136
30
0
10
0.75917479141830491
20
-87.86907729624771
30
0
10
1.2159810854679929
20
-80.269217731004886
30
0
10
1.4814959214580234
20
-70.278723253088884
30
0
10
1.1732516773228572
20
-59.906129435636686
30
0
10
0.14622069735700707
20
-49.29213425589645
30
0
10
-1.4794399323830456
20
-38.61402239754193
30
0
10
-3.1546992786032373
20
-28.094917484830692
30
0
10
-4.0988564931138063
20
-17.974457417629726
30
0
10
-3.6078631938852332
20
-10.377489095789391
30
0
10
-2.2323625362652506
20
-5.0396153768451049
30
0
10
-0.82573229155899286
20
-1.6514645831179855
30
0
10
0
20
0
30
0
0
SPLINE
5
110
100
AcDbEntity
8
0
100
AcDbSpline
70
4
71
5
72
21
73
15
74
0
42
0.000000001
43
0.0000000001
44
0.0000000001
40
0
40
0
40
0
40
0
40
0
40
0
40
0.10000000000000001
40
0.20000000000000001
40
0.30000000000000004
40
0.40000000000000002
40
0.5
40
0.59999999999999998
40
0.69999999999999996
40
0.79999999999999993
40
0.89999999999999991
40
1
40
1
40
1
40
1
40
1
40
1
41
1
41
1
41
1
41
1
41
1
41
1
41
1
41
1
41
1
41
1
41
1
41
1
41
1
41
1
41
1
10
0
20
-175.88834764831844
30
0
10
0.33437575958133597
20
-175.19155488507451
30
0
10
0.96174757433748059
20
-173.77784435397973
30
0
10
1.7786697285763196
20
-171.59690522516195
30
0
10
2.6155115463189134
20
-168.56623737120151
30
0
10
3.2211997260240617
20
-164.56759115907022
30
0
10
3.3733275852202658
20
-160.3639839727424
30
0
10
3.0869423306558796
20
-155.98676486377531
30
0
10
2.4343016224391203
20
-151.51214310310831
30
0
10
1.5813773538175948
20
-147.08390894696382
30
0
10
0.73866544592059269
20
-142.87920158635251
30
0
10
0.24161734290728032
20
-139.83643291218382
30
0
10
0.043932607054829612
20
-137.79909478813462
30
0
10
1.3700943204265407e-11
20
-136.55832219879892
30
0
10
1.1424194923392861e-11
20
-135.96730124891022
30
0
0
ENDSEC
0
SECTION
2
OBJECTS
0
DICTIONARY
5
C
100
AcDbDictionary
3
ACAD_GROUP
350
D
3
ACAD_MLINESTYLE
350
17
0
DICTIONARY
5
D
100
AcDbDictionary
0
DICTIONARY
5
1A
330
C
100
AcDbDictionary
0
DICTIONARY
5
17
100
AcDbDictionary
0
ENDSEC
0
EOF
