0
SECTION
2
HEADER
9
$INSUNITS
70
4
9
$ACADVER
1
AC1014
9
$HANDSEED
5
FFFF
0
ENDSEC
0
SECTION
2
TABLES
0
TABLE
2
VPORT
5
8
100
AcDbSymbolTable
0
ENDTAB
0
TABLE
2
LTYPE
5
5
100
AcDbSymbolTable
0
LTYPE
5
14
100
AcDbSymbolTableRecord
100
AcDbLinetypeTableRecord
2
BYBLOCK
70
0
0
LTYPE
5
15
100
AcDbSymbolTableRecord
100
AcDbLinetypeTableRecord
2
BYLAYER
70
0
0
ENDTAB
0
TABLE
2
LAYER
5
2
100
AcDbSymbolTable
70
2
0
LAYER
5
50
100
AcDbSymbolTableRecord
100
AcDbLayerTableRecord
2
0
70
0
6
CONTINUOUS
0
ENDTAB
0
TABLE
2
STYLE
5
3
100
AcDbSymbolTable
70
1
0
STYLE
5
11
100
AcDbSymbolTableRecord
100
AcDbTextStyleTableRecord
2
STANDARD
70
0
0
ENDTAB
0
TABLE
2
VIEW
5
6
100
AcDbSymbolTable
70
0
0
ENDTAB
0
TABLE
2
UCS
5
7
100
AcDbSymbolTable
70
0
0
ENDTAB
0
TABLE
2
APPID
5
9
100
AcDbSymbolTable
70
2
0
APPID
5
12
100
AcDbSymbolTableRecord
100
AcDbRegAppTableRecord
2
ACAD
70
0
0
ENDTAB
0
TABLE
2
DIMSTYLE
5
A
100
AcDbSymbolTable
70
1
0
ENDTAB
0
TABLE
2
BLOCK_RECORD
5
1
100
AcDbSymbolTable
70
1
0
BLOCK_RECORD
5
1F
100
AcDbSymbolTableRecord
100
AcDbBlockTableRecord
2
*MODEL_SPACE
0
BLOCK_RECORD
5
1B
100
AcDbSymbolTableRecord
100
AcDbBlockTableRecord
2
*PAPER_SPACE
0
ENDTAB
0
ENDSEC
0
SECTION
2
BLOCKS
0
BLOCK
5
20
100
AcDbEntity
100
AcDbBlockBegin
2
*MODEL_SPACE
0
ENDBLK
5
21
100
AcDbEntity
100
AcDbBlockEnd
0
BLOCK
5
1C
100
AcDbEntity
100
AcDbBlockBegin
2
*PAPER_SPACE
0
ENDBLK
5
1D
100
AcDbEntity
100
AcDbBlockEnd
0
ENDSEC
0
SECTION
2
ENTITIES
0
LINE
5
100
100
AcDbEntity
8
0
100
AcDbLine
10
81.796132695873638
20
61.999999999999993
30
0
11
162.78571428571433
21
61.999999999999993
31
0
0
LWPOLYLINE
5
101
100
AcDbEntity
8
0
100
AcDbPolyline
90
6
70
1
43
0.0
10
17.999999999999968
20
54.119729063467062
10
17.999999999999989
20
22
42
0.41421356237309698
10
22.000000000000028
20
18
10
101.48958158984065
20
18
42
0.82431888796425934
10
102.98816251841096
20
25.708672970285367
10
23.498580928570263
20
57.82840203375244
42
0.53172279555978919
0
LINE
5
102
100
AcDbEntity
8
0
100
AcDbLine
10
1193
20
80
30
0
11
0
21
80
31
0
0
LINE
5
103
100
AcDbEntity
8
0
100
AcDbLine
10
0
20
80
30
0
11
0
21
0
31
0
0
LINE
5
104
100
AcDbEntity
8
0
100
AcDbLine
10
851.47857142857129
20
0
30
0
11
1014.6642857142858
21
0
31
0
0
LINE
5
105
100
AcDbEntity
8
0
100
AcDbLine
10
1193
20
-2.2186712959340957e-30
30
0
11
1193
21
80
31
0
0
LWPOLYLINE
5
106
100
AcDbEntity
8
0
100
AcDbPolyline
90
4
70
1
43
0.0
10
4.9500000000000099
20
74.000000000000014
42
-0.99999999999999989
10
10.050000000000008
20
74.000000000000014
10
10.050000000000011
20
64.713445739534336
42
-3.5837042115820914
10
4.9500000000000117
20
64.713445739534336
0
LINE
5
107
100
AcDbEntity
8
0
100
AcDbLine
10
683.19285714285706
20
74.000000000000014
30
0
11
683.19285714285706
21
64.71344573953435
31
0
0
ARC
5
108
100
AcDbEntity
8
0
100
AcDbCircle
10
680.64285714285711
20
60.500000000000007
30
0
40
4.9250000000000096
210
0
220
0
230
1
100
AcDbArc
50
-238.8174485393352
51
58.817448539337896
0
LINE
5
109
100
AcDbEntity
8
0
100
AcDbLine
10
678.09285714285704
20
64.713445739534293
30
0
11
678.09285714285716
21
74.000000000000014
31
0
0
ARC
5
110
100
AcDbEntity
8
0
100
AcDbCircle
10
680.64285714285711
20
74.000000000000014
30
0
40
2.5499999999999545
210
0
220
0
230
1
100
AcDbArc
50
0
51
180
0
LINE
5
111
100
AcDbEntity
8
0
100
AcDbLine
10
346.62142857142862
20
74.000000000000014
30
0
11
346.62142857142862
21
64.713445739534322
31
0
0
ARC
5
112
100
AcDbEntity
8
0
100
AcDbCircle
10
344.07142857142856
20
60.500000000000007
30
0
40
4.9250000000000025
210
0
220
0
230
1
100
AcDbArc
50
-238.81744853933594
51
58.81744853933651
0
LINE
5
113
100
AcDbEntity
8
0
100
AcDbLine
10
341.52142857142854
20
64.713445739534322
30
0
11
341.52142857142854
21
74.000000000000014
31
0
0
ARC
5
114
100
AcDbEntity
8
0
100
AcDbCircle
10
344.07142857142856
20
74.000000000000014
30
0
40
2.5500000000000256
210
0
220
0
230
1
100
AcDbArc
50
0
51
180
0
LINE
5
115
100
AcDbEntity
8
0
100
AcDbLine
10
178.33571428571432
20
74.000000000000014
30
0
11
178.33571428571429
21
64.713445739534336
31
0
0
ARC
5
116
100
AcDbEntity
8
0
100
AcDbCircle
10
175.78571428571428
20
60.500000000000007
30
0
40
4.9249999999999998
210
0
220
0
230
1
100
AcDbArc
50
-238.81744853933631
51
58.817448539336027
0
LINE
5
117
100
AcDbEntity
8
0
100
AcDbLine
10
173.23571428571429
20
64.713445739534336
30
0
11
173.23571428571429
21
74.000000000000014
31
0
0
ARC
5
118
100
AcDbEntity
8
0
100
AcDbCircle
10
175.78571428571428
20
74.000000000000014
30
0
40
2.5500000000000256
210
0
220
0
230
1
100
AcDbArc
50
0
51
180
0
LINE
5
119
100
AcDbEntity
8
0
100
AcDbLine
10
851.47857142857129
20
74.000000000000014
30
0
11
851.47857142857129
21
64.71344573953435
31
0
0
ARC
5
120
100
AcDbEntity
8
0
100
AcDbCircle
10
848.92857142857133
20
60.500000000000007
30
0
40
4.9250000000000096
210
0
220
0
230
1
100
AcDbArc
50
-238.8174485393352
51
58.817448539337896
0
LINE
5
121
100
AcDbEntity
8
0
100
AcDbLine
10
846.37857142857126
20
64.713445739534293
30
0
11
846.37857142857138
21
74.000000000000014
31
0
0
ARC
5
122
100
AcDbEntity
8
0
100
AcDbCircle
10
848.92857142857133
20
74.000000000000014
30
0
40
2.5499999999999545
210
0
220
0
230
1
100
AcDbArc
50
0
51
180
0
LINE
5
123
100
AcDbEntity
8
0
100
AcDbLine
10
514.90714285714284
20
74.000000000000014
30
0
11
514.90714285714284
21
64.713445739534322
31
0
0
ARC
5
124
100
AcDbEntity
8
0
100
AcDbCircle
10
512.35714285714289
20
60.500000000000007
30
0
40
4.9250000000000025
210
0
220
0
230
1
100
AcDbArc
50
-238.81744853933535
51
58.81744853933651
0
LINE
5
125
100
AcDbEntity
8
0
100
AcDbLine
10
509.80714285714282
20
64.713445739534322
30
0
11
509.80714285714282
21
74.000000000000014
31
0
0
ARC
5
126
100
AcDbEntity
8
0
100
AcDbCircle
10
512.35714285714289
20
74.000000000000014
30
0
40
2.5500000000000256
210
0
220
0
230
1
100
AcDbArc
50
0
51
180
0
LINE
5
127
100
AcDbEntity
8
0
100
AcDbLine
10
846.37857142857138
20
0
30
0
11
846.37857142857138
21
5.9999999999999876
31
0
0
ARC
5
128
100
AcDbEntity
8
0
100
AcDbCircle
10
848.92857142857133
20
6.000000000000032
30
0
40
2.5499999999999545
210
0
220
0
230
1
100
AcDbArc
50
0
51
180
0
LINE
5
129
100
AcDbEntity
8
0
100
AcDbLine
10
851.47857142857129
20
5.9999999999999876
30
0
11
851.47857142857129
21
0
31
0
0
LINE
5
130
100
AcDbEntity
8
0
100
AcDbLine
10
0
20
0
30
0
11
4.9500000000000091
21
0
31
0
0
LINE
5
131
100
AcDbEntity
8
0
100
AcDbLine
10
4.9500000000000091
20
0
30
0
11
4.9500000000000099
21
5.9999999999999876
31
0
0
ARC
5
132
100
AcDbEntity
8
0
100
AcDbCircle
10
7.5000000000000089
20
5.9999999999999876
30
0
40
2.5499999999999989
210
0
220
0
230
1
100
AcDbArc
50
0
51
180
0
LINE
5
133
100
AcDbEntity
8
0
100
AcDbLine
10
10.050000000000008
20
5.9999999999999876
30
0
11
10.050000000000008
21
0
31
0
0
LINE
5
134
100
AcDbEntity
8
0
100
AcDbLine
10
10.050000000000008
20
0
30
0
11
173.23571428571432
21
0
31
0
0
LINE
5
135
100
AcDbEntity
8
0
100
AcDbLine
10
173.23571428571432
20
0
30
0
11
173.23571428571429
21
5.9999999999999876
31
0
0
ARC
5
136
100
AcDbEntity
8
0
100
AcDbCircle
10
175.78571428571428
20
6.0000000000000142
30
0
40
2.5499999999999901
210
-0
220
0
230
1
100
AcDbArc
50
0
51
180
0
LINE
5
137
100
AcDbEntity
8
0
100
AcDbLine
10
178.33571428571429
20
5.9999999999999876
30
0
11
178.33571428571432
21
0
31
0
0
LINE
5
138
100
AcDbEntity
8
0
100
AcDbLine
10
178.33571428571432
20
0
30
0
11
341.5214285714286
21
0
31
0
0
LINE
5
139
100
AcDbEntity
8
0
100
AcDbLine
10
341.5214285714286
20
0
30
0
11
341.52142857142854
21
5.9999999999999876
31
0
0
ARC
5
140
100
AcDbEntity
8
0
100
AcDbCircle
10
344.07142857142856
20
5.9999999999999964
30
0
40
2.5500000000000256
210
-0
220
0
230
1
100
AcDbArc
50
0
51
180
0
LINE
5
141
100
AcDbEntity
8
0
100
AcDbLine
10
346.62142857142862
20
5.9999999999999876
30
0
11
346.62142857142862
21
0
31
0
0
LINE
5
142
100
AcDbEntity
8
0
100
AcDbLine
10
346.62142857142862
20
0
30
0
11
509.80714285714282
21
0
31
0
0
LINE
5
143
100
AcDbEntity
8
0
100
AcDbLine
10
509.80714285714282
20
0
30
0
11
509.80714285714282
21
5.9999999999999876
31
0
0
ARC
5
144
100
AcDbEntity
8
0
100
AcDbCircle
10
512.35714285714289
20
5.9999999999999254
30
0
40
2.5500000000000256
210
-0
220
0
230
1
100
AcDbArc
50
0
51
180
0
LINE
5
145
100
AcDbEntity
8
0
100
AcDbLine
10
514.90714285714284
20
5.9999999999999876
30
0
11
514.90714285714284
21
0
31
0
0
LINE
5
146
100
AcDbEntity
8
0
100
AcDbLine
10
514.90714285714284
20
0
30
0
11
678.09285714285716
21
0
31
0
0
LINE
5
147
100
AcDbEntity
8
0
100
AcDbLine
10
678.09285714285716
20
0
30
0
11
678.09285714285716
21
5.9999999999999876
31
0
0
ARC
5
148
100
AcDbEntity
8
0
100
AcDbCircle
10
680.64285714285711
20
6.000000000000032
30
0
40
2.5499999999999545
210
0
220
0
230
1
100
AcDbArc
50
0
51
180
0
LINE
5
149
100
AcDbEntity
8
0
100
AcDbLine
10
683.19285714285706
20
5.9999999999999876
30
0
11
683.19285714285706
21
0
31
0
0
LINE
5
150
100
AcDbEntity
8
0
100
AcDbLine
10
683.19285714285706
20
0
30
0
11
846.37857142857138
21
0
31
0
0
SPLINE
5
151
100
AcDbEntity
8
0
100
AcDbSpline
70
0
71
3
72
8
73
4
74
0
42
0.000000001
43
0.0000000001
44
0.0000000001
40
-1
40
-1
40
-1
40
-1
40
0
40
0
40
0
40
0
10
560.89815419292722
20
58.106783674046554
30
0
10
560.97143249292697
20
57.796244974046502
30
0
10
560.83232459292719
20
57.474422074046593
30
0
10
560.55600419292716
20
57.314894374046482
30
0
0
LINE
5
152
100
AcDbEntity
8
0
100
AcDbLine
10
560.55600419292716
20
57.314894374046474
30
0
11
556.69701479292712
21
55.08681267404689
31
0
0
SPLINE
5
153
100
AcDbEntity
8
0
100
AcDbSpline
70
0
71
3
72
8
73
4
74
0
42
0.000000001
43
0.0000000001
44
0.0000000001
40
-1
40
-1
40
-1
40
-1
40
0
40
0
40
0
40
0
10
544.05344579292739
20
61.991662774046532
30
0
10
543.7478915929272
20
62.083483774046513
30
0
10
543.5385932929272
20
62.36480487404652
30
0
10
543.5385932929272
20
62.683868374046611
30
0
0
LINE
5
154
100
AcDbEntity
8
0
100
AcDbLine
10
543.5385932929272
20
62.683868374046611
30
0
11
543.5385932929272
21
67.139875474046647
31
0
0
SPLINE
5
155
100
AcDbEntity
8
0
100
AcDbSpline
70
0
71
3
72
8
73
4
74
0
42
0.000000001
43
0.0000000001
44
0.0000000001
40
-1
40
-1
40
-1
40
-1
40
0
40
0
40
0
40
0
10
560.89815419292722
20
71.716960174046676
30
0
10
559.84223639292725
20
67.241694574046448
30
0
10
559.84223639292725
20
62.582049274046561
30
0
10
560.89815419292722
20
58.106783674046554
30
0
0
LWPOLYLINE
5
156
100
AcDbEntity
8
0
100
AcDbPolyline
90
4
70
1
43
0.0
10
1188.0500000000002
20
64.71344573953435
10
1188.0500000000002
20
74.000000000000014
42
0.99999999999999989
10
1182.9500000000003
20
74.000000000000014
10
1182.95
20
64.713445739534293
42
3.5837042115820483
0
ARC
5
157
100
AcDbEntity
8
0
100
AcDbCircle
10
1017.2142857142858
20
60.500000000000007
30
0
40
4.9250000000000096
210
0
220
0
230
1
100
AcDbArc
50
-238.81744853933407
51
58.817448539339026
0
LINE
5
158
100
AcDbEntity
8
0
100
AcDbLine
10
1014.6642857142856
20
64.713445739534293
30
0
11
1014.6642857142858
21
74.000000000000014
31
0
0
ARC
5
159
100
AcDbEntity
8
0
100
AcDbCircle
10
1017.2142857142858
20
74.000000000000014
30
0
40
2.5499999999999545
210
0
220
0
230
1
100
AcDbArc
50
0
51
180
0
LINE
5
160
100
AcDbEntity
8
0
100
AcDbLine
10
1019.7642857142857
20
74.000000000000014
30
0
11
1019.7642857142857
21
64.71344573953435
31
0
0
LINE
5
161
100
AcDbEntity
8
0
100
AcDbLine
10
1014.6642857142858
20
0
30
0
11
1014.6642857142858
21
5.9999999999999876
31
0
0
ARC
5
162
100
AcDbEntity
8
0
100
AcDbCircle
10
1017.2142857142858
20
6.000000000000032
30
0
40
2.5499999999999545
210
0
220
0
230
1
100
AcDbArc
50
0
51
180
0
LINE
5
163
100
AcDbEntity
8
0
100
AcDbLine
10
1019.7642857142857
20
5.9999999999999876
30
0
11
1019.7642857142857
21
0
31
0
0
LINE
5
164
100
AcDbEntity
8
0
100
AcDbLine
10
1019.7642857142857
20
0
30
0
11
1182.9500000000003
21
0
31
0
0
LINE
5
165
100
AcDbEntity
8
0
100
AcDbLine
10
1182.9500000000003
20
0
30
0
11
1182.9500000000003
21
5.9999999999999876
31
0
0
ARC
5
166
100
AcDbEntity
8
0
100
AcDbCircle
10
1185.5
20
6.000000000000032
30
0
40
2.5499999999999545
210
0
220
0
230
1
100
AcDbArc
50
0
51
180
0
LINE
5
167
100
AcDbEntity
8
0
100
AcDbLine
10
1188.0500000000002
20
5.9999999999999876
30
0
11
1188.0500000000002
21
0
31
0
0
LINE
5
168
100
AcDbEntity
8
0
100
AcDbLine
10
1188.0500000000002
20
0
30
0
11
1193
21
-2.2186712959340957e-30
31
0
0
SPLINE
5
169
100
AcDbEntity
8
0
100
AcDbSpline
70
0
71
3
72
8
73
4
74
0
42
0.000000001
43
0.0000000001
44
0.0000000001
40
-1
40
-1
40
-1
40
-1
40
0
40
0
40
0
40
0
10
543.5385932929272
20
67.139875474046647
30
0
10
543.5385932929272
20
67.45893897404649
30
0
10
543.7478915929272
20
67.740267874046552
30
0
10
544.05344579292739
20
67.832081674046734
30
0
0
SPLINE
5
170
100
AcDbEntity
8
0
100
AcDbSpline
70
0
71
3
72
8
73
4
74
0
42
0.000000001
43
0.0000000001
44
0.0000000001
40
-1
40
-1
40
-1
40
-1
40
0
40
0
40
0
40
0
10
544.05344579292739
20
67.832081674046734
30
0
10
548.45709929292707
20
69.155270974046445
30
0
10
552.49244009292727
20
71.485167574046386
30
0
10
555.84016799292715
20
74.637243274046398
30
0
0
LWPOLYLINE
5
171
100
AcDbEntity
8
0
100
AcDbPolyline
90
6
70
1
43
0.0
10
597.99858092856982
20
48.155408967522597
10
613.18368907407864
20
54.291327029714637
42
0.82431888796425945
10
611.68510814550837
20
61.999999999999993
10
581.31489185449095
20
62
42
0.82431888796425168
10
579.81631092592056
20
54.291327029714644
10
595.00141907142915
20
48.155408967522639
42
0.19440193329603184
0
LWPOLYLINE
5
172
100
AcDbEntity
8
0
100
AcDbPolyline
90
6
70
1
43
0.0
10
248.5832660530175
20
54.291327029714623
10
329.57284764285845
20
21.565485911918095
42
0.53172279555978796
10
335.07142857142867
20
25.274158882203452
10
335.07142857142895
20
57.999999999999964
42
0.41421356237309764
10
331.07142857142895
20
61.999999999999993
10
250.08184698158783
20
62
42
0.82431888796425601
0
LWPOLYLINE
5
173
100
AcDbEntity
8
0
100
AcDbPolyline
90
6
70
1
43
0.0
10
353.0714285714285
20
54.725841117796492
10
353.0714285714285
20
22
42
0.41421356237309503
10
357.07142857142856
20
18
10
438.06101016126934
20
18.000000000000004
42
0.82431888796425945
10
439.55959108983961
20
25.708672970285381
10
358.57000949999883
20
58.434514088081869
42
0.53172279555979052
0
LWPOLYLINE
5
174
100
AcDbEntity
8
0
100
AcDbPolyline
90
6
70
1
43
0.0
10
595.00141907142927
20
31.844591032477535
10
579.81631092592033
20
25.708672970285363
42
0.82431888796425179
10
581.31489185449072
20
18
10
611.68510814550882
20
18.000000000000004
42
0.82431888796425945
10
613.1836890740791
20
25.708672970285377
10
597.99858092856994
20
31.844591032477524
42
0.19440193329603117
0
LWPOLYLINE
5
175
100
AcDbEntity
8
0
100
AcDbPolyline
90
6
70
1
43
0.0
10
923.224704124445
20
18
10
1004.2142857142858
20
18.000000000000004
42
0.41421356237309503
10
1008.2142857142858
20
22
10
1008.2142857142858
20
54.725841117796399
42
0.5317227955597903
10
1002.7157047857155
20
58.434514088081791
10
921.72612319587472
20
25.708672970285381
42
0.82431888796425945
0
LINE
5
176
100
AcDbEntity
8
0
100
AcDbLine
10
568.63747058668378
20
36.291327029714651
30
0
11
526.85572378571339
21
19.408380105044067
31
0
0
LINE
5
177
100
AcDbEntity
8
0
100
AcDbLine
10
521.35714285714312
20
23.117053075329451
30
0
11
521.357142857143
21
56.882946924670499
31
0
0
LINE
5
178
100
AcDbEntity
8
0
100
AcDbLine
10
526.85572378571339
20
60.591619894955869
30
0
11
568.63747058668378
21
43.708672970285406
31
0
0
LWPOLYLINE
5
179
100
AcDbEntity
8
0
100
AcDbPolyline
90
6
70
1
43
0.0
10
184.78571428571428
20
54.725841117796463
10
184.78571428571428
20
22
42
0.41421356237309503
10
188.78571428571428
20
18
10
269.77529587555512
20
18
42
0.82431888796425967
10
271.27387680412545
20
25.708672970285377
10
190.28429521428453
20
58.434514088081841
42
0.53172279555979085
0
LINE
5
180
100
AcDbEntity
8
0
100
AcDbLine
10
166.78571428571431
20
58
30
0
11
166.78571428571431
21
25.27415888220359
31
0
0
ARC
5
181
100
AcDbEntity
8
0
100
AcDbCircle
10
162.78571428571433
20
25.27415888220359
30
0
40
4.0000000000000018
210
0
220
0
230
1
100
AcDbArc
50
-112.00238771910372
51
0
0
LINE
5
182
100
AcDbEntity
8
0
100
AcDbLine
10
161.287133357144
20
21.565485911918213
30
0
11
80.297551767303332
21
54.291327029714616
31
0
0
ARC
5
183
100
AcDbEntity
8
0
100
AcDbCircle
10
81.796132695873652
20
58
30
0
40
4.0000000000000036
210
0
220
0
230
1
100
AcDbArc
50
90.000000000000199
51
247.99761228089653
0
ARC
5
184
100
AcDbEntity
8
0
100
AcDbCircle
10
162.78571428571433
20
58
30
0
40
3.9999999999999858
210
0
220
-0
230
1
100
AcDbArc
50
0
51
90
0
LWPOLYLINE
5
185
100
AcDbEntity
8
0
100
AcDbPolyline
90
6
70
1
43
0.0
10
416.86898033873194
20
54.291327029714594
10
497.8585619285729
20
21.565485911918056
42
0.53172279555979263
10
503.35714285714312
20
25.274158882203452
10
503.35714285714295
20
58.000000000000014
42
0.4142135623730937
10
499.357142857143
20
61.999999999999993
10
418.36756126730222
20
62
42
0.82431888796426067
0
LWPOLYLINE
5
186
100
AcDbEntity
8
0
100
AcDbPolyline
90
6
70
1
43
0.0
10
624.36252941331463
20
36.291327029714658
10
666.14427621428672
20
19.408380105043079
42
0.53172279555979007
10
671.64285714285711
20
23.117053075328478
10
671.642857142857
20
56.882946924671572
42
0.53172279555979107
10
666.14427621428672
20
60.591619894956935
10
624.36252941331463
20
43.708672970285434
42
0.67447820055085483
0
LINE
5
187
100
AcDbEntity
8
0
100
AcDbLine
10
776.13101966126794
20
54.291327029714637
30
0
11
695.1414380714275
21
21.565485911918216
31
0
0
LINE
5
188
100
AcDbEntity
8
0
100
AcDbLine
10
689.64285714285711
20
25.274158882203558
30
0
11
689.64285714285722
21
58.000000000000014
31
0
0
LWPOLYLINE
5
189
100
AcDbEntity
8
0
100
AcDbPolyline
90
6
70
1
43
0.0
10
1031.7128666428562
20
21.565485911918209
10
1112.7024482326967
20
54.291327029714594
42
0.82431888796426067
10
1111.2038673041266
20
61.999999999999993
10
1030.2142857142858
20
61.999999999999993
42
0.41421356237309503
10
1026.214285714286
20
58
10
1026.2142857142858
20
25.274158882203594
42
0.53172279555979041
0
LWPOLYLINE
5
190
100
AcDbEntity
8
0
100
AcDbPolyline
90
6
70
1
43
0.0
10
863.42715235714172
20
21.565485911918117
10
944.4167339469825
20
54.291327029714616
42
0.82431888796425945
10
942.91815301841223
20
61.999999999999993
10
861.9285714285711
20
62
42
0.41421356237309764
10
857.9285714285711
20
57.999999999999964
10
857.92857142857133
20
25.274158882203501
42
0.53172279555978663
0
LWPOLYLINE
5
191
100
AcDbEntity
8
0
100
AcDbPolyline
90
6
70
1
43
0.0
10
839.92857142857156
20
22
10
839.92857142857156
20
54.725841117796428
42
0.5317227955597893
10
834.42999050000128
20
58.434514088081855
10
753.4404089101605
20
25.708672970285381
42
0.82431888796425945
10
754.93898983873078
20
18
10
835.92857142857156
20
18.000000000000004
42
0.41421356237309503
0
LWPOLYLINE
5
192
100
AcDbEntity
8
0
100
AcDbPolyline
90
6
70
1
43
0.0
10
1091.5104184101594
20
18
10
1171
20
18
42
0.41421356237309503
10
1175.0000000000002
20
22
10
1175.0000000000002
20
54.119729063467076
42
0.53172279555979329
10
1169.5014190714298
20
57.828402033752369
10
1090.0118374815891
20
25.708672970285377
42
0.82431888796425945
0
ARC
5
193
100
AcDbEntity
8
0
100
AcDbCircle
10
525.35714285714312
20
23.117053075329451
30
0
40
3.9999999999999858
210
0
220
0
230
1
100
AcDbArc
50
180
51
292.0023877191029
0
ARC
5
194
100
AcDbEntity
8
0
100
AcDbCircle
10
525.35714285714312
20
56.882946924670499
30
0
40
3.9999999999999885
210
0
220
-0
230
1
100
AcDbArc
50
67.997612280896988
51
180
0
ARC
5
195
100
AcDbEntity
8
0
100
AcDbCircle
10
567.1388896581135
20
40.000000000000028
30
0
40
3.9999999999999969
210
-0
220
0
230
1
100
AcDbArc
50
-67.997612280897087
51
67.997612280897059
0
ARC
5
196
100
AcDbEntity
8
0
100
AcDbCircle
10
693.64285714285711
20
25.274158882203537
30
0
40
4.0000000000000568
210
0
220
0
230
1
100
AcDbArc
50
180
51
292.00238771910472
0
ARC
5
197
100
AcDbEntity
8
0
100
AcDbCircle
10
693.64285714285711
20
58
30
0
40
4.0000000000000036
210
-0
220
0
230
1
100
AcDbArc
50
90
51
180
0
LINE
5
198
100
AcDbEntity
8
0
100
AcDbLine
10
693.64285714285711
20
62
30
0
11
774.63243873269766
21
61.999999999999993
31
0
0
ARC
5
199
100
AcDbEntity
8
0
100
AcDbCircle
10
774.63243873269766
20
58
30
0
40
3.9999999999999885
210
-0
220
0
230
1
100
AcDbArc
50
-67.997612280896988
51
90
0
SPLINE
5
200
100
AcDbEntity
8
0
100
AcDbSpline
70
0
71
3
72
8
73
4
74
0
42
0.000000001
43
0.0000000001
44
0.0000000001
40
-1
40
-1
40
-1
40
-1
40
0
40
0
40
0
40
0
10
555.84016799292715
20
74.637243274046398
30
0
10
555.97084079292711
20
74.760282574046471
30
0
10
556.13806409292704
20
74.826854374046491
30
0
10
556.30866629292711
20
74.833204474046454
30
0
0
SPLINE
5
201
100
AcDbEntity
8
0
100
AcDbSpline
70
0
71
3
72
8
73
4
74
0
42
0.000000001
43
0.0000000001
44
0.0000000001
40
-1
40
-1
40
-1
40
-1
40
0
40
0
40
0
40
0
10
556.30866629292711
20
74.833204474046454
30
0
10
556.44135749292718
20
74.838165274046403
30
0
10
556.57612109292711
20
74.806724974046404
30
0
10
556.69701479292712
20
74.736930574046326
30
0
0
LINE
5
202
100
AcDbEntity
8
0
100
AcDbLine
10
556.69701479292712
20
74.736930574046326
30
0
11
560.55600419292716
21
72.508850374046332
31
0
0
SPLINE
5
203
100
AcDbEntity
8
0
100
AcDbSpline
70
0
71
3
72
8
73
4
74
0
42
0.000000001
43
0.0000000001
44
0.0000000001
40
-1
40
-1
40
-1
40
-1
40
0
40
0
40
0
40
0
10
560.55600419292716
20
72.508850374046332
30
0
10
560.83232459292719
20
72.349314574046375
30
0
10
560.97143309292721
20
72.027498874046259
30
0
10
560.89815419292722
20
71.716960174046676
30
0
0
SPLINE
5
204
100
AcDbEntity
8
0
100
AcDbSpline
70
0
71
3
72
8
73
4
74
0
42
0.000000001
43
0.0000000001
44
0.0000000001
40
-1
40
-1
40
-1
40
-1
40
0
40
0
40
0
40
0
10
556.69701479292712
20
55.08681267404689
30
0
10
556.42068659292715
20
54.927276874046704
30
0
10
556.0724747929271
20
54.967778674046606
30
0
10
555.84016799292715
20
55.186496374046676
30
0
0
SPLINE
5
205
100
AcDbEntity
8
0
100
AcDbSpline
70
0
71
3
72
8
73
4
74
0
42
0.000000001
43
0.0000000001
44
0.0000000001
40
-1
40
-1
40
-1
40
-1
40
0
40
0
40
0
40
0
10
555.84016799292715
20
55.186496374046676
30
0
10
552.49244009292727
20
58.338581074046786
30
0
10
548.45709929292707
20
60.668481574046645
30
0
10
544.05344579292739
20
61.991662774046532
30
0
0
ENDSEC
0
SECTION
2
OBJECTS
0
DICTIONARY
5
C
100
AcDbDictionary
3
ACAD_GROUP
350
D
3
ACAD_MLINESTYLE
350
17
0
DICTIONARY
5
D
100
AcDbDictionary
0
DICTIONARY
5
1A
330
C
100
AcDbDictionary
0
DICTIONARY
5
17
100
AcDbDictionary
0
ENDSEC
0
EOF
