0
SECTION
2
HEADER
9
$INSUNITS
70
4
9
$ACADVER
1
AC1014
9
$HANDSEED
5
FFFF
0
ENDSEC
0
SECTION
2
TABLES
0
TABLE
2
VPORT
5
8
100
AcDbSymbolTable
0
ENDTAB
0
TABLE
2
LTYPE
5
5
100
AcDbSymbolTable
0
LTYPE
5
14
100
AcDbSymbolTableRecord
100
AcDbLinetypeTableRecord
2
BYBLOCK
70
0
0
LTYPE
5
15
100
AcDbSymbolTableRecord
100
AcDbLinetypeTableRecord
2
BYLAYER
70
0
0
ENDTAB
0
TABLE
2
LAYER
5
2
100
AcDbSymbolTable
70
2
0
LAYER
5
50
100
AcDbSymbolTableRecord
100
AcDbLayerTableRecord
2
0
70
0
6
CONTINUOUS
0
ENDTAB
0
TABLE
2
STYLE
5
3
100
AcDbSymbolTable
70
1
0
STYLE
5
11
100
AcDbSymbolTableRecord
100
AcDbTextStyleTableRecord
2
STANDARD
70
0
0
ENDTAB
0
TABLE
2
VIEW
5
6
100
AcDbSymbolTable
70
0
0
ENDTAB
0
TABLE
2
UCS
5
7
100
AcDbSymbolTable
70
0
0
ENDTAB
0
TABLE
2
APPID
5
9
100
AcDbSymbolTable
70
2
0
APPID
5
12
100
AcDbSymbolTableRecord
100
AcDbRegAppTableRecord
2
ACAD
70
0
0
ENDTAB
0
TABLE
2
DIMSTYLE
5
A
100
AcDbSymbolTable
70
1
0
ENDTAB
0
TABLE
2
BLOCK_RECORD
5
1
100
AcDbSymbolTable
70
1
0
BLOCK_RECORD
5
1F
100
AcDbSymbolTableRecord
100
AcDbBlockTableRecord
2
*MODEL_SPACE
0
BLOCK_RECORD
5
1B
100
AcDbSymbolTableRecord
100
AcDbBlockTableRecord
2
*PAPER_SPACE
0
ENDTAB
0
ENDSEC
0
SECTION
2
BLOCKS
0
BLOCK
5
20
100
AcDbEntity
100
AcDbBlockBegin
2
*MODEL_SPACE
0
ENDBLK
5
21
100
AcDbEntity
100
AcDbBlockEnd
0
BLOCK
5
1C
100
AcDbEntity
100
AcDbBlockBegin
2
*PAPER_SPACE
0
ENDBLK
5
1D
100
AcDbEntity
100
AcDbBlockEnd
0
ENDSEC
0
SECTION
2
ENTITIES
0
LINE
5
100
100
AcDbEntity
8
0
100
AcDbLine
10
1449.1999999999998
20
80
30
0
11
0
21
80
31
0
0
LINE
5
101
100
AcDbEntity
8
0
100
AcDbLine
10
0
20
80
30
0
11
0
21
0
31
0
0
LINE
5
102
100
AcDbEntity
8
0
100
AcDbLine
10
1449.1999999999998
20
-3.019932389862562e-14
30
0
11
1449.1999999999998
21
80
31
0
0
LWPOLYLINE
5
103
100
AcDbEntity
8
0
100
AcDbPolyline
90
6
70
1
43
0.0
10
1255.4607050333541
20
66.750500448305118
42
0.81632642071344219
10
1254.2347860607842
20
72.750000000000057
10
1133.336111111111
20
72.749999999999972
42
0.41421356237308671
10
1130.211111111111
20
69.624999999999972
10
1130.211111111111
20
18.064032007526073
42
0.53786673681006703
10
1134.5620300836806
20
15.189532455831252
0
LWPOLYLINE
5
104
100
AcDbEntity
8
0
100
AcDbPolyline
90
6
70
1
43
0.0
10
1275.6555555555556
20
61.935967992473934
42
0.53786673681006758
10
1271.3046365829857
20
64.810467544168674
10
1150.4059616333127
20
13.249499551694884
42
0.81632642071344208
10
1151.6318806058821
20
7.2499999999999876
10
1272.5305555555556
20
7.2499999999999947
42
0.41421356237308632
10
1275.6555555555556
20
10.374999999999996
0
LWPOLYLINE
5
105
100
AcDbEntity
8
0
100
AcDbPolyline
90
6
70
1
43
0.0
10
194.96521393921554
20
72.749999999999986
42
0.81632642071337469
10
193.73929496664601
20
66.750500448305118
10
314.63796991631938
20
15.189532455831191
42
0.53786673681006181
10
318.98888888888894
20
18.06403200752607
10
318.98888888888894
20
69.624999999999972
42
0.41421356237308926
10
315.86388888888894
20
72.749999999999972
0
LWPOLYLINE
5
106
100
AcDbEntity
8
0
100
AcDbPolyline
90
6
70
1
43
0.0
10
177.89536341701395
20
64.810467544168773
42
0.5378667368100537
10
173.54444444444448
20
61.935967992473913
10
173.54444444444448
20
10.374999999999998
42
0.41421356237310125
10
176.66944444444448
20
7.2499999999999947
10
297.56811939411767
20
7.2499999999999876
42
0.8163264207133869
10
298.79403836668718
20
13.249499551694788
0
LWPOLYLINE
5
107
100
AcDbEntity
8
0
100
AcDbPolyline
90
6
70
1
43
0.0
10
1414.9051494777984
20
66.750500448305132
42
0.81632642071343431
10
1413.6792305052288
20
72.749999999999773
10
1292.7805555555553
20
72.749999999999972
42
0.41421356237310836
10
1289.6555555555553
20
69.624999999999986
10
1289.6555555555553
20
18.064032007526084
42
0.53786673681007857
10
1294.0064745281252
20
15.189532455831261
0
LWPOLYLINE
5
108
100
AcDbEntity
8
0
100
AcDbPolyline
90
6
70
1
43
0.0
10
1435.0999999999999
20
61.935967992473941
42
0.53786673681003294
10
1430.7490810274305
20
64.810467544168631
10
1309.8504060777573
20
13.249499551694893
42
0.81632642071340555
10
1311.0763250503264
20
7.2499999999999964
10
1431.9749999999999
20
7.2500000000000036
42
0.41421356237313578
10
1435.0999999999999
20
10.375000000000005
0
LWPOLYLINE
5
109
100
AcDbEntity
8
0
100
AcDbPolyline
90
6
70
1
43
0.0
10
35.520769494771081
20
72.75
42
0.8163264207133849
10
34.29485052220155
20
66.750500448305132
10
155.19352547187492
20
15.1895324558312
42
0.53786673681005925
10
159.54444444444445
20
18.06403200752608
10
159.54444444444445
20
69.624999999999972
42
0.4142135623730967
10
156.41944444444445
20
72.749999999999972
0
LWPOLYLINE
5
110
100
AcDbEntity
8
0
100
AcDbPolyline
90
6
70
1
43
0.0
10
18.4509189725695
20
64.810467544168787
42
0.53786673681006081
10
14.100000000000001
20
61.93596799247392
10
14.100000000000001
20
10.375000000000007
42
0.41421356237309503
10
17.225000000000001
20
7.2500000000000036
10
138.12367494967322
20
7.2499999999999964
42
0.81632642071338457
10
139.34959392224275
20
13.249499551694797
0
LINE
5
111
100
AcDbEntity
8
0
100
AcDbLine
10
0
20
0
30
0
11
1449.1999999999998
21
-3.019932389862562e-14
31
0
0
LWPOLYLINE
5
112
100
AcDbEntity
8
0
100
AcDbPolyline
90
6
70
1
43
0.0
10
769.48004735822747
20
66.750500448305218
42
0.81632642071339068
10
768.2541283856583
20
72.749999999998948
10
680.94587161434242
20
72.749999999997499
42
0.81632642071367223
10
679.71995264177406
20
66.750500448306013
10
723.37408102743052
20
48.132851269195839
42
0.20433687210178789
10
725.8259189725693
20
48.132851269195839
0
LWPOLYLINE
5
113
100
AcDbEntity
8
0
100
AcDbPolyline
90
6
70
1
43
0.0
10
795.32222222222231
20
57.821569039735969
42
0.53786673681005204
10
790.97130324965292
20
60.69606859143061
10
749.18380068099873
20
42.874499551691436
42
0.66066492385045095
10
749.18380068099873
20
37.125500448314355
10
790.97130324965292
20
19.303931408570492
42
0.53786673681009267
10
795.32222222222254
20
22.178430960265111
0
LWPOLYLINE
5
114
100
AcDbEntity
8
0
100
AcDbPolyline
90
6
70
1
43
0.0
10
658.2286967503469
20
60.696068591430709
42
0.5378667368100446
10
653.87777777777774
20
57.821569039735998
10
653.87777777777717
20
22.178430960265096
42
0.53786673681007224
10
658.2286967503469
20
19.303931408570342
10
700.0161993190012
20
37.125500448307754
42
0.66066492385105735
10
700.01619931899893
20
42.874499551693617
0
ARC
5
115
100
AcDbEntity
8
0
100
AcDbCircle
10
724.5999999999998
20
28.992649179109513
30
0
40
3.1249999999996136
210
0
220
-0
230
1
100
AcDbArc
50
66.90268127464968
51
113.09731872534371
0
LINE
5
116
100
AcDbEntity
8
0
100
AcDbLine
10
725.82591897256918
20
31.867148730804033
30
0
11
769.48004735822701
21
13.249499551693841
31
0
0
ARC
5
117
100
AcDbEntity
8
0
100
AcDbCircle
10
768.25412838565762
20
10.374999999999579
30
0
40
3.1249999999993872
210
0
220
0
230
1
100
AcDbArc
50
-90.000000000002089
51
66.902681274647833
0
LINE
5
118
100
AcDbEntity
8
0
100
AcDbLine
10
768.25412838565751
20
7.2500000000001918
30
0
11
680.94587161434174
21
7.250000000003249
31
0
0
ARC
5
119
100
AcDbEntity
8
0
100
AcDbCircle
10
680.94587161434174
20
10.375000000003197
30
0
40
3.12499999999994
210
0
220
0
230
1
100
AcDbArc
50
113.09731872534776
51
270
0
LINE
5
120
100
AcDbEntity
8
0
100
AcDbLine
10
679.71995264177235
20
13.249499551698074
30
0
11
723.37408102743075
21
31.867148730804153
31
0
0
LWPOLYLINE
5
121
100
AcDbEntity
8
0
100
AcDbPolyline
90
6
70
1
43
0.0
10
337.33980786145844
20
64.810467544168773
42
0.53786673681006214
10
332.98888888888888
20
61.935967992473905
10
332.98888888888888
20
10.374999999999989
42
0.41421356237309798
10
336.11388888888888
20
7.2499999999999858
10
457.01256383856213
20
7.2499999999999787
42
0.81632642071338191
10
458.23848281113163
20
13.249499551694779
0
LWPOLYLINE
5
122
100
AcDbEntity
8
0
100
AcDbPolyline
90
6
70
1
43
0.0
10
354.40965838365997
20
72.749999999999972
42
0.81632642071340378
10
353.18373941109041
20
66.750500448305061
10
474.08241436076378
20
15.189532455831182
42
0.53786673681006181
10
478.43333333333334
20
18.064032007526059
10
478.43333333333334
20
69.624999999999957
42
0.41421356237310419
10
475.30833333333334
20
72.749999999999957
0
LWPOLYLINE
5
123
100
AcDbEntity
8
0
100
AcDbPolyline
90
6
70
1
43
0.0
10
496.78425230590284
20
64.810467544168759
42
0.53786673681006214
10
492.43333333333334
20
61.935967992473891
10
492.43333333333339
20
10.37499999999998
42
0.41421356237310458
10
495.55833333333339
20
7.2499999999999769
10
616.45700828300664
20
7.2499999999999698
42
0.81632642071339134
10
617.68292725557603
20
13.24949955169477
0
LWPOLYLINE
5
124
100
AcDbEntity
8
0
100
AcDbPolyline
90
6
70
1
43
0.0
10
513.85410282810437
20
72.749999999999972
42
0.81632642071338435
10
512.62818385553499
20
66.750500448305075
10
633.52685880520824
20
15.189532455831174
42
0.53786673681006181
10
637.87777777777774
20
18.064032007526052
10
637.87777777777774
20
69.624999999999943
42
0.41421356237310419
10
634.75277777777774
20
72.749999999999943
0
LWPOLYLINE
5
125
100
AcDbEntity
8
0
100
AcDbPolyline
90
6
70
1
43
0.0
10
1116.211111111111
20
61.93596799247392
42
0.53786673681005492
10
1111.8601921385416
20
64.810467544168674
10
990.96151718886836
20
13.249499551694875
42
0.81632642071344208
10
992.18743616143774
20
7.2499999999999787
10
1113.086111111111
20
7.2499999999999858
42
0.414213562373073
10
1116.211111111111
20
10.374999999999988
0
LWPOLYLINE
5
126
100
AcDbEntity
8
0
100
AcDbPolyline
90
6
70
1
43
0.0
10
1096.0162605889095
20
66.750500448305118
42
0.81632642071343642
10
1094.7903416163399
20
72.749999999999815
10
973.89166666666654
20
72.749999999999957
42
0.41421356237307172
10
970.76666666666654
20
69.624999999999972
10
970.76666666666654
20
18.064032007526066
42
0.53786673681006703
10
975.11758563923627
20
15.189532455831243
0
LWPOLYLINE
5
127
100
AcDbEntity
8
0
100
AcDbPolyline
90
6
70
1
43
0.0
10
956.76666666666642
20
61.935967992473913
42
0.53786673681006758
10
952.41574769409681
20
64.81046754416866
10
831.51707274442379
20
13.249499551694866
42
0.81632642071344208
10
832.74299171699317
20
7.2499999999999698
10
953.64166666666642
20
7.2499999999999769
42
0.414213562373073
10
956.76666666666642
20
10.374999999999979
0
LWPOLYLINE
5
128
100
AcDbEntity
8
0
100
AcDbPolyline
90
6
70
1
43
0.0
10
936.57181614446495
20
66.750500448305104
42
0.81632642071343664
10
935.34589717189533
20
72.749999999999829
10
814.44722222222197
20
72.749999999999943
42
0.41421356237307339
10
811.32222222222197
20
69.624999999999943
10
811.32222222222197
20
18.064032007526055
42
0.53786673681006703
10
815.6731411947917
20
15.189532455831234
0
CIRCLE
5
129
100
AcDbEntity
8
0
100
AcDbCircle
10
7.1000000000000014
20
5.9999999999999973
30
0
40
2.5499999999999967
210
0
220
0
230
1
0
CIRCLE
5
130
100
AcDbEntity
8
0
100
AcDbCircle
10
7.0999999999999979
20
73.999999999999986
30
0
40
2.5499999999999998
210
0
220
0
230
1
0
CIRCLE
5
131
100
AcDbEntity
8
0
100
AcDbCircle
10
166.54444444444442
20
5.9999999999999973
30
0
40
2.5499999999999967
210
0
220
0
230
1
0
CIRCLE
5
132
100
AcDbEntity
8
0
100
AcDbCircle
10
166.54444444444442
20
73.999999999999986
30
0
40
2.5499999999999998
210
0
220
0
230
1
0
CIRCLE
5
133
100
AcDbEntity
8
0
100
AcDbCircle
10
325.98888888888888
20
5.9999999999999973
30
0
40
2.5499999999999967
210
0
220
0
230
1
0
CIRCLE
5
134
100
AcDbEntity
8
0
100
AcDbCircle
10
325.98888888888888
20
73.999999999999986
30
0
40
2.5499999999999998
210
0
220
0
230
1
0
CIRCLE
5
135
100
AcDbEntity
8
0
100
AcDbCircle
10
485.43333333333339
20
5.9999999999999973
30
0
40
2.5499999999999967
210
0
220
0
230
1
0
CIRCLE
5
136
100
AcDbEntity
8
0
100
AcDbCircle
10
485.43333333333339
20
73.999999999999986
30
0
40
2.5499999999999998
210
0
220
0
230
1
0
CIRCLE
5
137
100
AcDbEntity
8
0
100
AcDbCircle
10
644.87777777777774
20
5.9999999999999973
30
0
40
2.5499999999999967
210
0
220
0
230
1
0
CIRCLE
5
138
100
AcDbEntity
8
0
100
AcDbCircle
10
644.87777777777774
20
73.999999999999986
30
0
40
2.5499999999999998
210
0
220
0
230
1
0
CIRCLE
5
139
100
AcDbEntity
8
0
100
AcDbCircle
10
804.32222222222219
20
5.9999999999999973
30
0
40
2.5499999999999967
210
0
220
0
230
1
0
CIRCLE
5
140
100
AcDbEntity
8
0
100
AcDbCircle
10
804.32222222222219
20
73.999999999999986
30
0
40
2.5499999999999998
210
0
220
0
230
1
0
CIRCLE
5
141
100
AcDbEntity
8
0
100
AcDbCircle
10
963.76666666666665
20
5.9999999999999973
30
0
40
2.5499999999999967
210
0
220
0
230
1
0
CIRCLE
5
142
100
AcDbEntity
8
0
100
AcDbCircle
10
963.76666666666665
20
73.999999999999986
30
0
40
2.5499999999999998
210
0
220
0
230
1
0
CIRCLE
5
143
100
AcDbEntity
8
0
100
AcDbCircle
10
1123.211111111111
20
5.9999999999999973
30
0
40
2.5499999999999967
210
0
220
0
230
1
0
CIRCLE
5
144
100
AcDbEntity
8
0
100
AcDbCircle
10
1123.211111111111
20
73.999999999999986
30
0
40
2.5499999999999998
210
0
220
0
230
1
0
CIRCLE
5
145
100
AcDbEntity
8
0
100
AcDbCircle
10
1282.6555555555556
20
5.9999999999999973
30
0
40
2.5499999999999967
210
0
220
0
230
1
0
CIRCLE
5
146
100
AcDbEntity
8
0
100
AcDbCircle
10
1282.6555555555556
20
73.999999999999986
30
0
40
2.5499999999999998
210
0
220
0
230
1
0
CIRCLE
5
147
100
AcDbEntity
8
0
100
AcDbCircle
10
1442.1000000000001
20
5.9999999999999973
30
0
40
2.5499999999999967
210
0
220
0
230
1
0
CIRCLE
5
148
100
AcDbEntity
8
0
100
AcDbCircle
10
1442.1000000000001
20
73.999999999999986
30
0
40
2.5499999999999998
210
0
220
0
230
1
0
ENDSEC
0
SECTION
2
OBJECTS
0
DICTIONARY
5
C
100
AcDbDictionary
3
ACAD_GROUP
350
D
3
ACAD_MLINESTYLE
350
17
0
DICTIONARY
5
D
100
AcDbDictionary
0
DICTIONARY
5
1A
330
C
100
AcDbDictionary
0
DICTIONARY
5
17
100
AcDbDictionary
0
ENDSEC
0
EOF
