0
SECTION
2
HEADER
9
$INSUNITS
70
1
9
$ACADVER
1
AC1014
9
$HANDSEED
5
FFFF
0
ENDSEC
0
SECTION
2
TABLES
0
TABLE
2
VPORT
5
8
100
AcDbSymbolTable
0
ENDTAB
0
TABLE
2
LTYPE
5
5
100
AcDbSymbolTable
0
LTYPE
5
14
100
AcDbSymbolTableRecord
100
AcDbLinetypeTableRecord
2
BYBLOCK
70
0
0
LTYPE
5
15
100
AcDbSymbolTableRecord
100
AcDbLinetypeTableRecord
2
BYLAYER
70
0
0
ENDTAB
0
TABLE
2
LAYER
5
2
100
AcDbSymbolTable
70
2
0
LAYER
5
50
100
AcDbSymbolTableRecord
100
AcDbLayerTableRecord
2
0
70
0
6
CONTINUOUS
0
ENDTAB
0
TABLE
2
STYLE
5
3
100
AcDbSymbolTable
70
1
0
STYLE
5
11
100
AcDbSymbolTableRecord
100
AcDbTextStyleTableRecord
2
STANDARD
70
0
0
ENDTAB
0
TABLE
2
VIEW
5
6
100
AcDbSymbolTable
70
0
0
ENDTAB
0
TABLE
2
UCS
5
7
100
AcDbSymbolTable
70
0
0
ENDTAB
0
TABLE
2
APPID
5
9
100
AcDbSymbolTable
70
2
0
APPID
5
12
100
AcDbSymbolTableRecord
100
AcDbRegAppTableRecord
2
ACAD
70
0
0
ENDTAB
0
TABLE
2
DIMSTYLE
5
A
100
AcDbSymbolTable
70
1
0
ENDTAB
0
TABLE
2
BLOCK_RECORD
5
1
100
AcDbSymbolTable
70
1
0
BLOCK_RECORD
5
1F
100
AcDbSymbolTableRecord
100
AcDbBlockTableRecord
2
*MODEL_SPACE
0
BLOCK_RECORD
5
1B
100
AcDbSymbolTableRecord
100
AcDbBlockTableRecord
2
*PAPER_SPACE
0
ENDTAB
0
ENDSEC
0
SECTION
2
BLOCKS
0
BLOCK
5
20
100
AcDbEntity
100
AcDbBlockBegin
2
*MODEL_SPACE
0
ENDBLK
5
21
100
AcDbEntity
100
AcDbBlockEnd
0
BLOCK
5
1C
100
AcDbEntity
100
AcDbBlockBegin
2
*PAPER_SPACE
0
ENDBLK
5
1D
100
AcDbEntity
100
AcDbBlockEnd
0
ENDSEC
0
SECTION
2
ENTITIES
0
CIRCLE
5
100
100
AcDbEntity
8
0
100
AcDbCircle
10
-0.006501406036499088
20
0.82991562306612821
30
0
40
0.4499999999999999
210
0
220
0
230
1
0
CIRCLE
5
101
100
AcDbEntity
8
0
100
AcDbCircle
10
-0.61034606560474991
20
1.443538014180632
30
0
40
0.064999999999999933
210
0
220
0
230
1
0
CIRCLE
5
102
100
AcDbEntity
8
0
100
AcDbCircle
10
-0.61034606560474991
20
1.443538014180632
30
0
40
0.064999999999999933
210
0
220
0
230
1
0
CIRCLE
5
103
100
AcDbEntity
8
0
100
AcDbCircle
10
-0.61034606560474991
20
0.2235380141806321
30
0
40
0.064999999999999933
210
0
220
0
230
1
0
CIRCLE
5
104
100
AcDbEntity
8
0
100
AcDbCircle
10
0.60965393439525006
20
1.443538014180632
30
0
40
0.064999999999999933
210
0
220
0
230
1
0
CIRCLE
5
105
100
AcDbEntity
8
0
100
AcDbCircle
10
0.60965393439525006
20
0.2235380141806321
30
0
40
0.064999999999999933
210
0
220
0
230
1
0
LINE
5
106
100
AcDbEntity
8
0
100
AcDbLine
10
1.7986385943784211
20
2.782004051622224
30
0
11
1.0876565731736929
21
2.4308533387801385
31
0
0
ARC
5
107
100
AcDbEntity
8
0
100
AcDbCircle
10
-0.016633365684349311
20
3.9468764966710856
30
0
40
1.8755752409127047
210
0
220
0
230
1
100
AcDbArc
50
270.50812898612423
51
306.07005578286618
0
LINE
5
108
100
AcDbEntity
8
0
100
AcDbLine
10
2.4887500155495301
20
1.8783750117359512
30
0
11
0.7718988118615564
21
0.069451163318543507
31
0
0
LINE
5
109
100
AcDbEntity
8
0
100
AcDbLine
10
0
20
0
30
0
11
0.59643186166950057
21
0
31
0
0
LINE
5
110
100
AcDbEntity
8
0
100
AcDbLine
10
0
20
0
30
0
11
-0.59643186166950057
21
0
31
0
0
LINE
5
111
100
AcDbEntity
8
0
100
AcDbLine
10
-2.4887500155495301
20
1.8783750117359512
30
0
11
-0.7718988118615564
21
0.069451163318543355
31
0
0
LINE
5
112
100
AcDbEntity
8
0
100
AcDbLine
10
-1.7986385943784211
20
2.782004051622224
30
0
11
-1.0876565731736929
21
2.4308533387801385
31
0
0
ARC
5
113
100
AcDbEntity
8
0
100
AcDbCircle
10
0.016633365684349311
20
3.9468764966710856
30
0
40
1.8755752409127016
210
0
220
0
230
1
100
AcDbArc
50
233.92994421713382
51
269.49187101387582
0
LINE
5
114
100
AcDbEntity
8
0
100
AcDbLine
10
-2.2459372525032788
20
2.3571059762432935
30
0
11
-1.8413967214894995
21
2.0453446593866493
31
0
0
LINE
5
115
100
AcDbEntity
8
0
100
AcDbLine
10
-2.1738432914804222
20
2.4506548795168963
30
0
11
-1.772298442674628
21
2.1412022011240053
31
0
0
LINE
5
116
100
AcDbEntity
8
0
100
AcDbLine
10
2.2459372525032788
20
2.3571059762432935
30
0
11
1.8374544583737187
21
2.0423065333000214
31
0
0
LINE
5
117
100
AcDbEntity
8
0
100
AcDbLine
10
2.1738432914804222
20
2.4506548795168963
30
0
11
1.7668774114698123
21
2.1370244545261574
31
0
0
ARC
5
118
100
AcDbEntity
8
0
100
AcDbCircle
10
-2.4030698576954195
20
1.9596941243523844
30
0
40
0.11812657417630189
210
0
220
0
230
1
100
AcDbArc
50
142.38791126839143
51
223.50410897319276
0
ARC
5
119
100
AcDbEntity
8
0
100
AcDbCircle
10
-1.8509599759000512
20
2.6760678816928163
30
0
40
0.11815243993944563
210
0
220
-0
230
1
100
AcDbArc
50
63.715448160059601
51
142.34367155850046
0
ARC
5
120
100
AcDbEntity
8
0
100
AcDbCircle
10
-0.59643186166950046
20
0.25638242035387171
30
0
40
0.25638242035387171
210
0
220
0
230
1
100
AcDbArc
50
226.81192235568935
51
270
0
ARC
5
121
100
AcDbEntity
8
0
100
AcDbCircle
10
0.60936180711943466
20
0.22371517641090621
30
0
40
0.22408851743429686
210
0
220
0
230
1
100
AcDbArc
50
266.69218661750318
51
316.4958910268075
0
ARC
5
122
100
AcDbEntity
8
0
100
AcDbCircle
10
2.4030943849255118
20
1.9596928621091017
30
0
40
0.11810791610602753
210
0
220
0
230
1
100
AcDbArc
50
-43.511855838048298
51
37.619835596464299
0
ARC
5
123
100
AcDbEntity
8
0
100
AcDbCircle
10
1.8509599759000508
20
2.6760678816928158
30
0
40
0.11815243993944582
210
0
220
-0
230
1
100
AcDbArc
50
37.656328441499582
51
116.28455183994012
0
LINE
5
124
100
AcDbEntity
8
0
100
AcDbLine
10
1.9445000121490954
20
2.7482500171708675
30
0
11
2.1738432914804222
21
2.4506548795168963
31
0
0
LINE
5
125
100
AcDbEntity
8
0
100
AcDbLine
10
2.2459372525032788
20
2.3571059762432935
30
0
11
2.4966451101004932
21
2.0317882271899688
31
0
0
ARC
5
126
100
AcDbEntity
8
0
100
AcDbCircle
10
1.3999999553199833
20
1.7900000574457362
30
0
40
0.50499999999999945
210
0
220
-0
230
1
100
AcDbArc
50
-316.59294081828591
51
29.974649861865643
0
LINE
5
127
100
AcDbEntity
8
0
100
AcDbLine
10
-1.9445000121490954
20
2.7482500171708675
30
0
11
-2.1738432914804222
21
2.4506548795168963
31
0
0
LINE
5
128
100
AcDbEntity
8
0
100
AcDbLine
10
-2.2459372525032788
20
2.3571059762432935
30
0
11
-2.4966451101004932
21
2.0317882271899688
31
0
0
LWPOLYLINE
5
129
100
AcDbEntity
8
0
100
AcDbPolyline
90
2
70
1
43
0.0
10
-1.8413967214894995
20
2.0453446593866493
42
17.035873497483035
10
-1.7722984426746282
20
2.1412022011240053
42
-17.035873497483035
0
ENDSEC
0
SECTION
2
OBJECTS
0
DICTIONARY
5
C
100
AcDbDictionary
3
ACAD_GROUP
350
D
3
ACAD_MLINESTYLE
350
17
0
DICTIONARY
5
D
100
AcDbDictionary
0
DICTIONARY
5
1A
330
C
100
AcDbDictionary
0
DICTIONARY
5
17
100
AcDbDictionary
0
ENDSEC
0
EOF
