  0
SECTION
  2
HEADER
  9
$ACADVER
  1
AC1032
  9
$ACADMAINTVER
 90
      249
  9
$DWGCODEPAGE
  3
ANSI_1252
  9
$LASTSAVEDBY
  1
kaligma@hotmail.com
  9
$REQUIREDVERSIONS
160
                 0
  9
$INSBASE
 10
0.0
 20
0.0
 30
0.0
  9
$EXTMIN
 10
140.5560156270147
 20
106.0053088601584
 30
0.0
  9
$EXTMAX
 10
390.8400767343446
 20
314.1383699382286
 30
0.0
  9
$LIMMIN
 10
0.0
 20
0.0
  9
$LIMMAX
 10
12.0
 20
9.0
  9
$ORTHOMODE
 70
     0
  9
$REGENMODE
 70
     1
  9
$FILLMODE
 70
     1
  9
$QTEXTMODE
 70
     0
  9
$MIRRTEXT
 70
     0
  9
$LTSCALE
 40
1.0
  9
$ATTMODE
 70
     1
  9
$TEXTSIZE
 40
2.5
  9
$TRACEWID
 40
0.05
  9
$TEXTSTYLE
  7
STANDARD
  9
$CLAYER
  8
0
  9
$CELTYPE
  6
CONTINUOUS
  9
$CECOLOR
 62
   256
  9
$CELTSCALE
 40
1.0
  9
$DISPSILH
 70
     0
  9
$DIMSCALE
 40
1.0
  9
$DIMASZ
 40
0.18
  9
$DIMEXO
 40
0.0625
  9
$DIMDLI
 40
0.38
  9
$DIMRND
 40
0.0
  9
$DIMDLE
 40
0.0
  9
$DIMEXE
 40
0.18
  9
$DIMTP
 40
0.0
  9
$DIMTM
 40
0.0
  9
$DIMTXT
 40
0.18
  9
$DIMCEN
 40
0.09
  9
$DIMTSZ
 40
0.0
  9
$DIMTOL
 70
     0
  9
$DIMLIM
 70
     0
  9
$DIMTIH
 70
     1
  9
$DIMTOH
 70
     1
  9
$DIMSE1
 70
     0
  9
$DIMSE2
 70
     0
  9
$DIMTAD
 70
     0
  9
$DIMZIN
 70
     0
  9
$DIMBLK
  1

  9
$DIMASO
 70
     1
  9
$DIMSHO
 70
     1
  9
$DIMPOST
  1

  9
$DIMAPOST
  1

  9
$DIMALT
 70
     0
  9
$DIMALTD
 70
     2
  9
$DIMALTF
 40
25.4
  9
$DIMLFAC
 40
1.0
  9
$DIMTOFL
 70
     0
  9
$DIMTVP
 40
0.0
  9
$DIMTIX
 70
     0
  9
$DIMSOXD
 70
     0
  9
$DIMSAH
 70
     0
  9
$DIMBLK1
  1

  9
$DIMBLK2
  1

  9
$DIMSTYLE
  2
ISO-25
  9
$DIMCLRD
 70
     0
  9
$DIMCLRE
 70
     0
  9
$DIMCLRT
 70
     0
  9
$DIMTFAC
 40
1.0
  9
$DIMGAP
 40
0.09
  9
$DIMJUST
 70
     0
  9
$DIMSD1
 70
     0
  9
$DIMSD2
 70
     0
  9
$DIMTOLJ
 70
     1
  9
$DIMTZIN
 70
     0
  9
$DIMALTZ
 70
     0
  9
$DIMALTTZ
 70
     0
  9
$DIMUPT
 70
     0
  9
$DIMDEC
 70
     4
  9
$DIMTDEC
 70
     4
  9
$DIMALTU
 70
     2
  9
$DIMALTTD
 70
     2
  9
$DIMTXSTY
  7
STANDARD
  9
$DIMAUNIT
 70
     0
  9
$DIMADEC
 70
     0
  9
$DIMALTRND
 40
0.0
  9
$DIMAZIN
 70
     0
  9
$DIMDSEP
 70
    46
  9
$DIMATFIT
 70
     3
  9
$DIMFRAC
 70
     0
  9
$DIMLDRBLK
  1

  9
$DIMLUNIT
 70
     2
  9
$DIMLWD
 70
    -2
  9
$DIMLWE
 70
    -2
  9
$DIMTMOVE
 70
     0
  9
$DIMFXL
 40
1.0
  9
$DIMFXLON
 70
     0
  9
$DIMJOGANG
 40
0.7853981633974483
  9
$DIMTFILL
 70
     0
  9
$DIMTFILLCLR
 70
     0
  9
$DIMARCSYM
 70
     0
  9
$DIMLTYPE
  6

  9
$DIMLTEX1
  6

  9
$DIMLTEX2
  6

  9
$DIMTXTDIRECTION
 70
     0
  9
$LUNITS
 70
     2
  9
$LUPREC
 70
     4
  9
$SKETCHINC
 40
0.1
  9
$FILLETRAD
 40
20.0
  9
$AUNITS
 70
     0
  9
$AUPREC
 70
     0
  9
$MENU
  1
.
  9
$ELEVATION
 40
0.0
  9
$PELEVATION
 40
0.0
  9
$THICKNESS
 40
0.0
  9
$LIMCHECK
 70
     0
  9
$CHAMFERA
 40
0.0
  9
$CHAMFERB
 40
0.0
  9
$CHAMFERC
 40
0.0
  9
$CHAMFERD
 40
0.0
  9
$SKPOLY
 70
     0
  9
$TDCREATE
 40
2460267.494189815
  9
$TDUCREATE
 40
2460267.452523148
  9
$TDUPDATE
 40
2460267.629351852
  9
$TDUUPDATE
 40
2460267.587685185
  9
$TDINDWG
 40
0.1348842593
  9
$TDUSRTIMER
 40
0.1348842593
  9
$USRTIMER
 70
     1
  9
$ANGBASE
 50
0.0
  9
$ANGDIR
 70
     0
  9
$PDMODE
 70
     0
  9
$PDSIZE
 40
0.0
  9
$PLINEWID
 40
0.0
  9
$SPLFRAME
 70
     0
  9
$SPLINETYPE
 70
     6
  9
$SPLINESEGS
 70
     8
  9
$HANDSEED
  5
101AC
  9
$SURFTAB1
 70
     6
  9
$SURFTAB2
 70
     6
  9
$SURFTYPE
 70
     6
  9
$SURFU
 70
     6
  9
$SURFV
 70
     6
  9
$UCSBASE
  2

  9
$UCSNAME
  2

  9
$UCSORG
 10
0.0
 20
0.0
 30
0.0
  9
$UCSXDIR
 10
1.0
 20
0.0
 30
0.0
  9
$UCSYDIR
 10
0.0
 20
1.0
 30
0.0
  9
$UCSORTHOREF
  2

  9
$UCSORTHOVIEW
 70
     0
  9
$UCSORGTOP
 10
0.0
 20
0.0
 30
0.0
  9
$UCSORGBOTTOM
 10
0.0
 20
0.0
 30
0.0
  9
$UCSORGLEFT
 10
0.0
 20
0.0
 30
0.0
  9
$UCSORGRIGHT
 10
0.0
 20
0.0
 30
0.0
  9
$UCSORGFRONT
 10
0.0
 20
0.0
 30
0.0
  9
$UCSORGBACK
 10
0.0
 20
0.0
 30
0.0
  9
$PUCSBASE
  2

  9
$PUCSNAME
  2

  9
$PUCSORG
 10
0.0
 20
0.0
 30
0.0
  9
$PUCSXDIR
 10
1.0
 20
0.0
 30
0.0
  9
$PUCSYDIR
 10
0.0
 20
1.0
 30
0.0
  9
$PUCSORTHOREF
  2

  9
$PUCSORTHOVIEW
 70
     0
  9
$PUCSORGTOP
 10
0.0
 20
0.0
 30
0.0
  9
$PUCSORGBOTTOM
 10
0.0
 20
0.0
 30
0.0
  9
$PUCSORGLEFT
 10
0.0
 20
0.0
 30
0.0
  9
$PUCSORGRIGHT
 10
0.0
 20
0.0
 30
0.0
  9
$PUCSORGFRONT
 10
0.0
 20
0.0
 30
0.0
  9
$PUCSORGBACK
 10
0.0
 20
0.0
 30
0.0
  9
$USERI1
 70
     0
  9
$USERI2
 70
     0
  9
$USERI3
 70
     0
  9
$USERI4
 70
     0
  9
$USERI5
 70
     0
  9
$USERR1
 40
0.0
  9
$USERR2
 40
0.0
  9
$USERR3
 40
0.0
  9
$USERR4
 40
0.0
  9
$USERR5
 40
0.0
  9
$WORLDVIEW
 70
     1
  9
$SHADEDGE
 70
     3
  9
$SHADEDIF
 70
    70
  9
$TILEMODE
 70
     1
  9
$MAXACTVP
 70
    64
  9
$PINSBASE
 10
0.0
 20
0.0
 30
0.0
  9
$PLIMCHECK
 70
     0
  9
$PEXTMIN
 10
1.000000000000000E+20
 20
1.000000000000000E+20
 30
1.000000000000000E+20
  9
$PEXTMAX
 10
-1.000000000000000E+20
 20
-1.000000000000000E+20
 30
-1.000000000000000E+20
  9
$PLIMMIN
 10
0.0
 20
0.0
  9
$PLIMMAX
 10
12.0
 20
9.0
  9
$UNITMODE
 70
     0
  9
$VISRETAIN
 70
     1
  9
$PLINEGEN
 70
     0
  9
$PSLTSCALE
 70
     1
  9
$TREEDEPTH
 70
  3020
  9
$CMLSTYLE
  2
Standard
  9
$CMLJUST
 70
     0
  9
$CMLSCALE
 40
1.0
  9
$PROXYGRAPHICS
 70
     1
  9
$MEASUREMENT
 70
     1
  9
$CELWEIGHT
370
    -1
  9
$ENDCAPS
280
     0
  9
$JOINSTYLE
280
     0
  9
$LWDISPLAY
290
     0
  9
$INSUNITS
 70
     4
  9
$HYPERLINKBASE
  1

  9
$STYLESHEET
  1

  9
$XEDIT
290
     1
  9
$CEPSNTYPE
380
     0
  9
$PSTYLEMODE
290
     1
  9
$FINGERPRINTGUID
  2
{26F7EBE9-8CE3-194E-9FEA-25ABDE3A8987}
  9
$VERSIONGUID
  2
{4055562B-248B-D04A-82D1-66FA32B76219}
  9
$EXTNAMES
290
     1
  9
$PSVPSCALE
 40
0.0
  9
$OLESTARTUP
290
     0
  9
$SORTENTS
280
   127
  9
$INDEXCTL
280
     0
  9
$HIDETEXT
280
     0
  9
$XCLIPFRAME
280
     2
  9
$HALOGAP
280
     0
  9
$OBSCOLOR
 70
   257
  9
$OBSLTYPE
280
     0
  9
$INTERSECTIONDISPLAY
280
     0
  9
$INTERSECTIONCOLOR
 70
   257
  9
$DIMASSOC
280
     1
  9
$PROJECTNAME
  1

  9
$CAMERADISPLAY
290
     0
  9
$LENSLENGTH
 40
50.0
  9
$CAMERAHEIGHT
 40
0.0
  9
$STEPSPERSEC
 40
2.0
  9
$STEPSIZE
 40
6.0
  9
$3DDWFPREC
 40
2.0
  9
$PSOLWIDTH
 40
0.25
  9
$PSOLHEIGHT
 40
4.0
  9
$LOFTANG1
 40
1.570796326794896
  9
$LOFTANG2
 40
1.570796326794896
  9
$LOFTMAG1
 40
0.0
  9
$LOFTMAG2
 40
0.0
  9
$LOFTPARAM
 70
     7
  9
$LOFTNORMALS
280
     1
  9
$LATITUDE
 40
37.795
  9
$LONGITUDE
 40
-122.394
  9
$NORTHDIRECTION
 40
0.0
  9
$TIMEZONE
 70
 -8000
  9
$LIGHTGLYPHDISPLAY
280
     1
  9
$TILEMODELIGHTSYNCH
280
     1
  9
$CMATERIAL
347
10004
  9
$SOLIDHIST
280
     0
  9
$SHOWHIST
280
     1
  9
$DWFFRAME
280
     2
  9
$DGNFRAME
280
     0
  9
$REALWORLDSCALE
290
     1
  9
$INTERFERECOLOR
 62
     1
  9
$INTERFEREOBJVS
345
10026
  9
$INTERFEREVPVS
346
10023
  9
$CSHADOW
280
     0
  9
$SHADOWPLANELOCATION
 40
0.0
  0
ENDSEC
  0
SECTION
  2
CLASSES
  0
CLASS
  1
ACDBDICTIONARYWDFLT
  2
AcDbDictionaryWithDefault
  3
ObjectDBX Classes
 90
        0
 91
        1
280
     0
281
     0
  0
CLASS
  1
MATERIAL
  2
AcDbMaterial
  3
ObjectDBX Classes
 90
     1153
 91
        3
280
     0
281
     0
  0
CLASS
  1
VISUALSTYLE
  2
AcDbVisualStyle
  3
ObjectDBX Classes
 90
     4095
 91
       24
280
     0
281
     0
  0
CLASS
  1
TABLESTYLE
  2
AcDbTableStyle
  3
ObjectDBX Classes
 90
     4095
 91
        1
280
     0
281
     0
  0
CLASS
  1
SCALE
  2
AcDbScale
  3
ObjectDBX Classes
 90
     1153
 91
       17
280
     0
281
     0
  0
CLASS
  1
MLEADERSTYLE
  2
AcDbMLeaderStyle
  3
ACDB_MLEADERSTYLE_CLASS
 90
     4095
 91
        1
280
     0
281
     0
  0
CLASS
  1
ACDBSECTIONVIEWSTYLE
  2
AcDbSectionViewStyle
  3
ObjectDBX Classes
 90
     1025
 91
        1
280
     0
281
     0
  0
CLASS
  1
ACDBDETAILVIEWSTYLE
  2
AcDbDetailViewStyle
  3
ObjectDBX Classes
 90
     1025
 91
        1
280
     0
281
     0
  0
CLASS
  1
DICTIONARYVAR
  2
AcDbDictionaryVar
  3
ObjectDBX Classes
 90
        0
 91
        9
280
     0
281
     0
  0
CLASS
  1
CELLSTYLEMAP
  2
AcDbCellStyleMap
  3
ObjectDBX Classes
 90
     1152
 91
       10
280
     0
281
     0
  0
CLASS
  1
SORTENTSTABLE
  2
AcDbSortentsTable
  3
ObjectDBX Classes
 90
        0
 91
        0
280
     0
281
     0
  0
ENDSEC
  0
SECTION
  2
TABLES
  0
TABLE
  2
VPORT
  5
8
330
0
100
AcDbSymbolTable
 70
     1
  0
VPORT
  5
2E
330
8
100
AcDbSymbolTableRecord
100
AcDbViewportTableRecord
  2
*ACTIVE
 70
     0
 10
0.0
 20
0.0
 11
1.0
 21
1.0
 12
240.5414748985521
 22
152.2739954763103
 13
0.0
 23
0.0
 14
10.0
 24
10.0
 15
10.0
 25
10.0
 16
0.0
 26
0.0
 36
1.0
 17
0.0
 27
0.0
 37
0.0
 40
101.8283511232431
 41
2.9375
 42
50.0
 43
0.0
 44
0.0
 50
0.0
 51
0.0
 71
     0
 72
   100
 73
     1
 74
     3
 75
     0
 76
     1
 77
     0
 78
     0
281
     0
 65
     1
110
0.0
120
0.0
130
0.0
111
1.0
121
0.0
131
0.0
112
0.0
122
1.0
132
0.0
 79
     0
146
0.0
348
10022
 60
     3
 61
     5
292
     1
282
     1
141
0.0
142
0.0
 63
   250
421
  3355443
1001
ACAD_NAV_VCDISPLAY
1070
     3
  0
ENDTAB
  0
TABLE
  2
LTYPE
  5
5
330
0
100
AcDbSymbolTable
 70
     2
  0
LTYPE
  5
14
330
5
100
AcDbSymbolTableRecord
100
AcDbLinetypeTableRecord
  2
BYBLOCK
 70
     0
  3

 72
    65
 73
     0
 40
0.0
  0
LTYPE
  5
15
330
5
100
AcDbSymbolTableRecord
100
AcDbLinetypeTableRecord
  2
BYLAYER
 70
     0
  3

 72
    65
 73
     0
 40
0.0
  0
LTYPE
  5
16
330
5
100
AcDbSymbolTableRecord
100
AcDbLinetypeTableRecord
  2
CONTINUOUS
 70
     0
  3
Solid line
 72
    65
 73
     0
 40
0.0
  0
ENDTAB
  0
TABLE
  2
LAYER
  5
2
102
{ACAD_XDICTIONARY
360
1007F
102
}
330
0
100
AcDbSymbolTable
 70
     2
  0
LAYER
  5
50
102
{ACAD_XDICTIONARY
360
10060
102
}
330
2
100
AcDbSymbolTableRecord
100
AcDbLayerTableRecord
  2
0
 70
     0
 62
     7
  6
CONTINUOUS
370
    -3
390
10002
347
10014
348
0
  0
LAYER
  5
51
102
{ACAD_XDICTIONARY
360
10062
102
}
330
2
100
AcDbSymbolTableRecord
100
AcDbLayerTableRecord
  2
LAYER_1
 70
     0
 62
     7
  6
CONTINUOUS
370
    -3
390
10002
347
10014
348
0
  0
ENDTAB
  0
TABLE
  2
STYLE
  5
3
330
0
100
AcDbSymbolTable
 70
     1
  0
STYLE
  5
11
330
3
100
AcDbSymbolTableRecord
100
AcDbTextStyleTableRecord
  2
STANDARD
 70
     0
 40
0.0
 41
1.0
 50
0.0
 71
     0
 42
2.5
  3
txt
  4

  0
ENDTAB
  0
TABLE
  2
VIEW
  5
6
330
0
100
AcDbSymbolTable
 70
     9
  0
ENDTAB
  0
TABLE
  2
UCS
  5
7
330
0
100
AcDbSymbolTable
 70
     0
  0
ENDTAB
  0
TABLE
  2
APPID
  5
9
330
0
100
AcDbSymbolTable
 70
     8
  0
APPID
  5
12
330
9
100
AcDbSymbolTableRecord
100
AcDbRegAppTableRecord
  2
ACAD
 70
     0
  0
APPID
  5
10058
330
9
100
AcDbSymbolTableRecord
100
AcDbRegAppTableRecord
  2
ACAD_EXEMPT_FROM_CAD_STANDARDS
 70
     0
  0
APPID
  5
10064
330
9
100
AcDbSymbolTableRecord
100
AcDbRegAppTableRecord
  2
ACAD_NAV_VCDISPLAY
 70
     0
  0
APPID
  5
100DA
330
9
100
AcDbSymbolTableRecord
100
AcDbRegAppTableRecord
  2
ACAD_PSEXT
 70
     0
  0
APPID
  5
100DB
330
9
100
AcDbSymbolTableRecord
100
AcDbRegAppTableRecord
  2
AcadAnnotative
 70
     0
  0
APPID
  5
100DC
330
9
100
AcDbSymbolTableRecord
100
AcDbRegAppTableRecord
  2
ACAD_DSTYLE_DIMJAG
 70
     0
  0
APPID
  5
100DD
330
9
100
AcDbSymbolTableRecord
100
AcDbRegAppTableRecord
  2
ACAD_DSTYLE_DIMTALN
 70
     0
  0
APPID
  5
100ED
330
9
100
AcDbSymbolTableRecord
100
AcDbRegAppTableRecord
  2
ACAD_DSTYLE_DIMRADIAL_EXTENSION
 70
     0
  0
ENDTAB
  0
TABLE
  2
DIMSTYLE
  5
A
330
0
100
AcDbSymbolTable
 70
     3
100
AcDbDimStyleTable
 71
     1
340
27
  0
DIMSTYLE
105
27
330
A
100
AcDbSymbolTableRecord
100
AcDbDimStyleTableRecord
  2
ISO-25
 70
     0
 41
2.5
 42
0.625
 43
3.75
 44
1.25
 73
     0
 74
     0
 77
     1
 78
     8
140
2.5
141
2.5
143
0.03937007874016
147
0.625
171
     3
172
     1
271
     2
272
     2
274
     3
283
     0
284
     8
340
11
  0
DIMSTYLE
105
100D9
330
A
100
AcDbSymbolTableRecord
100
AcDbDimStyleTableRecord
  2
Annotative
 70
     0
 40
0.0
 41
2.5
 42
0.625
 43
3.75
 44
1.25
 73
     0
 74
     0
 77
     1
 78
     8
140
2.5
141
2.5
143
0.03937007874016
147
0.625
171
     3
172
     1
271
     2
272
     2
274
     3
278
    44
283
     0
284
     8
340
11
1001
AcadAnnotative
1000
AnnotativeData
1002
{
1070
     1
1070
     1
1002
}
1001
ACAD_DSTYLE_DIMJAG
1070
   388
1040
1.5
1001
ACAD_DSTYLE_DIMTALN
1070
   392
1070
     0
  0
ENDTAB
  0
TABLE
  2
BLOCK_RECORD
  5
1
330
0
100
AcDbSymbolTable
 70
     1
  0
BLOCK_RECORD
  5
1F
330
1
100
AcDbSymbolTableRecord
100
AcDbBlockTableRecord
  2
*MODEL_SPACE
340
10052
 70
     0
280
     1
281
     0
  0
BLOCK_RECORD
  5
1B
330
1
100
AcDbSymbolTableRecord
100
AcDbBlockTableRecord
  2
*PAPER_SPACE
340
10053
 70
     0
280
     1
281
     0
  0
ENDTAB
  0
ENDSEC
  0
SECTION
  2
BLOCKS
  0
BLOCK
  5
20
330
1F
100
AcDbEntity
  8
0
100
AcDbBlockBegin
  2
*MODEL_SPACE
 70
     0
 10
0.0
 20
0.0
 30
0.0
  3
*MODEL_SPACE
  1

  0
ENDBLK
  5
21
330
1F
100
AcDbEntity
  8
0
100
AcDbBlockEnd
  0
BLOCK
  5
1C
330
1B
100
AcDbEntity
 67
     1
  8
0
100
AcDbBlockBegin
  2
*PAPER_SPACE
 70
     0
 10
0.0
 20
0.0
 30
0.0
  3
*PAPER_SPACE
  1

  0
ENDBLK
  5
1D
330
1B
100
AcDbEntity
 67
     1
  8
0
100
AcDbBlockEnd
  0
ENDSEC
  0
SECTION
  2
ENTITIES
  0
SPLINE
  5
123
330
1F
100
AcDbEntity
  8
LAYER_1
 62
     7
100
AcDbSpline
210
0.0
220
0.0
230
1.0
 70
    13
 71
     3
 72
   112
 73
   108
 74
     0
 42
0.000000001
 43
0.0000000001
 40
0.0
 40
0.0
 40
0.0
 40
0.0
 40
1.0
 40
1.0
 40
1.0
 40
2.0
 40
2.0
 40
2.0
 40
3.0
 40
3.0
 40
3.0
 40
4.0
 40
4.0
 40
4.0
 40
5.0
 40
5.0
 40
5.0
 40
6.0
 40
6.0
 40
6.0
 40
7.0
 40
7.0
 40
7.0
 40
8.0
 40
8.0
 40
8.0
 40
9.0
 40
9.0
 40
9.0
 40
10.0
 40
10.0
 40
10.0
 40
11.0
 40
11.0
 40
11.0
 40
12.0
 40
12.0
 40
12.0
 40
13.0
 40
13.0
 40
13.0
 40
14.0
 40
14.0
 40
14.0
 40
15.0
 40
15.0
 40
15.0
 40
16.0
 40
16.0
 40
16.0
 40
17.0
 40
17.0
 40
17.0
 40
18.0
 40
18.0
 40
18.0
 40
19.0
 40
19.0
 40
20.0
 40
20.0
 40
20.0
 40
21.0
 40
21.0
 40
21.0
 40
22.0
 40
22.0
 40
22.0
 40
23.0
 40
23.0
 40
23.0
 40
24.0
 40
24.0
 40
24.0
 40
25.0
 40
25.0
 40
25.0
 40
26.0
 40
26.0
 40
26.0
 40
27.0
 40
27.0
 40
27.0
 40
28.0
 40
28.0
 40
28.0
 40
28.48219762079324
 40
28.48219762079324
 40
28.48219762079324
 40
29.48219762079324
 40
29.48219762079324
 40
29.48219762079324
 40
30.48219762079324
 40
30.48219762079324
 40
30.48219762079324
 40
31.48219762079325
 40
31.48219762079325
 40
31.48219762079325
 40
32.48219762079325
 40
32.48219762079325
 40
32.48219762079325
 40
33.48219762079324
 40
33.48219762079324
 40
33.48219762079324
 40
34.48219762079324
 40
34.48219762079324
 40
34.48219762079324
 40
35.48219762079324
 40
35.48219762079324
 40
35.48219762079324
 40
35.48219762079324
 10
180.6835141993067
 20
223.0920602609036
 30
0.0
 41
1.0
 10
180.1962999493067
 20
223.4834852609036
 30
0.0
 41
1.0
 10
178.0624584493066
 20
223.7142377609036
 30
0.0
 41
1.0
 10
175.9416316993067
 20
223.6048202609036
 30
0.0
 41
1.0
 10
173.4215814493067
 20
223.4749202609036
 30
0.0
 41
1.0
 10
171.9308716993067
 20
223.8090527609036
 30
0.0
 41
1.0
 10
171.6390511993067
 20
224.5694777609036
 30
0.0
 41
1.0
 10
171.3933001993067
 20
225.2095052609035
 30
0.0
 41
1.0
 10
170.4188679493067
 20
225.7331102609036
 30
0.0
 41
1.0
 10
169.4732971993067
 20
225.7331102609036
 30
0.0
 41
1.0
 10
168.5277256993067
 20
225.7331102609036
 30
0.0
 41
1.0
 10
166.8304719493067
 20
226.7297102609036
 30
0.0
 41
1.0
 10
165.7016244493067
 20
227.9477477609036
 30
0.0
 41
1.0
 10
164.5727784493067
 20
229.1657852609036
 30
0.0
 41
1.0
 10
162.9546061993067
 20
230.1623852609036
 30
0.0
 41
1.0
 10
162.1057284493067
 20
230.1623852609036
 30
0.0
 41
1.0
 10
161.1328696993067
 20
230.1623852609036
 30
0.0
 41
1.0
 10
160.7416104493067
 20
230.6296727609036
 30
0.0
 41
1.0
 10
161.0473254493067
 20
231.4263902609036
 30
0.0
 41
1.0
 10
161.3141694493067
 20
232.1215952609036
 30
0.0
 41
1.0
 10
160.9736679493067
 20
233.1541802609036
 30
0.0
 41
1.0
 10
160.2905536993067
 20
233.7210152609036
 30
0.0
 41
1.0
 10
159.6075736993067
 20
234.2878502609036
 30
0.0
 41
1.0
 10
158.7772779493067
 20
235.6125602609036
 30
0.0
 41
1.0
 10
158.4454809493067
 20
236.6648102609036
 30
0.0
 41
1.0
 10
158.1136831993067
 20
237.7170452609036
 30
0.0
 41
1.0
 10
156.3543549493067
 20
240.2715452609036
 30
0.0
 41
1.0
 10
154.5358666993067
 20
242.3414477609036
 30
0.0
 41
1.0
 10
149.4050311993067
 20
248.1816452609036
 30
0.0
 41
1.0
 10
149.3321431993067
 20
252.6091802609036
 30
0.0
 41
1.0
 10
154.2080874493067
 20
262.2450902609036
 30
0.0
 41
1.0
 10
156.7697544493067
 20
267.3073877609036
 30
0.0
 41
1.0
 10
156.8471626993067
 20
268.7967527609036
 30
0.0
 41
1.0
 10
154.6107301993067
 20
269.9936327609036
 30
0.0
 41
1.0
 10
151.9600029493067
 20
271.4122577609036
 30
0.0
 41
1.0
 10
151.4587921993067
 20
274.3110152609036
 30
0.0
 41
1.0
 10
153.4005909493067
 20
276.9922427609035
 30
0.0
 41
1.0
 10
154.3306614493067
 20
278.2764752609036
 30
0.0
 41
1.0
 10
155.6141566993067
 20
280.6176677609036
 30
0.0
 41
1.0
 10
156.2527741993067
 20
282.1949552609036
 30
0.0
 41
1.0
 10
156.8913916993067
 20
283.7722180109036
 30
0.0
 41
1.0
 10
157.5229193256248
 20
284.5237585421578
 30
0.0
 41
1.0
 10
158.1024676993067
 20
284.6371712609036
 30
0.0
 41
1.0
 10
158.7403530082348
 20
284.8513443342826
 30
0.0
 41
1.0
 10
159.0522579493067
 20
285.2524892609036
 30
0.0
 41
1.0
 10
159.3715659493067
 20
286.5246632609036
 30
0.0
 41
1.0
 10
159.6909751993067
 20
287.7968470109035
 30
0.0
 41
1.0
 10
160.0365122676956
 20
288.2922411607909
 30
0.0
 41
1.0
 10
160.4695096993067
 20
288.3202877609036
 30
0.0
 41
1.0
 10
161.1707015648473
 20
288.3494384910144
 30
0.0
 41
1.0
 10
161.7177496993067
 20
288.7319717609036
 30
0.0
 41
1.0
 10
162.6109899493067
 20
289.8675452609036
 30
0.0
 41
1.0
 10
163.5042309493067
 20
291.0031180109036
 30
0.0
 41
1.0
 10
165.4444906993067
 20
292.4331970109035
 30
0.0
 41
1.0
 10
166.9226439493067
 20
293.0454662609036
 30
0.0
 41
1.0
 10
168.4008324493067
 20
293.6577355109036
 30
0.0
 41
1.0
 10
169.1809494741645
 20
294.2762764037071
 30
0.0
 41
1.0
 10
169.6102344493067
 20
295.3651975109036
 30
0.0
 41
1.0
 10
170.3078454493067
 20
295.7212682609036
 30
0.0
 41
1.0
 10
171.1604731993067
 20
295.7283700109036
 30
0.0
 41
1.0
 10
172.0131016993067
 20
295.7347450109036
 30
0.0
 41
1.0
 10
174.3052464493067
 20
296.2895432609036
 30
0.0
 41
1.0
 10
176.2541469493067
 20
296.9596622609035
 30
0.0
 41
1.0
 10
178.2030114493067
 20
297.6298180109036
 30
0.0
 41
1.0
 10
182.3886759493067
 20
298.4613557609036
 30
0.0
 41
1.0
 10
185.5555809493067
 20
298.8075505109035
 30
0.0
 41
1.0
 10
188.8468006993067
 20
299.1673360109036
 30
0.0
 41
1.0
 10
193.5906541993067
 20
300.5047075109036
 30
0.0
 41
1.0
 10
196.6287226993067
 20
301.9292920109036
 30
0.0
 41
1.0
 10
206.0027761993067
 20
306.3248147609036
 30
0.0
 41
1.0
 10
211.2253786993067
 20
307.6756037609035
 30
0.0
 41
1.0
 10
218.7750211993067
 20
307.6572212609036
 30
0.0
 41
1.0
 10
224.6789011993067
 20
307.6438037609035
 30
0.0
 41
1.0
 10
226.7880061993067
 20
307.2151427609036
 30
0.0
 41
1.0
 10
231.4102636993067
 20
305.0948552609036
 30
0.0
 41
1.0
 10
239.5824511993067
 20
301.3461490109035
 30
0.0
 41
1.0
 10
247.2561961993067
 20
292.8688870109036
 30
0.0
 41
1.0
 10
252.5399011993067
 20
281.7528152609036
 30
0.0
 41
1.0
 10
256.6370461993067
 20
273.1330577609036
 30
0.0
 41
1.0
 10
256.6406611993067
 20
273.1169777609035
 30
0.0
 41
1.0
 10
257.0985511993067
 20
261.4418477609036
 30
0.0
 41
1.0
 10
257.2031220686258
 20
258.7755165074198
 30
0.0
 41
1.0
 10
257.3076929379449
 20
256.109185253936
 30
0.0
 41
1.0
 10
257.412263807264
 20
253.4428540004522
 30
0.0
 41
1.0
 10
257.5076747868883
 20
251.0100801452244
 30
0.0
 41
0.9807174655988807
 10
257.0194531938944
 20
248.6248900979017
 30
0.0
 41
0.9807174655988807
 10
255.9758414772689
 20
246.4252613859063
 30
0.0
 41
1.0
 10
254.535669158544
 20
243.4171678276646
 30
0.0
 41
1.0
 10
253.0954968398191
 20
240.409074269423
 30
0.0
 41
1.0
 10
251.6553245210942
 20
237.4009807111814
 30
0.0
 41
1.0
 10
245.5154568751515
 20
229.646522454349
 30
0.0
 41
1.0
 10
232.2554311993067
 20
228.9848252609036
 30
0.0
 41
1.0
 10
227.6335711993067
 20
228.2535002609036
 30
0.0
 41
1.0
 10
219.0805711993067
 20
226.9000877609036
 30
0.0
 41
1.0
 10
215.5598386993067
 20
226.0446827609036
 30
0.0
 41
1.0
 10
209.9165161993067
 20
223.9489427609036
 30
0.0
 41
1.0
 10
205.9037461993067
 20
222.4587002609036
 30
0.0
 41
1.0
 10
202.2137611993067
 20
221.9038577609036
 30
0.0
 41
1.0
 10
194.8570126993067
 20
221.6844527609036
 30
0.0
 41
1.0
 10
189.4975966993067
 20
221.5247477609036
 30
0.0
 41
1.0
 10
184.3153704493067
 20
221.6158277609036
 30
0.0
 41
1.0
 10
183.3409426993067
 20
221.8870127609036
 30
0.0
 41
1.0
 10
183.3409851993067
 20
221.8870477609036
 30
0.0
 41
1.0
 10
183.3410276993067
 20
221.8870827609036
 30
0.0
 41
1.0
 10
183.3410701993067
 20
221.8871177609036
 30
0.0
 41
1.0
 10
182.3666424493067
 20
222.1583102609036
 30
0.0
 41
1.0
 10
181.1707374493067
 20
222.7006352609036
 30
0.0
 41
1.0
 10
180.6835141993067
 20
223.0920602609036
 30
0.0
 41
1.0
  0
SPLINE
  5
154
330
1F
100
AcDbEntity
  8
LAYER_1
 62
     7
100
AcDbSpline
210
0.0
220
0.0
230
1.0
 70
    13
 71
     3
 72
   152
 73
   148
 74
     0
 42
0.000000001
 43
0.0000000001
 40
0.0
 40
0.0
 40
0.0
 40
0.0
 40
1.0
 40
1.0
 40
1.0
 40
2.0
 40
2.0
 40
2.0
 40
3.0
 40
3.0
 40
3.0
 40
4.0
 40
4.0
 40
4.0
 40
5.0
 40
5.0
 40
5.0
 40
6.0
 40
6.0
 40
6.0
 40
7.0
 40
7.0
 40
7.0
 40
8.0
 40
8.0
 40
8.0
 40
9.0
 40
9.0
 40
9.0
 40
10.0
 40
10.0
 40
10.0
 40
11.0
 40
11.0
 40
11.0
 40
12.0
 40
12.0
 40
12.0
 40
13.0
 40
13.0
 40
13.0
 40
14.0
 40
14.0
 40
14.0
 40
15.0
 40
15.0
 40
15.0
 40
16.0
 40
16.0
 40
16.0
 40
17.0
 40
17.0
 40
17.0
 40
18.0
 40
18.0
 40
18.0
 40
19.0
 40
19.0
 40
19.0
 40
20.0
 40
20.0
 40
20.0
 40
21.0
 40
21.0
 40
21.0
 40
22.0
 40
22.0
 40
22.0
 40
23.0
 40
23.0
 40
23.0
 40
24.0
 40
24.0
 40
24.0
 40
25.0
 40
25.0
 40
25.0
 40
26.0
 40
26.0
 40
26.0
 40
27.0
 40
27.0
 40
27.0
 40
28.0
 40
28.0
 40
28.0
 40
29.0
 40
29.0
 40
29.0
 40
30.0
 40
30.0
 40
30.0
 40
31.0
 40
31.0
 40
31.0
 40
32.0
 40
32.0
 40
32.0
 40
33.0
 40
33.0
 40
33.0
 40
34.0
 40
34.0
 40
34.0
 40
35.0
 40
35.0
 40
35.0
 40
36.0
 40
36.0
 40
36.0
 40
37.0
 40
37.0
 40
37.0
 40
38.0
 40
38.0
 40
38.0
 40
39.0
 40
39.0
 40
39.0
 40
40.0
 40
40.0
 40
40.0
 40
41.0
 40
41.0
 40
41.0
 40
42.0
 40
42.0
 40
42.0
 40
43.0
 40
43.0
 40
43.0
 40
44.0
 40
44.0
 40
44.0
 40
45.0
 40
45.0
 40
45.0
 40
46.0
 40
46.0
 40
46.0
 40
47.0
 40
47.0
 40
47.0
 40
48.0
 40
48.0
 40
48.0
 40
49.0
 40
49.0
 40
49.0
 40
49.0
 10
187.7703466993066
 20
226.2986402609036
 30
0.0
 41
1.0
 10
188.5011721993067
 20
226.0180727609036
 30
0.0
 41
1.0
 10
189.0991111993067
 20
226.1747627609036
 30
0.0
 41
1.0
 10
189.0991111993067
 20
226.6467752609036
 30
0.0
 41
1.0
 10
189.0991111993067
 20
227.1186902609036
 30
0.0
 41
1.0
 10
189.8963934493067
 20
227.5048277609036
 30
0.0
 41
1.0
 10
190.8708301993067
 20
227.5048277609036
 30
0.0
 41
1.0
 10
191.8452586993067
 20
227.5048277609036
 30
0.0
 41
1.0
 10
192.6425409493067
 20
227.9269952609036
 30
0.0
 41
1.0
 10
192.6425409493067
 20
228.4429652609036
 30
0.0
 41
1.0
 10
192.6425409493067
 20
228.9589427609036
 30
0.0
 41
1.0
 10
193.0411636993067
 20
229.1347202609036
 30
0.0
 41
1.0
 10
193.5283869493067
 20
228.8335877609036
 30
0.0
 41
1.0
 10
194.0156011993067
 20
228.5325977609036
 30
0.0
 41
1.0
 10
194.4142239493067
 20
228.9273302609036
 30
0.0
 41
1.0
 10
194.4142239493067
 20
229.7111927609036
 30
0.0
 41
1.0
 10
194.4142239493067
 20
230.7941102609036
 30
0.0
 41
1.0
 10
194.7769201993067
 20
230.9332802609036
 30
0.0
 41
1.0
 10
195.9248926993067
 20
230.2908527609036
 30
0.0
 41
1.0
 10
197.0839051993067
 20
229.6422602609036
 30
0.0
 41
1.0
 10
197.6689501993067
 20
229.8897902609036
 30
0.0
 41
1.0
 10
198.4381426993067
 20
231.3541727609036
 30
0.0
 41
1.0
 10
199.0883761993067
 20
232.5920402609036
 30
0.0
 41
1.0
 10
199.1419786993067
 20
233.6520452609036
 30
0.0
 41
1.0
 10
198.5908111993067
 20
234.3701852609036
 30
0.0
 41
1.0
 10
198.0316876993067
 20
235.0985627609036
 30
0.0
 41
1.0
 10
198.1182001993067
 20
235.9322402609036
 30
0.0
 41
1.0
 10
198.8435986993067
 20
236.8062677609036
 30
0.0
 41
1.0
 10
199.6322761993067
 20
237.7565852609036
 30
0.0
 41
1.0
 10
199.6776136993067
 20
238.4589152609036
 30
0.0
 41
1.0
 10
199.0026361993067
 20
239.2720727609036
 30
0.0
 41
1.0
 10
198.4044226993067
 20
239.9928827609036
 30
0.0
 41
1.0
 10
198.3597601993067
 20
240.8846552609036
 30
0.0
 41
1.0
 10
198.8804311993067
 20
241.7081852609036
 30
0.0
 41
1.0
 10
199.9190011993067
 20
243.3502952609036
 30
0.0
 41
1.0
 10
199.9483036993067
 20
244.3360127609036
 30
0.0
 41
1.0
 10
198.9584686993067
 20
244.3360127609036
 30
0.0
 41
1.0
 10
198.5345986993067
 20
244.3360127609036
 30
0.0
 41
1.0
 10
197.6800876993067
 20
242.5228127609036
 30
0.0
 41
1.0
 10
197.0595826993067
 20
240.3066677609036
 30
0.0
 41
1.0
 10
195.4049251993067
 20
234.3967652609036
 30
0.0
 41
1.0
 10
189.0989739493067
 20
231.4548227609036
 30
0.0
 41
1.0
 10
189.0989739493067
 20
236.5927802609036
 30
0.0
 41
1.0
 10
189.0989739493067
 20
237.9793727609036
 30
0.0
 41
1.0
 10
188.8351359493067
 20
238.2256952609036
 30
0.0
 41
1.0
 10
188.1183759493067
 20
237.5087927609035
 30
0.0
 41
1.0
 10
187.4014786993067
 20
236.7918977609036
 30
0.0
 41
1.0
 10
185.6743651993067
 20
237.2205227609036
 30
0.0
 41
1.0
 10
181.6959489493067
 20
239.1026177609036
 30
0.0
 41
1.0
 10
178.7029404493067
 20
240.5185727609036
 30
0.0
 41
1.0
 10
175.7842989493067
 20
241.6773827609036
 30
0.0
 41
1.0
 10
175.2100651993067
 20
241.6777577609036
 30
0.0
 41
1.0
 10
173.3822686993067
 20
241.6785077609036
 30
0.0
 41
1.0
 10
171.5230336993067
 20
244.2413252609036
 30
0.0
 41
1.0
 10
172.0070356993067
 20
246.0921602609036
 30
0.0
 41
1.0
 10
172.2641694493067
 20
247.0751627609036
 30
0.0
 41
1.0
 10
172.8265501993067
 20
247.8794477609036
 30
0.0
 41
1.0
 10
173.2569489493067
 20
247.8794477609036
 30
0.0
 41
1.0
 10
173.6873484493067
 20
247.8794477609036
 30
0.0
 41
1.0
 10
174.0397359493067
 20
248.1784352609036
 30
0.0
 41
1.0
 10
174.0400711993067
 20
248.5438052609036
 30
0.0
 41
1.0
 10
174.0404049493067
 20
248.9092202609036
 30
0.0
 41
1.0
 10
172.5547846993067
 20
249.2082077609036
 30
0.0
 41
1.0
 10
170.7387061993067
 20
249.2082077609036
 30
0.0
 41
1.0
 10
165.1001986993067
 20
249.2082077609036
 30
0.0
 41
1.0
 10
165.5364571993067
 20
253.7381252609036
 30
0.0
 41
1.0
 10
171.9219931993067
 20
261.4945352609036
 30
0.0
 41
1.0
 10
176.0252941993067
 20
266.4788027609036
 30
0.0
 41
1.0
 10
176.0296111993067
 20
266.4912827609036
 30
0.0
 41
1.0
 10
175.4192881993067
 20
271.5773177609036
 30
0.0
 41
1.0
 10
175.0831719493067
 20
274.3780727609036
 30
0.0
 41
1.0
 10
174.7349026993067
 20
277.7658902609036
 30
0.0
 41
1.0
 10
174.6453076993067
 20
279.1057352609036
 30
0.0
 41
1.0
 10
174.5555754493067
 20
280.4455802609036
 30
0.0
 41
1.0
 10
174.4440864493067
 20
281.5418177609036
 30
0.0
 41
1.0
 10
174.3968784493067
 20
281.5418177609036
 30
0.0
 41
1.0
 10
173.5004904493067
 20
281.5418177609036
 30
0.0
 41
1.0
 10
167.9058091993067
 20
278.1489452609036
 30
0.0
 41
1.0
 10
166.8625734493067
 20
276.9726902609036
 30
0.0
 41
1.0
 10
166.0822644493067
 20
276.0929102609036
 30
0.0
 41
1.0
 10
165.2359644493067
 20
275.5809527609035
 30
0.0
 41
1.0
 10
164.9819101993067
 20
275.8350377609036
 30
0.0
 41
1.0
 10
164.7277891993067
 20
276.0891602609035
 30
0.0
 41
1.0
 10
164.3073339493067
 20
275.4838952609036
 30
0.0
 41
1.0
 10
164.0474544493067
 20
274.4901452609036
 30
0.0
 41
1.0
 10
163.7253669493067
 20
273.2588402609036
 30
0.0
 41
1.0
 10
164.0022594493067
 20
272.6832977609036
 30
0.0
 41
1.0
 10
164.9168229493067
 20
272.6832977609036
 30
0.0
 41
1.0
 10
165.9267121993067
 20
272.6832977609036
 30
0.0
 41
1.0
 10
166.1193279493067
 20
272.0805752609036
 30
0.0
 41
1.0
 10
165.6952906993067
 20
270.2472227609036
 30
0.0
 41
1.0
 10
164.7173094493067
 20
266.0185277609036
 30
0.0
 41
1.0
 10
157.7541579493067
 20
253.1886002609036
 30
0.0
 41
1.0
 10
155.2017976993067
 20
250.9123877609036
 30
0.0
 41
1.0
 10
152.8991401993067
 20
248.8589027609036
 30
0.0
 41
1.0
 10
152.8283611993067
 20
248.5834802609036
 30
0.0
 41
1.0
 10
154.0193154493067
 20
246.3106202609036
 30
0.0
 41
1.0
 10
157.3615261993067
 20
239.9322527609036
 30
0.0
 41
1.0
 10
162.2771446993067
 20
237.2561477609036
 30
0.0
 41
1.0
 10
170.6889196993067
 20
237.2356202609036
 30
0.0
 41
1.0
 10
177.4916004493067
 20
237.2188952609036
 30
0.0
 41
1.0
 10
179.7540751993067
 20
236.1717002609036
 30
0.0
 41
1.0
 10
177.1354929493067
 20
234.2513252609036
 30
0.0
 41
1.0
 10
175.9333899493067
 20
233.3697752609036
 30
0.0
 41
1.0
 10
173.8805671993067
 20
233.0685377609036
 30
0.0
 41
1.0
 10
170.7173791993067
 20
233.3096027609036
 30
0.0
 41
1.0
 10
166.2635641993067
 20
233.6490002609036
 30
0.0
 41
1.0
 10
166.0666284493067
 20
233.5710902609036
 30
0.0
 41
1.0
 10
166.0666284493067
 20
231.4702877609036
 30
0.0
 41
1.0
 10
166.0666284493067
 20
230.1108527609036
 30
0.0
 41
1.0
 10
166.5719911993067
 20
229.2765377609036
 30
0.0
 41
1.0
 10
167.3954236993067
 20
229.2765377609036
 30
0.0
 41
1.0
 10
168.1262484493067
 20
229.2765377609036
 30
0.0
 41
1.0
 10
168.7241859493067
 20
228.8904077609036
 30
0.0
 41
1.0
 10
168.7241859493067
 20
228.4184852609036
 30
0.0
 41
1.0
 10
168.7241859493067
 20
227.9465477609036
 30
0.0
 41
1.0
 10
169.3459291993067
 20
227.7990227609036
 30
0.0
 41
1.0
 10
170.1058149493067
 20
228.0907127609036
 30
0.0
 41
1.0
 10
171.0331726993067
 20
228.4465802609036
 30
0.0
 41
1.0
 10
171.6527049493067
 20
227.9889302609036
 30
0.0
 41
1.0
 10
171.9900939493067
 20
226.6987052609036
 30
0.0
 41
1.0
 10
172.4566516993067
 20
224.9145977609036
 30
0.0
 41
1.0
 10
172.6061784493067
 20
224.8791752609036
 30
0.0
 41
1.0
 10
174.0716761993067
 20
226.2054302609036
 30
0.0
 41
1.0
 10
175.5280681993067
 20
227.5234427609036
 30
0.0
 41
1.0
 10
175.7188764493067
 20
227.5122602609036
 30
0.0
 41
1.0
 10
176.5309276993067
 20
226.0611227609036
 30
0.0
 41
1.0
 10
177.3094891993067
 20
224.6698877609036
 30
0.0
 41
1.0
 10
177.5914726993067
 20
224.6368052609036
 30
0.0
 41
1.0
 10
178.9698174493067
 20
225.7748627609036
 30
0.0
 41
1.0
 10
180.2655316993067
 20
226.8447527609036
 30
0.0
 41
1.0
 10
180.5968944493067
 20
226.8581402609036
 30
0.0
 41
1.0
 10
180.9344821993067
 20
225.8541752609036
 30
0.0
 41
1.0
 10
181.2773641993067
 20
224.8346777609036
 30
0.0
 41
1.0
 10
181.4643849493067
 20
224.8346777609036
 30
0.0
 41
1.0
 10
182.1354166993067
 20
225.8541752609036
 30
0.0
 41
1.0
 10
182.7829359493067
 20
226.8379127609036
 30
0.0
 41
1.0
 10
183.0996039493067
 20
226.7744102609036
 30
0.0
 41
1.0
 10
183.8439196993067
 20
225.5115002609036
 30
0.0
 41
1.0
 10
184.9879629493067
 20
223.5703352609036
 30
0.0
 41
1.0
 10
186.4412439493067
 20
223.4994527609036
 30
0.0
 41
1.0
 10
186.4412439493067
 20
225.3849377609036
 30
0.0
 41
1.0
 10
186.4413474493067
 20
225.3849502609035
 30
0.0
 41
1.0
 10
186.4414509493067
 20
225.3849627609036
 30
0.0
 41
1.0
 10
186.4415544493067
 20
225.3849752609036
 30
0.0
 41
1.0
 10
186.4415544493067
 20
226.2864152609036
 30
0.0
 41
1.0
 10
186.9289051993067
 20
226.6214927609036
 30
0.0
 41
1.0
 10
187.7703466993066
 20
226.2986402609036
 30
0.0
 41
1.0
  0
SPLINE
  5
159
330
1F
100
AcDbEntity
  8
LAYER_1
 62
     7
100
AcDbSpline
210
0.0
220
0.0
230
1.0
 70
     8
 71
     3
 72
    17
 73
    13
 74
     0
 42
0.000000001
 43
0.0000000001
 40
0.0
 40
0.0
 40
0.0
 40
0.0
 40
1.0
 40
1.0
 40
1.0
 40
2.0
 40
2.0
 40
2.0
 40
3.0
 40
3.0
 40
3.0
 40
4.0
 40
4.0
 40
4.0
 40
4.0
 10
159.1772416993067
 20
242.1716327609036
 30
0.0
 10
156.4190746993067
 20
244.1035202609036
 30
0.0
 10
156.7027591993067
 20
245.7569477609036
 30
0.0
 10
159.4802454493067
 20
243.9371552609035
 30
0.0
 10
161.0063446993067
 20
242.9372102609036
 30
0.0
 10
162.6055329493067
 20
242.6361077609036
 30
0.0
 10
164.3524389493067
 20
243.0197702609036
 30
0.0
 10
167.0750506993067
 20
243.6177752609036
 30
0.0
 10
168.0250081993067
 20
242.2794377609036
 30
0.0
 10
165.5516634493067
 20
241.3303202609036
 30
0.0
 10
163.2528219493067
 20
240.4481627609036
 30
0.0
 10
161.2629099493067
 20
240.7108202609036
 30
0.0
 10
159.1773091993067
 20
242.1716327609036
 30
0.0
  0
LWPOLYLINE
  5
1A2
330
1F
100
AcDbEntity
  8
LAYER_1
 62
     7
100
AcDbPolyline
 90
        2
 70
     1
 43
0.0
 10
159.1773091993067
 20
242.1716327609036
 10
159.1773091993067
 20
242.1716327609036
  0
SPLINE
  5
1A3
330
1F
100
AcDbEntity
  8
LAYER_1
 62
     7
100
AcDbSpline
210
0.0
220
0.0
230
1.0
 70
    13
 71
     3
 72
   230
 73
   226
 74
     0
 42
0.000000001
 43
0.0000000001
 40
0.0
 40
0.0
 40
0.0
 40
0.0
 40
1.0
 40
1.0
 40
1.0
 40
2.0
 40
2.0
 40
2.0
 40
3.0
 40
3.0
 40
3.0
 40
4.0
 40
4.0
 40
4.0
 40
5.0
 40
5.0
 40
5.0
 40
6.0
 40
6.0
 40
6.0
 40
7.0
 40
7.0
 40
7.0
 40
8.0
 40
8.0
 40
8.0
 40
9.0
 40
9.0
 40
9.0
 40
10.0
 40
10.0
 40
10.0
 40
11.0
 40
11.0
 40
11.0
 40
12.0
 40
12.0
 40
12.0
 40
13.0
 40
13.0
 40
13.0
 40
14.0
 40
14.0
 40
14.0
 40
15.0
 40
15.0
 40
15.0
 40
16.0
 40
16.0
 40
16.0
 40
17.0
 40
17.0
 40
17.0
 40
18.0
 40
18.0
 40
18.0
 40
19.0
 40
19.0
 40
19.0
 40
20.0
 40
20.0
 40
20.0
 40
21.0
 40
21.0
 40
21.0
 40
22.0
 40
22.0
 40
22.0
 40
23.0
 40
23.0
 40
23.0
 40
24.0
 40
24.0
 40
24.0
 40
25.0
 40
25.0
 40
25.0
 40
26.0
 40
26.0
 40
26.0
 40
27.0
 40
27.0
 40
27.0
 40
28.0
 40
28.0
 40
28.0
 40
29.0
 40
29.0
 40
29.0
 40
30.0
 40
30.0
 40
30.0
 40
31.0
 40
31.0
 40
31.0
 40
32.0
 40
32.0
 40
32.0
 40
33.0
 40
33.0
 40
33.0
 40
34.0
 40
34.0
 40
34.0
 40
35.0
 40
35.0
 40
35.0
 40
36.0
 40
36.0
 40
36.0
 40
37.0
 40
37.0
 40
37.0
 40
38.0
 40
38.0
 40
38.0
 40
39.0
 40
39.0
 40
39.0
 40
40.0
 40
40.0
 40
40.0
 40
41.0
 40
41.0
 40
41.0
 40
42.0
 40
42.0
 40
42.0
 40
43.0
 40
43.0
 40
43.0
 40
44.0
 40
44.0
 40
44.0
 40
45.0
 40
45.0
 40
45.0
 40
46.0
 40
46.0
 40
46.0
 40
47.0
 40
47.0
 40
47.0
 40
48.0
 40
48.0
 40
48.0
 40
49.0
 40
49.0
 40
49.0
 40
50.0
 40
50.0
 40
50.0
 40
51.0
 40
51.0
 40
51.0
 40
52.0
 40
52.0
 40
52.0
 40
53.0
 40
53.0
 40
53.0
 40
54.0
 40
54.0
 40
54.0
 40
55.0
 40
55.0
 40
55.0
 40
56.0
 40
56.0
 40
56.0
 40
57.0
 40
57.0
 40
57.0
 40
58.0
 40
58.0
 40
58.0
 40
59.0
 40
59.0
 40
59.0
 40
60.0
 40
60.0
 40
60.0
 40
61.0
 40
61.0
 40
61.0
 40
62.0
 40
62.0
 40
62.0
 40
63.0
 40
63.0
 40
63.0
 40
64.0
 40
64.0
 40
64.0
 40
65.0
 40
65.0
 40
65.0
 40
66.0
 40
66.0
 40
66.0
 40
67.0
 40
67.0
 40
67.0
 40
68.0
 40
68.0
 40
68.0
 40
69.0
 40
69.0
 40
69.0
 40
70.0
 40
70.0
 40
70.0
 40
71.0
 40
71.0
 40
71.0
 40
72.0
 40
72.0
 40
72.0
 40
73.0
 40
73.0
 40
73.0
 40
74.0
 40
74.0
 40
74.0
 40
75.0
 40
75.0
 40
75.0
 40
75.0
 10
223.2044311993067
 20
229.8070427609036
 30
0.0
 41
1.0
 10
229.5936211993067
 20
230.4270527609036
 30
0.0
 41
1.0
 10
234.2775811993067
 20
231.7526702609036
 30
0.0
 41
1.0
 10
234.2775811993067
 20
232.9409102609036
 30
0.0
 41
1.0
 10
234.2775811993067
 20
233.4191177609036
 30
0.0
 41
1.0
 10
234.7086136993067
 20
233.5439702609036
 30
0.0
 41
1.0
 10
235.2354061993067
 20
233.2184627609036
 30
0.0
 41
1.0
 10
235.7622286993067
 20
232.8930302609036
 30
0.0
 41
1.0
 10
237.3332311993067
 20
233.7186377609036
 30
0.0
 41
1.0
 10
238.7265061993067
 20
235.0534952609036
 30
0.0
 41
1.0
 10
241.3917286993067
 20
237.6069602609036
 30
0.0
 41
1.0
 10
241.1010811993067
 20
238.8235952609036
 30
0.0
 41
1.0
 10
237.4997611993067
 20
240.1883852609036
 30
0.0
 41
1.0
 10
236.2008961993067
 20
240.6805802609036
 30
0.0
 41
1.0
 10
236.0686861993067
 20
241.0774727609036
 30
0.0
 41
1.0
 10
236.8783861993067
 20
242.0531027609035
 30
0.0
 41
1.0
 10
237.5826286993067
 20
242.9016527609036
 30
0.0
 41
1.0
 10
237.6140686993067
 20
243.4736102609036
 30
0.0
 41
1.0
 10
236.9781586993067
 20
243.8666102609036
 30
0.0
 41
1.0
 10
235.5273886993067
 20
244.7632352609036
 30
0.0
 41
1.0
 10
235.8869461993067
 20
246.1005002609036
 30
0.0
 41
1.0
 10
237.5995411993067
 20
246.1777727609036
 30
0.0
 41
1.0
 10
238.5741361993067
 20
246.2215727609036
 30
0.0
 41
1.0
 10
238.2431686993067
 20
246.5787377609036
 30
0.0
 41
1.0
 10
236.7081736993067
 20
247.1392802609036
 30
0.0
 41
1.0
 10
233.9805061993067
 20
248.1353027609035
 30
0.0
 41
1.0
 10
234.2512036993067
 20
249.6512252609036
 30
0.0
 41
1.0
 10
237.1567486993067
 20
249.6512252609036
 30
0.0
 41
1.0
 10
239.0076511993067
 20
249.6512252609036
 30
0.0
 41
1.0
 10
239.0110636993067
 20
249.6780002609036
 30
0.0
 41
1.0
 10
237.3258286993067
 20
250.9518377609036
 30
0.0
 41
1.0
 10
235.6858636993067
 20
252.1922402609036
 30
0.0
 41
1.0
 10
235.7254036993067
 20
252.2537402609036
 30
0.0
 41
1.0
 10
238.1796661993067
 20
252.2806277609036
 30
0.0
 41
1.0
 10
240.6161761993067
 20
252.3074027609036
 30
0.0
 41
1.0
 10
240.6750661993067
 20
252.3951302609035
 30
0.0
 41
1.0
 10
239.2869736993067
 20
253.9287977609036
 30
0.0
 41
1.0
 10
238.4806186993067
 20
254.8197902609036
 30
0.0
 41
1.0
 10
237.8208811993067
 20
255.8163602609036
 30
0.0
 41
1.0
 10
237.8208811993067
 20
256.1434352609036
 30
0.0
 41
1.0
 10
237.8208811993067
 20
256.4705477609036
 30
0.0
 41
1.0
 10
238.4806186993067
 20
256.7380577609036
 30
0.0
 41
1.0
 10
239.2869736993067
 20
256.7380577609036
 30
0.0
 41
1.0
 10
240.6053986993067
 20
256.7380577609036
 30
0.0
 41
1.0
 10
240.5915686993067
 20
256.9165127609036
 30
0.0
 41
1.0
 10
239.1497086993067
 20
258.5097752609036
 30
0.0
 41
1.0
 10
237.5846086993067
 20
260.2392002609036
 30
0.0
 41
1.0
 10
237.6024511993067
 20
260.2814552609036
 30
0.0
 41
1.0
 10
239.8982761993067
 20
260.2814552609036
 30
0.0
 41
1.0
 10
242.9691886993067
 20
260.2814552609036
 30
0.0
 41
1.0
 10
242.9183011993067
 20
261.6660002609036
 30
0.0
 41
1.0
 10
239.8142161993067
 20
262.5724652609035
 30
0.0
 41
1.0
 10
237.5265811993067
 20
263.2404452609036
 30
0.0
 41
1.0
 10
237.6210736993067
 20
263.3196602609036
 30
0.0
 41
1.0
 10
241.3644511993067
 20
263.8719602609036
 30
0.0
 41
1.0
 10
244.6901386993067
 20
264.3626252609035
 30
0.0
 41
1.0
 10
245.0204761993067
 20
264.5713802609035
 30
0.0
 41
1.0
 10
243.3575986993067
 20
265.1316527609036
 30
0.0
 41
1.0
 10
240.5303761993067
 20
266.0842577609036
 30
0.0
 41
1.0
 10
240.8876461993067
 20
267.3682877609036
 30
0.0
 41
1.0
 10
243.9799111993067
 20
267.3682877609036
 30
0.0
 41
1.0
 10
246.3701611993067
 20
267.3682877609036
 30
0.0
 41
1.0
 10
246.5664286993067
 20
267.5969627609036
 30
0.0
 41
1.0
 10
246.2590336993067
 20
270.0258452609036
 30
0.0
 41
1.0
 10
246.0738811993067
 20
271.4874977609036
 30
0.0
 41
1.0
 10
246.2724586993067
 20
272.6834027609036
 30
0.0
 41
1.0
 10
246.7023886993067
 20
272.6834027609036
 30
0.0
 41
1.0
 10
248.4135736993067
 20
272.6834027609036
 30
0.0
 41
1.0
 10
251.9946736993067
 20
270.5626127609036
 30
0.0
 41
1.0
 10
251.9946736993067
 20
269.5492052609036
 30
0.0
 41
1.0
 10
251.9946736993067
 20
268.9562252609036
 30
0.0
 41
1.0
 10
252.6571261993067
 20
267.9239777609035
 30
0.0
 41
1.0
 10
253.4667961993067
 20
267.2552927609036
 30
0.0
 41
1.0
 10
256.1749786993067
 20
265.0186877609036
 30
0.0
 41
1.0
 10
254.2955836993067
 20
272.6896577609036
 30
0.0
 41
1.0
 10
249.9354511993067
 20
281.6688077609036
 30
0.0
 41
1.0
 10
246.8621611993067
 20
287.9978605109036
 30
0.0
 41
1.0
 10
244.5877561993067
 20
291.2567057609036
 30
0.0
 41
1.0
 10
240.3155611993067
 20
295.4526205109035
 30
0.0
 41
1.0
 10
230.0669161993067
 20
305.5182227609035
 30
0.0
 41
1.0
 10
220.2272086993067
 20
307.9621690109036
 30
0.0
 41
1.0
 10
207.1533886993067
 20
303.6893192609036
 30
0.0
 41
1.0
 10
199.9081936993067
 20
301.3214042609036
 30
0.0
 41
1.0
 10
198.5389261993067
 20
300.3737927609036
 30
0.0
 41
1.0
 10
202.8536236993067
 20
300.7135892609036
 30
0.0
 41
1.0
 10
205.0091011993067
 20
300.8833412609035
 30
0.0
 41
1.0
 10
206.1731686993067
 20
300.5428420109036
 30
0.0
 41
1.0
 10
206.5190986993067
 20
299.6413240109036
 30
0.0
 41
1.0
 10
206.8354936993067
 20
298.8166870109036
 30
0.0
 41
1.0
 10
207.6522961993067
 20
298.5191140109036
 30
0.0
 41
1.0
 10
208.6928161993067
 20
298.8493360109036
 30
0.0
 41
1.0
 10
210.5228611993067
 20
299.4301607609036
 30
0.0
 41
1.0
 10
211.0356211993067
 20
297.9076847609036
 30
0.0
 41
1.0
 10
209.2522861993067
 20
297.1881040109035
 30
0.0
 41
1.0
 10
208.6432636993067
 20
296.9423567609036
 30
0.0
 41
1.0
 10
209.2127611993067
 20
296.7098260109036
 30
0.0
 41
1.0
 10
210.5178061993067
 20
296.6713630109036
 30
0.0
 41
1.0
 10
213.8676511993067
 20
296.5725947609036
 30
0.0
 41
1.0
 10
216.1102711993067
 20
294.2108042609036
 30
0.0
 41
1.0
 10
214.5980011993067
 20
292.3743070109036
 30
0.0
 41
1.0
 10
213.6050536993067
 20
291.1684525109036
 30
0.0
 41
1.0
 10
213.7533136993067
 20
291.0654310109036
 30
0.0
 41
1.0
 10
215.7616711993067
 20
291.5654050109035
 30
0.0
 41
1.0
 10
217.6681786993067
 20
292.0400327609036
 30
0.0
 41
1.0
 10
218.2697686993067
 20
291.7231000109036
 30
0.0
 41
1.0
 10
219.2660986993067
 20
289.7191877609036
 30
0.0
 41
1.0
 10
219.9276811993067
 20
288.3886157609036
 30
0.0
 41
1.0
 10
220.4864836993067
 20
286.9013260109036
 30
0.0
 41
1.0
 10
220.5079411993067
 20
286.4141117609035
 30
0.0
 41
1.0
 10
220.5280411993067
 20
285.9268975109036
 30
0.0
 41
1.0
 10
220.9455361993067
 20
285.2292872609035
 30
0.0
 41
1.0
 10
221.4327511993067
 20
284.8638700109036
 30
0.0
 41
1.0
 10
221.9883361993067
 20
284.4472015109036
 30
0.0
 41
1.0
 10
221.8232161993067
 20
283.8742720109036
 30
0.0
 41
1.0
 10
220.9898311993067
 20
283.3271912609035
 30
0.0
 41
1.0
 10
220.2590086993067
 20
282.8474402609036
 30
0.0
 41
1.0
 10
220.0088386993067
 20
282.4488227609036
 30
0.0
 41
1.0
 10
220.4339161993067
 20
282.4413527609035
 30
0.0
 41
1.0
 10
220.8589936993067
 20
282.4346027609035
 30
0.0
 41
1.0
 10
220.7104711993067
 20
281.8298177609035
 30
0.0
 41
1.0
 10
220.1041261993067
 20
281.0989952609036
 30
0.0
 41
1.0
 10
219.2243086993067
 20
280.0388852609036
 30
0.0
 41
1.0
 10
219.2243086993067
 20
279.7702352609036
 30
0.0
 41
1.0
 10
220.1041261993067
 20
279.7702352609036
 30
0.0
 41
1.0
 10
220.9839436993067
 20
279.7702352609036
 30
0.0
 41
1.0
 10
220.9839436993067
 20
279.5017127609036
 30
0.0
 41
1.0
 10
220.1041261993067
 20
278.4414302609036
 30
0.0
 41
1.0
 10
219.1818211993067
 20
277.3301402609036
 30
0.0
 41
1.0
 10
219.3141436993067
 20
277.1126777609036
 30
0.0
 41
1.0
 10
220.9126636993067
 20
277.1126777609036
 30
0.0
 41
1.0
 10
222.5495161993067
 20
277.1126777609036
 30
0.0
 41
1.0
 10
222.6878311993067
 20
276.8582177609036
 30
0.0
 41
1.0
 10
221.8758061993067
 20
275.3409602609035
 30
0.0
 41
1.0
 10
221.1848986993067
 20
274.0499327609036
 30
0.0
 41
1.0
 10
221.2021336993067
 20
273.5692427609035
 30
0.0
 41
1.0
 10
221.9394061993067
 20
273.5692427609035
 30
0.0
 41
1.0
 10
222.4958911993067
 20
273.5692427609035
 30
0.0
 41
1.0
 10
222.7316311993067
 20
272.9970527609036
 30
0.0
 41
1.0
 10
222.4632811993067
 20
272.2977002609036
 30
0.0
 41
1.0
 10
222.1947586993067
 20
271.5983477609036
 30
0.0
 41
1.0
 10
222.4498561993067
 20
270.8468327609036
 30
0.0
 41
1.0
 10
223.0328911993067
 20
270.6276602609035
 30
0.0
 41
1.0
 10
223.7254186993067
 20
270.3668477609036
 30
0.0
 41
1.0
 10
223.4788936993067
 20
269.7451352609036
 30
0.0
 41
1.0
 10
222.3187411993067
 20
268.8268877609035
 30
0.0
 41
1.0
 10
221.0404036993067
 20
267.8151227609036
 30
0.0
 41
1.0
 10
220.9047061993067
 20
267.4167977609036
 30
0.0
 41
1.0
 10
221.8315261993067
 20
267.3964427609036
 30
0.0
 41
1.0
 10
222.7901536993067
 20
267.3763427609035
 30
0.0
 41
1.0
 10
222.8608036993067
 20
267.1131902609036
 30
0.0
 41
1.0
 10
222.1100836993067
 20
266.3622152609036
 30
0.0
 41
1.0
 10
221.3592061993067
 20
265.6113377609035
 30
0.0
 41
1.0
 10
221.4344086993067
 20
265.0257527609036
 30
0.0
 41
1.0
 10
222.4064011993067
 20
264.0537302609035
 30
0.0
 41
1.0
 10
223.3654936993067
 20
263.0946377609035
 30
0.0
 41
1.0
 10
223.4542861993067
 20
262.4446352609036
 30
0.0
 41
1.0
 10
222.7432486993067
 20
261.5878877609035
 30
0.0
 41
1.0
 10
222.0195511993067
 20
260.7159002609036
 30
0.0
 41
1.0
 10
222.1783561993067
 20
260.1913952609036
 30
0.0
 41
1.0
 10
223.3770361993067
 20
259.4940452609036
 30
0.0
 41
1.0
 10
224.2566886993067
 20
258.9823277609036
 30
0.0
 41
1.0
 10
224.5329361993067
 20
258.5515202609035
 30
0.0
 41
1.0
 10
223.9909111993067
 20
258.5366852609036
 30
0.0
 41
1.0
 10
223.4488936993067
 20
258.5232602609036
 30
0.0
 41
1.0
 10
223.1131486993067
 20
257.5283777609036
 30
0.0
 41
1.0
 10
223.2448261993067
 20
256.3288877609036
 30
0.0
 41
1.0
 10
223.4102236993067
 20
254.8217327609036
 30
0.0
 41
1.0
 10
222.9565561993067
 20
253.9805927609036
 30
0.0
 41
1.0
 10
221.7766861993067
 20
253.6060802609036
 30
0.0
 41
1.0
 10
220.1433511993067
 20
253.0876577609036
 30
0.0
 41
1.0
 10
220.1564986993067
 20
252.9912602609036
 30
0.0
 41
1.0
 10
222.0796936993067
 20
251.3871527609036
 30
0.0
 41
1.0
 10
223.9998211993067
 20
249.7857227609036
 30
0.0
 41
1.0
 10
224.0106061993067
 20
249.7082477609036
 30
0.0
 41
1.0
 10
222.3187411993067
 20
249.6671252609036
 30
0.0
 41
1.0
 10
220.8477211993067
 20
249.6313502609036
 30
0.0
 41
1.0
 10
220.7725486993067
 20
249.4782977609036
 30
0.0
 41
1.0
 10
221.8757836993067
 20
248.7653852609036
 30
0.0
 41
1.0
 10
223.0113661993067
 20
248.0315177609036
 30
0.0
 41
1.0
 10
222.9791911993067
 20
247.9046927609036
 30
0.0
 41
1.0
 10
221.6544811993067
 20
247.8930977609036
 30
0.0
 41
1.0
 10
219.8693686993067
 20
247.8763727609036
 30
0.0
 41
1.0
 10
219.5710186993067
 20
246.4718402609036
 30
0.0
 41
1.0
 10
221.2115611993067
 20
245.8061627609036
 30
0.0
 41
1.0
 10
221.9289211993067
 20
245.5152152609036
 30
0.0
 41
1.0
 10
222.0068986993067
 20
245.0991452609036
 30
0.0
 41
1.0
 10
221.4328636993067
 20
244.6250177609036
 30
0.0
 41
1.0
 10
220.9456486993067
 20
244.2225152609036
 30
0.0
 41
1.0
 10
220.4174536993067
 20
243.2952602609036
 30
0.0
 41
1.0
 10
220.2591211993067
 20
242.5644302609036
 30
0.0
 41
1.0
 10
220.1007586993067
 20
241.8336077609036
 30
0.0
 41
1.0
 10
219.6024961993067
 20
241.1027477609036
 30
0.0
 41
1.0
 10
219.1518061993067
 20
240.9403652609036
 30
0.0
 41
1.0
 10
218.7011086993067
 20
240.7779827609036
 30
0.0
 41
1.0
 10
218.3323936993067
 20
240.0803327609036
 30
0.0
 41
1.0
 10
218.3323936993067
 20
239.3901227609036
 30
0.0
 41
1.0
 10
218.3323936993067
 20
238.6998827609036
 30
0.0
 41
1.0
 10
217.6347811993067
 20
238.1036852609036
 30
0.0
 41
1.0
 10
216.7821511993067
 20
238.0652102609036
 30
0.0
 41
1.0
 10
215.8469236993067
 20
238.0230602609036
 30
0.0
 41
1.0
 10
215.6733886993067
 20
237.8174552609036
 30
0.0
 41
1.0
 10
216.3447511993067
 20
237.5466302609035
 30
0.0
 41
1.0
 10
218.6723536993067
 20
236.6082152609036
 30
0.0
 41
1.0
 10
216.4290886993067
 20
235.7100602609036
 30
0.0
 41
1.0
 10
212.7839086993067
 20
236.1209402609036
 30
0.0
 41
1.0
 10
209.2711186993067
 20
236.5168877609036
 30
0.0
 41
1.0
 10
208.5764161993067
 20
236.2197077609036
 30
0.0
 41
1.0
 10
203.7305386993067
 20
232.2488177609036
 30
0.0
 41
1.0
 10
200.8438036993067
 20
229.8832877609036
 30
0.0
 41
1.0
 10
196.6697926993067
 20
227.0738927609035
 30
0.0
 41
1.0
 10
194.4549916993067
 20
226.0057502609036
 30
0.0
 41
1.0
 10
193.1126791993067
 20
225.3583827609036
 30
0.0
 41
1.0
 10
191.6247922589175
 20
224.8761335160762
 30
0.0
 41
1.0
 10
191.6300770184001
 20
224.3003557919696
 30
0.0
 41
1.0
 10
191.836205254879
 20
223.8566371788966
 30
0.0
 41
1.0
 10
194.5620281993067
 20
224.0375477609036
 30
0.0
 41
1.0
 10
196.6290151993067
 20
224.0244977609036
 30
0.0
 41
1.0
 10
201.3228436993067
 20
223.9943477609036
 30
0.0
 41
1.0
 10
204.6600436993067
 20
224.6301002609036
 30
0.0
 41
1.0
 10
210.3597211993067
 20
226.6383602609036
 30
0.0
 41
1.0
 10
210.3596711993067
 20
226.6383102609036
 30
0.0
 41
1.0
 10
210.3596211993067
 20
226.6382602609036
 30
0.0
 41
1.0
 10
210.3595711993067
 20
226.6382102609036
 30
0.0
 41
1.0
 10
214.5009361993067
 20
228.0974102609036
 30
0.0
 41
1.0
 10
220.2811036993067
 20
229.5234002609036
 30
0.0
 41
1.0
 10
223.2044311993067
 20
229.8070427609036
 30
0.0
 41
1.0
  0
SPLINE
  5
1A7
330
1F
100
AcDbEntity
  8
LAYER_1
 62
     7
100
AcDbSpline
210
0.0
220
0.0
230
1.0
 70
     9
 71
     3
 72
    14
 73
    10
 74
     0
 42
0.000000001
 43
0.0000000001
 40
0.0
 40
0.0
 40
0.0
 40
0.0
 40
1.0
 40
1.0
 40
1.0
 40
2.0
 40
2.0
 40
2.0
 40
3.0
 40
3.0
 40
3.0
 40
3.0
 10
199.7438011993067
 20
255.4002527609036
 30
0.0
 10
199.2486211993067
 20
255.7062752609036
 30
0.0
 10
198.8435011993067
 20
255.3352277609036
 30
0.0
 10
198.8435011993067
 20
254.5756127609036
 30
0.0
 10
198.8435011993067
 20
253.0195877609036
 30
0.0
 10
199.3750411993067
 20
252.7904777609036
 30
0.0
 10
200.1344236993067
 20
254.0191952609036
 30
0.0
 10
200.4146611993067
 20
254.4727277609036
 30
0.0
 10
200.2388836993067
 20
255.0942077609036
 30
0.0
 10
199.7438011993067
 20
255.4002527609036
 30
0.0
  0
SPLINE
  5
1AE
330
1F
100
AcDbEntity
  8
LAYER_1
 62
     7
100
AcDbSpline
210
0.0
220
0.0
230
1.0
 70
    13
 71
     3
 72
    26
 73
    22
 74
     0
 42
0.000000001
 43
0.0000000001
 40
0.0
 40
0.0
 40
0.0
 40
0.0
 40
1.0
 40
1.0
 40
1.0
 40
2.0
 40
2.0
 40
2.0
 40
3.0
 40
3.0
 40
3.0
 40
4.0
 40
4.0
 40
4.0
 40
5.0
 40
5.0
 40
5.0
 40
6.0
 40
6.0
 40
6.0
 40
7.0
 40
7.0
 40
7.0
 40
7.0
 10
182.2337559493067
 20
262.9253552609035
 30
0.0
 41
1.0
 10
181.8683476993067
 20
262.9186052609036
 30
0.0
 41
1.0
 10
180.9714211993067
 20
262.4816627609036
 30
0.0
 41
1.0
 10
180.2405956993067
 20
261.9559427609035
 30
0.0
 41
1.0
 10
179.1337096993067
 20
261.1596977609035
 30
0.0
 41
1.0
 10
179.1814284493067
 20
261.0874802609036
 30
0.0
 41
1.0
 10
180.5265219493067
 20
261.5234702609036
 30
0.0
 41
1.0
 10
183.0195196993067
 20
262.3315952609035
 30
0.0
 41
1.0
 10
182.0154916993067
 20
259.2306827609036
 30
0.0
 41
1.0
 10
179.3470186993067
 20
257.8805627609035
 30
0.0
 41
1.0
 10
177.3681609493067
 20
256.8794177609036
 30
0.0
 41
1.0
 10
177.3278176993067
 20
256.7627327609036
 30
0.0
 41
1.0
 10
178.9562266993067
 20
256.7510102609036
 30
0.0
 41
1.0
 10
179.9550069493067
 20
256.7442602609036
 30
0.0
 41
1.0
 10
181.2505839493067
 20
257.2163027609036
 30
0.0
 41
1.0
 10
181.8352336993067
 20
257.8009802609035
 30
0.0
 41
1.0
 10
181.8352001993067
 20
257.8009802609035
 30
0.0
 41
1.0
 10
181.8351666993067
 20
257.8009802609035
 30
0.0
 41
1.0
 10
181.8351331993067
 20
257.8009802609035
 30
0.0
 41
1.0
 10
182.9955144493067
 20
258.9613727609036
 30
0.0
 41
1.0
 10
183.3055831993067
 20
262.9472552609036
 30
0.0
 41
1.0
 10
182.2337559493067
 20
262.9253552609035
 30
0.0
 41
1.0
  0
LWPOLYLINE
  5
1AF
330
1F
100
AcDbEntity
  8
LAYER_1
 62
     7
100
AcDbPolyline
 90
        2
 70
     1
 43
0.0
 10
200.1344236993067
 20
254.0191952609036
 10
200.1344236993067
 20
254.0191952609036
  0
SPLINE
  5
1B3
330
1F
100
AcDbEntity
  8
LAYER_1
 62
     7
100
AcDbSpline
210
0.0
220
0.0
230
1.0
 70
     9
 71
     3
 72
    17
 73
    13
 74
     0
 42
0.000000001
 43
0.0000000001
 40
0.0
 40
0.0
 40
0.0
 40
0.0
 40
1.0
 40
1.0
 40
1.0
 40
2.0
 40
2.0
 40
2.0
 40
3.0
 40
3.0
 40
3.0
 40
4.0
 40
4.0
 40
4.0
 40
4.0
 10
201.3372661993067
 20
271.4392127609036
 30
0.0
 10
198.3641776993067
 20
272.9766677609036
 30
0.0
 10
193.0383249493067
 20
272.5136177609036
 30
0.0
 10
192.3985644493067
 20
270.6620777609036
 30
0.0
 10
191.9275876993067
 20
269.2990352609036
 30
0.0
 10
194.4633751993067
 20
263.8247852609036
 30
0.0
 10
195.5657326993067
 20
263.8247852609036
 30
0.0
 10
196.0185976993067
 20
263.8247852609036
 30
0.0
 10
198.3248776993067
 20
264.8783402609035
 30
0.0
 10
200.6907736993067
 20
266.1660452609036
 30
0.0
 10
205.3620586993067
 20
268.7084627609035
 30
0.0
 10
205.4369161993067
 20
269.3191952609036
 30
0.0
 10
201.3372661993067
 20
271.4392127609036
 30
0.0
  0
SPLINE
  5
1B8
330
1F
100
AcDbEntity
  8
LAYER_1
 62
     7
100
AcDbSpline
210
0.0
220
0.0
230
1.0
 70
     9
 71
     3
 72
    17
 73
    13
 74
     0
 42
0.000000001
 43
0.0000000001
 40
0.0
 40
0.0
 40
0.0
 40
0.0
 40
1.0
 40
1.0
 40
1.0
 40
2.0
 40
2.0
 40
2.0
 40
3.0
 40
3.0
 40
3.0
 40
4.0
 40
4.0
 40
4.0
 40
4.0
 10
198.1480951993067
 20
279.3700052609036
 30
0.0
 10
197.9043601993067
 20
279.1262552609036
 30
0.0
 10
198.2173951993067
 20
278.3098577609036
 30
0.0
 10
198.8435011993067
 20
277.5554927609036
 30
0.0
 10
199.4695561993067
 20
276.8011052609036
 30
0.0
 10
200.1811336993067
 20
276.3832202609036
 30
0.0
 10
200.4247336993067
 20
276.6268277609035
 30
0.0
 10
200.6684761993067
 20
276.8705702609036
 30
0.0
 10
200.3554336993067
 20
277.6869752609036
 30
0.0
 10
199.7293336993067
 20
278.4413327609036
 30
0.0
 10
199.1032711993067
 20
279.1957352609036
 30
0.0
 10
198.3917026993067
 20
279.6136052609035
 30
0.0
 10
198.1480951993067
 20
279.3700052609036
 30
0.0
  0
LWPOLYLINE
  5
1B9
330
1F
100
AcDbEntity
  8
LAYER_1
 62
     7
100
AcDbPolyline
 90
        2
 70
     1
 43
0.0
 10
200.6907736993067
 20
266.1660452609036
 10
200.6907736993067
 20
266.1660452609036
  0
SPLINE
  5
1BC
330
1F
100
AcDbEntity
  8
LAYER_1
 62
     7
100
AcDbSpline
210
0.0
220
0.0
230
1.0
 70
     8
 71
     3
 72
    14
 73
    10
 74
     0
 42
0.000000001
 43
0.0000000001
 40
0.0
 40
0.0
 40
0.0
 40
0.0
 40
1.0
 40
1.0
 40
1.0
 40
2.0
 40
2.0
 40
2.0
 40
3.0
 40
3.0
 40
3.0
 40
3.0
 10
198.6035761993067
 20
282.0770402609036
 30
0.0
 10
198.3092701993067
 20
282.3713402609036
 30
0.0
 10
197.5451626993067
 20
282.4028102609036
 30
0.0
 10
196.9056826993067
 20
282.1470152609036
 30
0.0
 10
196.1990326993067
 20
281.8641002609036
 30
0.0
 10
196.4089276993067
 20
281.6543477609036
 30
0.0
 10
197.4408751993067
 20
281.6118227609036
 30
0.0
 10
198.3747301993067
 20
281.5732727609036
 30
0.0
 10
198.8979361993067
 20
281.7829052609036
 30
0.0
 10
198.6035761993067
 20
282.0771077609036
 30
0.0
  0
LWPOLYLINE
  5
1BD
330
1F
100
AcDbEntity
  8
LAYER_1
 62
     7
100
AcDbPolyline
 90
        2
 70
     1
 43
0.0
 10
199.7293336993067
 20
278.4413327609036
 10
199.7293336993067
 20
278.4413327609036
  0
SPLINE
  5
1CF
330
1F
100
AcDbEntity
  8
LAYER_1
 62
     7
100
AcDbSpline
210
0.0
220
0.0
230
1.0
 70
    13
 71
     3
 72
    62
 73
    58
 74
     0
 42
0.000000001
 43
0.0000000001
 40
0.0
 40
0.0
 40
0.0
 40
0.0
 40
1.0
 40
1.0
 40
1.0
 40
2.0
 40
2.0
 40
2.0
 40
3.0
 40
3.0
 40
3.0
 40
4.0
 40
4.0
 40
4.0
 40
5.0
 40
5.0
 40
5.0
 40
6.0
 40
6.0
 40
6.0
 40
7.0
 40
7.0
 40
7.0
 40
8.0
 40
8.0
 40
8.0
 40
9.0
 40
9.0
 40
9.0
 40
10.0
 40
10.0
 40
10.0
 40
11.0
 40
11.0
 40
11.0
 40
12.0
 40
12.0
 40
12.0
 40
13.0
 40
13.0
 40
13.0
 40
14.0
 40
14.0
 40
14.0
 40
15.0
 40
15.0
 40
15.0
 40
16.0
 40
16.0
 40
16.0
 40
17.0
 40
17.0
 40
17.0
 40
18.0
 40
18.0
 40
18.0
 40
19.0
 40
19.0
 40
19.0
 40
19.0
 10
194.7344701993067
 20
288.4349282609036
 30
0.0
 41
1.0
 10
194.0647524493067
 20
289.1046820109036
 30
0.0
 41
1.0
 10
193.1067264493067
 20
290.4188425109036
 30
0.0
 41
1.0
 10
192.6055471993067
 20
291.3552730109036
 30
0.0
 41
1.0
 10
192.1044046993067
 20
292.2917035109036
 30
0.0
 41
1.0
 10
191.0963881993067
 20
293.0579162609035
 30
0.0
 41
1.0
 10
190.3655626993067
 20
293.0579162609035
 30
0.0
 41
1.0
 10
189.6347371993067
 20
293.0579162609035
 30
0.0
 41
1.0
 10
188.1443341993067
 20
293.6426657609036
 30
0.0
 41
1.0
 10
187.0535866993067
 20
294.3573542609036
 30
0.0
 41
1.0
 10
184.5068829493067
 20
296.0260157609035
 30
0.0
 41
1.0
 10
180.6171939493067
 20
296.1944537609036
 30
0.0
 41
1.0
 10
176.6972019493067
 20
294.8058310109036
 30
0.0
 41
1.0
 10
171.9959589493067
 20
293.1404462609036
 30
0.0
 41
1.0
 10
171.0817921993067
 20
292.6009052609036
 30
0.0
 41
1.0
 10
170.6263501993067
 20
291.2229250109036
 30
0.0
 41
1.0
 10
170.2968969493067
 20
290.2264637609036
 30
0.0
 41
1.0
 10
170.4746814493067
 20
290.1772757609036
 30
0.0
 41
1.0
 10
171.4620039493067
 20
290.9915717609036
 30
0.0
 41
1.0
 10
172.4269269493067
 20
291.7873480109035
 30
0.0
 41
1.0
 10
173.1019381993067
 20
291.7433177609035
 30
0.0
 41
1.0
 10
174.3911919493067
 20
290.8007260109036
 30
0.0
 41
1.0
 10
175.8515349493067
 20
289.7328880109036
 30
0.0
 41
1.0
 10
176.3910856993067
 20
289.8068477609036
 30
0.0
 41
1.0
 10
178.5964779493067
 20
291.3772067609036
 30
0.0
 41
1.0
 10
180.0172471993067
 20
292.3888652609036
 30
0.0
 41
1.0
 10
181.1264416993067
 20
292.7377067609036
 30
0.0
 41
1.0
 10
181.1264416993067
 20
292.1728457609035
 30
0.0
 41
1.0
 10
181.1264416993067
 20
291.6068530109036
 30
0.0
 41
1.0
 10
181.8247186993067
 20
291.3885880109036
 30
0.0
 41
1.0
 10
182.7231511993067
 20
291.6737477609036
 30
0.0
 41
1.0
 10
183.6013576993067
 20
291.9523082609036
 30
0.0
 41
1.0
 10
185.0962141993067
 20
291.5934265109036
 30
0.0
 41
1.0
 10
186.0451036993067
 20
290.8757627609036
 30
0.0
 41
1.0
 10
186.9939931993067
 20
290.1581627609036
 30
0.0
 41
1.0
 10
188.4389956993067
 20
289.5583435109036
 30
0.0
 41
1.0
 10
189.2562676993067
 20
289.5428455109036
 30
0.0
 41
1.0
 10
190.0735389493067
 20
289.5261430109036
 30
0.0
 41
1.0
 10
191.5261539493067
 20
288.5180882609036
 30
0.0
 41
1.0
 10
192.4842436993067
 20
287.3000215109036
 30
0.0
 41
1.0
 10
193.4423701993067
 20
286.0819727609036
 30
0.0
 41
1.0
 10
194.6672101993067
 20
285.0854110109036
 30
0.0
 41
1.0
 10
195.2061226993067
 20
285.0854110109036
 30
0.0
 41
1.0
 10
195.7450351993067
 20
285.0854110109036
 30
0.0
 41
1.0
 10
196.1859451993067
 20
284.6867515109036
 30
0.0
 41
1.0
 10
196.1859451993067
 20
284.1995372609035
 30
0.0
 41
1.0
 10
196.1859451993067
 20
283.7123237609036
 30
0.0
 41
1.0
 10
196.4119426993067
 20
283.3137010109036
 30
0.0
 41
1.0
 10
196.6885576993067
 20
283.3137010109036
 30
0.0
 41
1.0
 10
196.9651051993067
 20
283.3137010109036
 30
0.0
 41
1.0
 10
196.9125451993067
 20
284.1920440109036
 30
0.0
 41
1.0
 10
196.5717076993067
 20
285.2655415109036
 30
0.0
 41
1.0
 10
196.5716976993067
 20
285.2654867609036
 30
0.0
 41
1.0
 10
196.5716876993067
 20
285.2654320109036
 30
0.0
 41
1.0
 10
196.5716776993067
 20
285.2653772609036
 30
0.0
 41
1.0
 10
196.2309676993067
 20
286.3389107609036
 30
0.0
 41
1.0
 10
195.4042201993067
 20
287.7652022609036
 30
0.0
 41
1.0
 10
194.7344701993067
 20
288.4349282609036
 30
0.0
 41
1.0
  0
LWPOLYLINE
  5
1D0
330
1F
100
AcDbEntity
  8
LAYER_1
 62
     7
100
AcDbPolyline
 90
        2
 70
     1
 43
0.0
 10
198.6035761993067
 20
282.0771077609036
 10
198.6035761993067
 20
282.0771077609036
  0
SPLINE
  5
100D3
330
1F
100
AcDbEntity
  8
LAYER_1
 62
     7
100
AcDbSpline
210
0.0
220
0.0
230
1.0
 70
    13
 71
     3
 72
   112
 73
   108
 74
     0
 42
0.000000001
 43
0.0000000001
 40
0.0
 40
0.0
 40
0.0
 40
0.0
 40
1.0
 40
1.0
 40
1.0
 40
2.0
 40
2.0
 40
2.0
 40
3.0
 40
3.0
 40
3.0
 40
4.0
 40
4.0
 40
4.0
 40
5.0
 40
5.0
 40
5.0
 40
6.0
 40
6.0
 40
6.0
 40
7.0
 40
7.0
 40
7.0
 40
8.0
 40
8.0
 40
8.0
 40
9.0
 40
9.0
 40
9.0
 40
10.0
 40
10.0
 40
10.0
 40
11.0
 40
11.0
 40
11.0
 40
12.0
 40
12.0
 40
12.0
 40
13.0
 40
13.0
 40
13.0
 40
14.0
 40
14.0
 40
14.0
 40
15.0
 40
15.0
 40
15.0
 40
16.0
 40
16.0
 40
16.0
 40
17.0
 40
17.0
 40
17.0
 40
18.0
 40
18.0
 40
18.0
 40
19.0
 40
19.0
 40
20.0
 40
20.0
 40
20.0
 40
21.0
 40
21.0
 40
21.0
 40
22.0
 40
22.0
 40
22.0
 40
23.0
 40
23.0
 40
23.0
 40
24.0
 40
24.0
 40
24.0
 40
25.0
 40
25.0
 40
25.0
 40
26.0
 40
26.0
 40
26.0
 40
27.0
 40
27.0
 40
27.0
 40
28.0
 40
28.0
 40
28.0
 40
28.48219762079324
 40
28.48219762079324
 40
28.48219762079324
 40
29.48219762079324
 40
29.48219762079324
 40
29.48219762079324
 40
30.48219762079324
 40
30.48219762079324
 40
30.48219762079324
 40
31.48219762079325
 40
31.48219762079325
 40
31.48219762079325
 40
32.48219762079325
 40
32.48219762079325
 40
32.48219762079325
 40
33.48219762079324
 40
33.48219762079324
 40
33.48219762079324
 40
34.48219762079324
 40
34.48219762079324
 40
34.48219762079324
 40
35.48219762079324
 40
35.48219762079324
 40
35.48219762079324
 40
35.48219762079324
 10
340.6837156714817
 20
117.065966108992
 30
0.0
 41
1.0
 10
341.1709299214816
 20
117.457391108992
 30
0.0
 41
1.0
 10
343.3047714214816
 20
117.688143608992
 30
0.0
 41
1.0
 10
345.4255981714816
 20
117.578726108992
 30
0.0
 41
1.0
 10
347.9456484214817
 20
117.448826108992
 30
0.0
 41
1.0
 10
349.4363581714816
 20
117.782958608992
 30
0.0
 41
1.0
 10
349.7281786714816
 20
118.543383608992
 30
0.0
 41
1.0
 10
349.9739296714817
 20
119.183411108992
 30
0.0
 41
1.0
 10
350.9483619214817
 20
119.707016108992
 30
0.0
 41
1.0
 10
351.8939326714817
 20
119.707016108992
 30
0.0
 41
1.0
 10
352.8395041714816
 20
119.707016108992
 30
0.0
 41
1.0
 10
354.5367579214816
 20
120.703616108992
 30
0.0
 41
1.0
 10
355.6656054214816
 20
121.921653608992
 30
0.0
 41
1.0
 10
356.7944514214817
 20
123.139691108992
 30
0.0
 41
1.0
 10
358.4126236714817
 20
124.136291108992
 30
0.0
 41
1.0
 10
359.2615014214816
 20
124.136291108992
 30
0.0
 41
1.0
 10
360.2343601714816
 20
124.136291108992
 30
0.0
 41
1.0
 10
360.6256194214816
 20
124.603578608992
 30
0.0
 41
1.0
 10
360.3199044214816
 20
125.400296108992
 30
0.0
 41
1.0
 10
360.0530604214816
 20
126.095501108992
 30
0.0
 41
1.0
 10
360.3935619214817
 20
127.128086108992
 30
0.0
 41
1.0
 10
361.0766761714817
 20
127.694921108992
 30
0.0
 41
1.0
 10
361.7596561714817
 20
128.261756108992
 30
0.0
 41
1.0
 10
362.5899519214816
 20
129.586466108992
 30
0.0
 41
1.0
 10
362.9217489214817
 20
130.638716108992
 30
0.0
 41
1.0
 10
363.2535466714817
 20
131.690951108992
 30
0.0
 41
1.0
 10
365.0128749214816
 20
134.245451108992
 30
0.0
 41
1.0
 10
366.8313631714817
 20
136.315353608992
 30
0.0
 41
1.0
 10
371.9621986714817
 20
142.155551108992
 30
0.0
 41
1.0
 10
372.0350866714816
 20
146.583086108992
 30
0.0
 41
1.0
 10
367.1591424214816
 20
156.218996108992
 30
0.0
 41
1.0
 10
364.5974754214817
 20
161.281293608992
 30
0.0
 41
1.0
 10
364.5200671714816
 20
162.770658608992
 30
0.0
 41
1.0
 10
366.7564996714816
 20
163.967538608992
 30
0.0
 41
1.0
 10
369.4072269214816
 20
165.386163608992
 30
0.0
 41
1.0
 10
369.9084376714816
 20
168.284921108992
 30
0.0
 41
1.0
 10
367.9666389214816
 20
170.966148608992
 30
0.0
 41
1.0
 10
367.0365684214817
 20
172.250381108992
 30
0.0
 41
1.0
 10
365.7530731714816
 20
174.591573608992
 30
0.0
 41
1.0
 10
365.1144556714817
 20
176.168861108992
 30
0.0
 41
1.0
 10
364.4758381714817
 20
177.746123858992
 30
0.0
 41
1.0
 10
363.8443105451635
 20
178.4976643902462
 30
0.0
 41
1.0
 10
363.2647621714816
 20
178.611077108992
 30
0.0
 41
1.0
 10
362.6268768625535
 20
178.825250182371
 30
0.0
 41
1.0
 10
362.3149719214816
 20
179.226395108992
 30
0.0
 41
1.0
 10
361.9956639214816
 20
180.498569108992
 30
0.0
 41
1.0
 10
361.6762546714816
 20
181.770752858992
 30
0.0
 41
1.0
 10
361.3307176030927
 20
182.2661470088794
 30
0.0
 41
1.0
 10
360.8977201714816
 20
182.294193608992
 30
0.0
 41
1.0
 10
360.196528305941
 20
182.3233443391029
 30
0.0
 41
1.0
 10
359.6494801714816
 20
182.705877608992
 30
0.0
 41
1.0
 10
358.7562399214817
 20
183.841451108992
 30
0.0
 41
1.0
 10
357.8629989214817
 20
184.977023858992
 30
0.0
 41
1.0
 10
355.9227391714817
 20
186.407102858992
 30
0.0
 41
1.0
 10
354.4445859214816
 20
187.019372108992
 30
0.0
 41
1.0
 10
352.9663974214817
 20
187.631641358992
 30
0.0
 41
1.0
 10
352.1862803966238
 20
188.2501822517955
 30
0.0
 41
1.0
 10
351.7569954214816
 20
189.339103358992
 30
0.0
 41
1.0
 10
351.0593844214816
 20
189.695174108992
 30
0.0
 41
1.0
 10
350.2067566714816
 20
189.702275858992
 30
0.0
 41
1.0
 10
349.3541281714816
 20
189.708650858992
 30
0.0
 41
1.0
 10
347.0619834214816
 20
190.263449108992
 30
0.0
 41
1.0
 10
345.1130829214816
 20
190.933568108992
 30
0.0
 41
1.0
 10
343.1642184214816
 20
191.603723858992
 30
0.0
 41
1.0
 10
338.9785539214817
 20
192.435261608992
 30
0.0
 41
1.0
 10
335.8116489214816
 20
192.781456358992
 30
0.0
 41
1.0
 10
332.5204291714816
 20
193.141241858992
 30
0.0
 41
1.0
 10
327.7765756714816
 20
194.478613358992
 30
0.0
 41
1.0
 10
324.7385071714816
 20
195.903197858992
 30
0.0
 41
1.0
 10
315.3644536714817
 20
200.298720608992
 30
0.0
 41
1.0
 10
310.1418511714816
 20
201.649509608992
 30
0.0
 41
1.0
 10
302.5922086714816
 20
201.631127108992
 30
0.0
 41
1.0
 10
296.6883286714816
 20
201.617709608992
 30
0.0
 41
1.0
 10
294.5792236714817
 20
201.189048608992
 30
0.0
 41
1.0
 10
289.9569661714816
 20
199.068761108992
 30
0.0
 41
1.0
 10
281.7847786714816
 20
195.320054858992
 30
0.0
 41
1.0
 10
274.1110336714817
 20
186.842792858992
 30
0.0
 41
1.0
 10
268.8273286714816
 20
175.726721108992
 30
0.0
 41
1.0
 10
264.7301836714817
 20
167.106963608992
 30
0.0
 41
1.0
 10
264.7265686714816
 20
167.0908836089919
 30
0.0
 41
1.0
 10
264.2686786714817
 20
155.415753608992
 30
0.0
 41
1.0
 10
264.1641078021625
 20
152.7494223555082
 30
0.0
 41
1.0
 10
264.0595369328435
 20
150.0830911020244
 30
0.0
 41
1.0
 10
263.9549660635243
 20
147.4167598485406
 30
0.0
 41
1.0
 10
263.8595550839001
 20
144.9839859933128
 30
0.0
 41
0.9807174655988807
 10
264.347776676894
 20
142.5987959459901
 30
0.0
 41
0.9807174655988807
 10
265.3913883935195
 20
140.3991672339946
 30
0.0
 41
1.0
 10
266.8315607122444
 20
137.391073675753
 30
0.0
 41
1.0
 10
268.2717330309692
 20
134.3829801175114
 30
0.0
 41
1.0
 10
269.7119053496941
 20
131.3748865592698
 30
0.0
 41
1.0
 10
275.8517729956369
 20
123.6204283024374
 30
0.0
 41
1.0
 10
289.1117986714816
 20
122.958731108992
 30
0.0
 41
1.0
 10
293.7336586714816
 20
122.227406108992
 30
0.0
 41
1.0
 10
302.2866586714816
 20
120.873993608992
 30
0.0
 41
1.0
 10
305.8073911714816
 20
120.018588608992
 30
0.0
 41
1.0
 10
311.4507136714816
 20
117.922848608992
 30
0.0
 41
1.0
 10
315.4634836714816
 20
116.432606108992
 30
0.0
 41
1.0
 10
319.1534686714816
 20
115.877763608992
 30
0.0
 41
1.0
 10
326.5102171714817
 20
115.658358608992
 30
0.0
 41
1.0
 10
331.8696331714816
 20
115.498653608992
 30
0.0
 41
1.0
 10
337.0518594214817
 20
115.589733608992
 30
0.0
 41
1.0
 10
338.0262871714816
 20
115.860918608992
 30
0.0
 41
1.0
 10
338.0262446714816
 20
115.860953608992
 30
0.0
 41
1.0
 10
338.0262021714817
 20
115.860988608992
 30
0.0
 41
1.0
 10
338.0261596714817
 20
115.861023608992
 30
0.0
 41
1.0
 10
339.0005874214816
 20
116.132216108992
 30
0.0
 41
1.0
 10
340.1964924214816
 20
116.674541108992
 30
0.0
 41
1.0
 10
340.6837156714817
 20
117.065966108992
 30
0.0
 41
1.0
  0
SPLINE
  5
100EA
330
1F
100
AcDbEntity
  8
0
100
AcDbSpline
210
0.0
220
0.0
230
1.0
 70
    13
 71
     2
 72
    24
 73
    21
 74
     0
 42
0.000000001
 43
0.0000000001
 40
0.0
 40
0.0
 40
0.0
 40
1.561037944431567
 40
1.561037944431567
 40
2.474343039187038
 40
2.474343039187038
 40
3.618895436703597
 40
3.618895436703597
 40
4.763447834220156
 40
4.763447834220156
 40
5.676752928963007
 40
5.676752928963007
 40
7.237790873390895
 40
7.237790873390895
 40
8.151095968133748
 40
8.151095968133748
 40
9.295648365651665
 40
9.295648365651665
 40
10.44020076316958
 40
10.44020076316958
 40
11.35350585791247
 40
11.35350585791247
 40
11.35350585791247
 10
357.6958124774369
 20
158.6594617823061
 30
0.0
 41
1.0
 10
352.2376223504791
 20
149.8342359512971
 30
0.0
 41
0.7105484598142259
 10
353.6874736566279
 20
139.5592964565952
 30
0.0
 41
1.0
 10
353.9482242554494
 20
137.7113851466132
 30
0.0
 41
0.897533569678807
 10
352.6449041754726
 20
136.375674154866
 30
0.0
 41
1.0
 10
337.2795827060981
 20
120.6284842711797
 30
0.0
 41
0.8406704854461324
 10
309.3396222661198
 20
126.4919323709507
 30
0.0
 41
1.0
 10
281.3996618261415
 20
132.3553804707215
 30
0.0
 41
0.8406704854461324
 10
273.6612215643777
 20
152.9510993317952
 30
0.0
 41
1.0
 10
273.0048301832571
 20
154.6980731263968
 30
0.0
 41
0.8975335696815896
 10
273.9864662573796
 20
156.285258591998
 30
0.0
 41
1.0
 10
279.4446563843172
 20
165.1104844229746
 30
0.0
 41
0.7105484598155202
 10
277.994805078194
 20
175.3854239176708
 30
0.0
 41
1.0
 10
277.7340544793499
 20
177.2333352276196
 30
0.0
 41
0.8975335696815895
 10
279.0373745592925
 20
178.5690462193586
 30
0.0
 41
1.0
 10
294.4026960286123
 20
194.3162361031184
 30
0.0
 41
0.8406704854457649
 10
322.3426564686377
 20
188.4527880033659
 30
0.0
 41
1.0
 10
350.2826169086631
 20
182.5893399036134
 30
0.0
 41
0.8406704854457649
 10
358.0210571704388
 20
161.993621042509
 30
0.0
 41
1.0
 10
358.6774485515595
 20
160.2466472479075
 30
0.0
 41
0.8975335696815811
 10
357.6958124774369
 20
158.6594617823062
 30
0.0
 41
1.0
  0
CIRCLE
  5
100EB
330
1F
100
AcDbEntity
  8
0
  6
Continuous
100
AcDbCircle
 10
273.0881489826286
 20
166.4444537864838
 30
0.0
 40
2.024999999999999
  0
CIRCLE
  5
100EC
330
1F
100
AcDbEntity
  8
0
  6
Continuous
100
AcDbCircle
 10
358.5941297537772
 20
148.5002665874266
 30
0.0
 40
2.024999999999999
  0
SPLINE
  5
100FF
330
1F
100
AcDbEntity
  8
LAYER_1
 62
     7
100
AcDbSpline
210
0.0
220
0.0
230
1.0
 70
    13
 71
     3
 72
   112
 73
   108
 74
     0
 42
0.000000001
 43
0.0000000001
 40
0.0
 40
0.0
 40
0.0
 40
0.0
 40
1.0
 40
1.0
 40
1.0
 40
2.0
 40
2.0
 40
2.0
 40
3.0
 40
3.0
 40
3.0
 40
4.0
 40
4.0
 40
4.0
 40
5.0
 40
5.0
 40
5.0
 40
6.0
 40
6.0
 40
6.0
 40
7.0
 40
7.0
 40
7.0
 40
8.0
 40
8.0
 40
8.0
 40
9.0
 40
9.0
 40
9.0
 40
10.0
 40
10.0
 40
10.0
 40
11.0
 40
11.0
 40
11.0
 40
12.0
 40
12.0
 40
12.0
 40
13.0
 40
13.0
 40
13.0
 40
14.0
 40
14.0
 40
14.0
 40
15.0
 40
15.0
 40
15.0
 40
16.0
 40
16.0
 40
16.0
 40
17.0
 40
17.0
 40
17.0
 40
18.0
 40
18.0
 40
18.0
 40
19.0
 40
19.0
 40
20.0
 40
20.0
 40
20.0
 40
21.0
 40
21.0
 40
21.0
 40
22.0
 40
22.0
 40
22.0
 40
23.0
 40
23.0
 40
23.0
 40
24.0
 40
24.0
 40
24.0
 40
25.0
 40
25.0
 40
25.0
 40
26.0
 40
26.0
 40
26.0
 40
27.0
 40
27.0
 40
27.0
 40
28.0
 40
28.0
 40
28.0
 40
28.48219762079324
 40
28.48219762079324
 40
28.48219762079324
 40
29.48219762079324
 40
29.48219762079324
 40
29.48219762079324
 40
30.48219762079324
 40
30.48219762079324
 40
30.48219762079324
 40
31.48219762079325
 40
31.48219762079325
 40
31.48219762079325
 40
32.48219762079325
 40
32.48219762079325
 40
32.48219762079325
 40
33.48219762079324
 40
33.48219762079324
 40
33.48219762079324
 40
34.48219762079324
 40
34.48219762079324
 40
34.48219762079324
 40
35.48219762079324
 40
35.48219762079324
 40
35.48219762079324
 40
35.48219762079324
 10
176.6809405433148
 20
119.7133534465167
 30
0.0
 41
1.0
 10
176.1937262933148
 20
120.1047784465167
 30
0.0
 41
1.0
 10
174.0598847933149
 20
120.3355309465167
 30
0.0
 41
1.0
 10
171.9390580433148
 20
120.2261134465166
 30
0.0
 41
1.0
 10
169.4190077933148
 20
120.0962134465167
 30
0.0
 41
1.0
 10
167.9282980433148
 20
120.4303459465166
 30
0.0
 41
1.0
 10
167.6364775433148
 20
121.1907709465166
 30
0.0
 41
1.0
 10
167.3907265433148
 20
121.8307984465166
 30
0.0
 41
1.0
 10
166.4162942933149
 20
122.3544034465167
 30
0.0
 41
1.0
 10
165.4707235433148
 20
122.3544034465166
 30
0.0
 41
1.0
 10
164.5251520433149
 20
122.3544034465166
 30
0.0
 41
1.0
 10
162.8278982933149
 20
123.3510034465167
 30
0.0
 41
1.0
 10
161.6990507933148
 20
124.5690409465166
 30
0.0
 41
1.0
 10
160.5702047933148
 20
125.7870784465167
 30
0.0
 41
1.0
 10
158.9520325433148
 20
126.7836784465167
 30
0.0
 41
1.0
 10
158.1031547933148
 20
126.7836784465167
 30
0.0
 41
1.0
 10
157.1302960433148
 20
126.7836784465167
 30
0.0
 41
1.0
 10
156.7390367933148
 20
127.2509659465167
 30
0.0
 41
1.0
 10
157.0447517933149
 20
128.0476834465166
 30
0.0
 41
1.0
 10
157.3115957933148
 20
128.7428884465167
 30
0.0
 41
1.0
 10
156.9710942933148
 20
129.7754734465167
 30
0.0
 41
1.0
 10
156.2879800433148
 20
130.3423084465167
 30
0.0
 41
1.0
 10
155.6050000433148
 20
130.9091434465166
 30
0.0
 41
1.0
 10
154.7747042933148
 20
132.2338534465167
 30
0.0
 41
1.0
 10
154.4429072933148
 20
133.2861034465167
 30
0.0
 41
1.0
 10
154.1111095433148
 20
134.3383384465167
 30
0.0
 41
1.0
 10
152.3517812933148
 20
136.8928384465167
 30
0.0
 41
1.0
 10
150.5332930433148
 20
138.9627409465167
 30
0.0
 41
1.0
 10
145.4024575433148
 20
144.8029384465166
 30
0.0
 41
1.0
 10
145.3295695433149
 20
149.2304734465166
 30
0.0
 41
1.0
 10
150.2055137933148
 20
158.8663834465167
 30
0.0
 41
1.0
 10
152.7671807933148
 20
163.9286809465166
 30
0.0
 41
1.0
 10
152.8445890433148
 20
165.4180459465167
 30
0.0
 41
1.0
 10
150.6081565433149
 20
166.6149259465167
 30
0.0
 41
1.0
 10
147.9574292933148
 20
168.0335509465166
 30
0.0
 41
1.0
 10
147.4562185433148
 20
170.9323084465166
 30
0.0
 41
1.0
 10
149.3980172933149
 20
173.6135359465166
 30
0.0
 41
1.0
 10
150.3280877933148
 20
174.8977684465166
 30
0.0
 41
1.0
 10
151.6115830433148
 20
177.2389609465166
 30
0.0
 41
1.0
 10
152.2502005433148
 20
178.8162484465167
 30
0.0
 41
1.0
 10
152.8888180433148
 20
180.3935111965166
 30
0.0
 41
1.0
 10
153.5203456696329
 20
181.1450517277708
 30
0.0
 41
1.0
 10
154.0998940433148
 20
181.2584644465167
 30
0.0
 41
1.0
 10
154.737779352243
 20
181.4726375198956
 30
0.0
 41
1.0
 10
155.0496842933148
 20
181.8737824465166
 30
0.0
 41
1.0
 10
155.3689922933148
 20
183.1459564465167
 30
0.0
 41
1.0
 10
155.6884015433149
 20
184.4181401965166
 30
0.0
 41
1.0
 10
156.0339386117037
 20
184.913534346404
 30
0.0
 41
1.0
 10
156.4669360433148
 20
184.9415809465166
 30
0.0
 41
1.0
 10
157.1681279088554
 20
184.9707316766276
 30
0.0
 41
1.0
 10
157.7151760433148
 20
185.3532649465167
 30
0.0
 41
1.0
 10
158.6084162933148
 20
186.4888384465167
 30
0.0
 41
1.0
 10
159.5016572933148
 20
187.6244111965167
 30
0.0
 41
1.0
 10
161.4419170433148
 20
189.0544901965166
 30
0.0
 41
1.0
 10
162.9200702933148
 20
189.6667594465166
 30
0.0
 41
1.0
 10
164.3982587933148
 20
190.2790286965167
 30
0.0
 41
1.0
 10
165.1783758181727
 20
190.8975695893202
 30
0.0
 41
1.0
 10
165.6076607933148
 20
191.9864906965166
 30
0.0
 41
1.0
 10
166.3052717933148
 20
192.3425614465167
 30
0.0
 41
1.0
 10
167.1578995433149
 20
192.3496631965167
 30
0.0
 41
1.0
 10
168.0105280433148
 20
192.3560381965166
 30
0.0
 41
1.0
 10
170.3026727933148
 20
192.9108364465166
 30
0.0
 41
1.0
 10
172.2515732933148
 20
193.5809554465167
 30
0.0
 41
1.0
 10
174.2004377933148
 20
194.2511111965166
 30
0.0
 41
1.0
 10
178.3861022933148
 20
195.0826489465166
 30
0.0
 41
1.0
 10
181.5530072933149
 20
195.4288436965166
 30
0.0
 41
1.0
 10
184.8442270433148
 20
195.7886291965167
 30
0.0
 41
1.0
 10
189.5880805433148
 20
197.1260006965167
 30
0.0
 41
1.0
 10
192.6261490433148
 20
198.5505851965167
 30
0.0
 41
1.0
 10
202.0002025433148
 20
202.9461079465166
 30
0.0
 41
1.0
 10
207.2228050433149
 20
204.2968969465166
 30
0.0
 41
1.0
 10
214.7724475433149
 20
204.2785144465167
 30
0.0
 41
1.0
 10
220.6763275433149
 20
204.2650969465167
 30
0.0
 41
1.0
 10
222.7854325433149
 20
203.8364359465167
 30
0.0
 41
1.0
 10
227.4076900433148
 20
201.7161484465167
 30
0.0
 41
1.0
 10
235.5798775433149
 20
197.9674421965167
 30
0.0
 41
1.0
 10
243.2536225433148
 20
189.4901801965167
 30
0.0
 41
1.0
 10
248.5373275433149
 20
178.3741084465167
 30
0.0
 41
1.0
 10
252.6344725433149
 20
169.7543509465167
 30
0.0
 41
1.0
 10
252.6380875433149
 20
169.7382709465166
 30
0.0
 41
1.0
 10
253.0959775433148
 20
158.0631409465167
 30
0.0
 41
1.0
 10
253.2005484126339
 20
155.3968096930329
 30
0.0
 41
1.0
 10
253.305119281953
 20
152.7304784395491
 30
0.0
 41
1.0
 10
253.4096901512722
 20
150.0641471860652
 30
0.0
 41
1.0
 10
253.5051011308964
 20
147.6313733308375
 30
0.0
 41
0.9807174655988807
 10
253.0168795379025
 20
145.2461832835148
 30
0.0
 41
0.9807174655988807
 10
251.9732678212771
 20
143.0465545715193
 30
0.0
 41
1.0
 10
250.5330955025521
 20
140.0384610132777
 30
0.0
 41
1.0
 10
249.0929231838272
 20
137.030367455036
 30
0.0
 41
1.0
 10
247.6527508651024
 20
134.0222738967945
 30
0.0
 41
1.0
 10
241.5128832191596
 20
126.267815639962
 30
0.0
 41
1.0
 10
228.2528575433148
 20
125.6061184465167
 30
0.0
 41
1.0
 10
223.6309975433149
 20
124.8747934465167
 30
0.0
 41
1.0
 10
215.0779975433149
 20
123.5213809465167
 30
0.0
 41
1.0
 10
211.5572650433148
 20
122.6659759465166
 30
0.0
 41
1.0
 10
205.9139425433148
 20
120.5702359465167
 30
0.0
 41
1.0
 10
201.9011725433148
 20
119.0799934465166
 30
0.0
 41
1.0
 10
198.2111875433148
 20
118.5251509465167
 30
0.0
 41
1.0
 10
190.8544390433148
 20
118.3057459465166
 30
0.0
 41
1.0
 10
185.4950230433149
 20
118.1460409465167
 30
0.0
 41
1.0
 10
180.3127967933148
 20
118.2371209465166
 30
0.0
 41
1.0
 10
179.3383690433148
 20
118.5083059465167
 30
0.0
 41
1.0
 10
179.3384115433148
 20
118.5083409465167
 30
0.0
 41
1.0
 10
179.3384540433148
 20
118.5083759465167
 30
0.0
 41
1.0
 10
179.3384965433148
 20
118.5084109465167
 30
0.0
 41
1.0
 10
178.3640687933148
 20
118.7796034465167
 30
0.0
 41
1.0
 10
177.1681637933149
 20
119.3219284465167
 30
0.0
 41
1.0
 10
176.6809405433148
 20
119.7133534465167
 30
0.0
 41
1.0
  0
SPLINE
  5
10100
330
1F
100
AcDbEntity
  8
0
100
AcDbSpline
210
0.0
220
0.0
230
1.0
 70
    13
 71
     2
 72
    24
 73
    21
 74
     0
 42
0.000000001
 43
0.0000000001
 40
0.0
 40
0.0
 40
0.0
 40
1.561037944431567
 40
1.561037944431567
 40
2.474343039187038
 40
2.474343039187038
 40
3.618895436703597
 40
3.618895436703597
 40
4.763447834220156
 40
4.763447834220156
 40
5.676752928963007
 40
5.676752928963007
 40
7.237790873390895
 40
7.237790873390895
 40
8.151095968133748
 40
8.151095968133748
 40
9.295648365651665
 40
9.295648365651665
 40
10.44020076316958
 40
10.44020076316958
 40
11.35350585791247
 40
11.35350585791247
 40
11.35350585791247
 10
159.6688437373595
 20
161.3068491198307
 30
0.0
 41
1.0
 10
165.1270338643174
 20
152.4816232888218
 30
0.0
 41
0.7105484598142259
 10
163.6771825581686
 20
142.2066837941198
 30
0.0
 41
1.0
 10
163.4164319593472
 20
140.3587724841378
 30
0.0
 41
0.897533569678807
 10
164.7197520393239
 20
139.0230614923906
 30
0.0
 41
1.0
 10
180.0850735086984
 20
123.2758716087044
 30
0.0
 41
0.8406704854461324
 10
208.0250339486766
 20
129.1393197084753
 30
0.0
 41
1.0
 10
235.9649943886549
 20
135.0027678082462
 30
0.0
 41
0.8406704854461324
 10
243.7034346504188
 20
155.5984866693199
 30
0.0
 41
1.0
 10
244.3598260315394
 20
157.3454604639215
 30
0.0
 41
0.8975335696815896
 10
243.3781899574169
 20
158.9326459295227
 30
0.0
 41
1.0
 10
237.9199998304792
 20
167.7578717604992
 30
0.0
 41
0.7105484598155202
 10
239.3698511366025
 20
178.0328112551954
 30
0.0
 41
1.0
 10
239.6306017354466
 20
179.8807225651443
 30
0.0
 41
0.8975335696815895
 10
238.327281655504
 20
181.2164335568833
 30
0.0
 41
1.0
 10
222.9619601861841
 20
196.9636234406431
 30
0.0
 41
0.8406704854457649
 10
195.0219997461588
 20
191.1001753408906
 30
0.0
 41
1.0
 10
167.0820393061332
 20
185.236727241138
 30
0.0
 41
0.8406704854457649
 10
159.3435990443577
 20
164.6410083800336
 30
0.0
 41
1.0
 10
158.687207663237
 20
162.8940345854321
 30
0.0
 41
0.8975335696815811
 10
159.6688437373595
 20
161.3068491198309
 30
0.0
 41
1.0
  0
CIRCLE
  5
10101
330
1F
100
AcDbEntity
  8
0
  6
Continuous
100
AcDbCircle
 10
244.2765072321679
 20
169.0918411240084
 30
0.0
 40
2.024999999999999
  0
CIRCLE
  5
10102
330
1F
100
AcDbEntity
  8
0
  6
Continuous
100
AcDbCircle
 10
158.7705264610192
 20
151.1476539249512
 30
0.0
 40
2.024999999999999
  0
SPLINE
  5
1010F
330
1F
100
AcDbEntity
  8
LAYER_1
 62
     7
100
AcDbSpline
210
0.0
220
0.0
230
1.0
 70
    13
 71
     3
 72
   152
 73
   148
 74
     0
 42
0.000000001
 43
0.0000000001
 40
0.0
 40
0.0
 40
0.0
 40
0.0
 40
1.0
 40
1.0
 40
1.0
 40
2.0
 40
2.0
 40
2.0
 40
3.0
 40
3.0
 40
3.0
 40
4.0
 40
4.0
 40
4.0
 40
5.0
 40
5.0
 40
5.0
 40
6.0
 40
6.0
 40
6.0
 40
7.0
 40
7.0
 40
7.0
 40
8.0
 40
8.0
 40
8.0
 40
9.0
 40
9.0
 40
9.0
 40
10.0
 40
10.0
 40
10.0
 40
11.0
 40
11.0
 40
11.0
 40
12.0
 40
12.0
 40
12.0
 40
13.0
 40
13.0
 40
13.0
 40
14.0
 40
14.0
 40
14.0
 40
15.0
 40
15.0
 40
15.0
 40
16.0
 40
16.0
 40
16.0
 40
17.0
 40
17.0
 40
17.0
 40
18.0
 40
18.0
 40
18.0
 40
19.0
 40
19.0
 40
19.0
 40
20.0
 40
20.0
 40
20.0
 40
21.0
 40
21.0
 40
21.0
 40
22.0
 40
22.0
 40
22.0
 40
23.0
 40
23.0
 40
23.0
 40
24.0
 40
24.0
 40
24.0
 40
25.0
 40
25.0
 40
25.0
 40
26.0
 40
26.0
 40
26.0
 40
27.0
 40
27.0
 40
27.0
 40
28.0
 40
28.0
 40
28.0
 40
29.0
 40
29.0
 40
29.0
 40
30.0
 40
30.0
 40
30.0
 40
31.0
 40
31.0
 40
31.0
 40
32.0
 40
32.0
 40
32.0
 40
33.0
 40
33.0
 40
33.0
 40
34.0
 40
34.0
 40
34.0
 40
35.0
 40
35.0
 40
35.0
 40
36.0
 40
36.0
 40
36.0
 40
37.0
 40
37.0
 40
37.0
 40
38.0
 40
38.0
 40
38.0
 40
39.0
 40
39.0
 40
39.0
 40
40.0
 40
40.0
 40
40.0
 40
41.0
 40
41.0
 40
41.0
 40
42.0
 40
42.0
 40
42.0
 40
43.0
 40
43.0
 40
43.0
 40
44.0
 40
44.0
 40
44.0
 40
45.0
 40
45.0
 40
45.0
 40
46.0
 40
46.0
 40
46.0
 40
47.0
 40
47.0
 40
47.0
 40
48.0
 40
48.0
 40
48.0
 40
49.0
 40
49.0
 40
49.0
 40
49.0
 10
347.084177101347
 20
226.2986402609036
 30
0.0
 41
1.0
 10
346.3533516013469
 20
226.0180727609036
 30
0.0
 41
1.0
 10
345.7554126013469
 20
226.1747627609036
 30
0.0
 41
1.0
 10
345.7554126013469
 20
226.6467752609036
 30
0.0
 41
1.0
 10
345.7554126013469
 20
227.1186902609036
 30
0.0
 41
1.0
 10
344.9581303513469
 20
227.5048277609036
 30
0.0
 41
1.0
 10
343.9836936013469
 20
227.5048277609036
 30
0.0
 41
1.0
 10
343.0092651013469
 20
227.5048277609036
 30
0.0
 41
1.0
 10
342.2119828513469
 20
227.9269952609036
 30
0.0
 41
1.0
 10
342.2119828513469
 20
228.4429652609036
 30
0.0
 41
1.0
 10
342.2119828513469
 20
228.9589427609036
 30
0.0
 41
1.0
 10
341.8133601013469
 20
229.1347202609036
 30
0.0
 41
1.0
 10
341.3261368513469
 20
228.8335877609036
 30
0.0
 41
1.0
 10
340.8389226013469
 20
228.5325977609036
 30
0.0
 41
1.0
 10
340.4402998513469
 20
228.9273302609036
 30
0.0
 41
1.0
 10
340.4402998513469
 20
229.7111927609036
 30
0.0
 41
1.0
 10
340.4402998513469
 20
230.7941102609036
 30
0.0
 41
1.0
 10
340.077603601347
 20
230.9332802609036
 30
0.0
 41
1.0
 10
338.9296311013469
 20
230.2908527609036
 30
0.0
 41
1.0
 10
337.7706186013469
 20
229.6422602609036
 30
0.0
 41
1.0
 10
337.1855736013469
 20
229.8897902609036
 30
0.0
 41
1.0
 10
336.4163811013469
 20
231.3541727609036
 30
0.0
 41
1.0
 10
335.7661476013469
 20
232.5920402609036
 30
0.0
 41
1.0
 10
335.7125451013469
 20
233.6520452609036
 30
0.0
 41
1.0
 10
336.2637126013469
 20
234.3701852609036
 30
0.0
 41
1.0
 10
336.8228361013469
 20
235.0985627609036
 30
0.0
 41
1.0
 10
336.736323601347
 20
235.9322402609036
 30
0.0
 41
1.0
 10
336.0109251013469
 20
236.8062677609036
 30
0.0
 41
1.0
 10
335.2222476013469
 20
237.7565852609036
 30
0.0
 41
1.0
 10
335.176910101347
 20
238.4589152609036
 30
0.0
 41
1.0
 10
335.8518876013469
 20
239.2720727609036
 30
0.0
 41
1.0
 10
336.4501011013469
 20
239.9928827609036
 30
0.0
 41
1.0
 10
336.4947636013469
 20
240.8846552609036
 30
0.0
 41
1.0
 10
335.9740926013469
 20
241.7081852609036
 30
0.0
 41
1.0
 10
334.9355226013469
 20
243.3502952609036
 30
0.0
 41
1.0
 10
334.9062201013469
 20
244.3360127609036
 30
0.0
 41
1.0
 10
335.8960551013469
 20
244.3360127609036
 30
0.0
 41
1.0
 10
336.3199251013469
 20
244.3360127609036
 30
0.0
 41
1.0
 10
337.1744361013469
 20
242.5228127609036
 30
0.0
 41
1.0
 10
337.7949411013469
 20
240.3066677609036
 30
0.0
 41
1.0
 10
339.4495986013469
 20
234.3967652609036
 30
0.0
 41
1.0
 10
345.7555498513469
 20
231.4548227609036
 30
0.0
 41
1.0
 10
345.7555498513469
 20
236.5927802609036
 30
0.0
 41
1.0
 10
345.7555498513469
 20
237.9793727609036
 30
0.0
 41
1.0
 10
346.0193878513469
 20
238.2256952609036
 30
0.0
 41
1.0
 10
346.7361478513469
 20
237.5087927609035
 30
0.0
 41
1.0
 10
347.4530451013469
 20
236.7918977609036
 30
0.0
 41
1.0
 10
349.1801586013469
 20
237.2205227609036
 30
0.0
 41
1.0
 10
353.158574851347
 20
239.1026177609036
 30
0.0
 41
1.0
 10
356.1515833513469
 20
240.5185727609036
 30
0.0
 41
1.0
 10
359.0702248513469
 20
241.6773827609036
 30
0.0
 41
1.0
 10
359.6444586013469
 20
241.6777577609036
 30
0.0
 41
1.0
 10
361.4722551013469
 20
241.6785077609036
 30
0.0
 41
1.0
 10
363.3314901013469
 20
244.2413252609036
 30
0.0
 41
1.0
 10
362.8474881013469
 20
246.0921602609036
 30
0.0
 41
1.0
 10
362.5903543513469
 20
247.0751627609036
 30
0.0
 41
1.0
 10
362.0279736013469
 20
247.8794477609036
 30
0.0
 41
1.0
 10
361.5975748513469
 20
247.8794477609036
 30
0.0
 41
1.0
 10
361.167175351347
 20
247.8794477609036
 30
0.0
 41
1.0
 10
360.8147878513469
 20
248.1784352609036
 30
0.0
 41
1.0
 10
360.8144526013469
 20
248.5438052609036
 30
0.0
 41
1.0
 10
360.8141188513469
 20
248.9092202609036
 30
0.0
 41
1.0
 10
362.2997391013469
 20
249.2082077609036
 30
0.0
 41
1.0
 10
364.1158176013469
 20
249.2082077609036
 30
0.0
 41
1.0
 10
369.7543251013469
 20
249.2082077609036
 30
0.0
 41
1.0
 10
369.3180666013469
 20
253.7381252609036
 30
0.0
 41
1.0
 10
362.9325306013469
 20
261.4945352609036
 30
0.0
 41
1.0
 10
358.8292296013469
 20
266.4788027609036
 30
0.0
 41
1.0
 10
358.8249126013469
 20
266.4912827609036
 30
0.0
 41
1.0
 10
359.4352356013469
 20
271.5773177609036
 30
0.0
 41
1.0
 10
359.7713518513469
 20
274.3780727609036
 30
0.0
 41
1.0
 10
360.1196211013469
 20
277.7658902609036
 30
0.0
 41
1.0
 10
360.2092161013469
 20
279.1057352609036
 30
0.0
 41
1.0
 10
360.2989483513469
 20
280.4455802609036
 30
0.0
 41
1.0
 10
360.4104373513469
 20
281.5418177609036
 30
0.0
 41
1.0
 10
360.4576453513469
 20
281.5418177609036
 30
0.0
 41
1.0
 10
361.3540333513469
 20
281.5418177609036
 30
0.0
 41
1.0
 10
366.9487146013469
 20
278.1489452609036
 30
0.0
 41
1.0
 10
367.9919503513469
 20
276.9726902609036
 30
0.0
 41
1.0
 10
368.7722593513469
 20
276.0929102609036
 30
0.0
 41
1.0
 10
369.6185593513469
 20
275.5809527609035
 30
0.0
 41
1.0
 10
369.872613601347
 20
275.8350377609036
 30
0.0
 41
1.0
 10
370.1267346013469
 20
276.0891602609035
 30
0.0
 41
1.0
 10
370.547189851347
 20
275.4838952609036
 30
0.0
 41
1.0
 10
370.8070693513469
 20
274.4901452609036
 30
0.0
 41
1.0
 10
371.1291568513469
 20
273.2588402609036
 30
0.0
 41
1.0
 10
370.8522643513469
 20
272.6832977609036
 30
0.0
 41
1.0
 10
369.9377008513469
 20
272.6832977609036
 30
0.0
 41
1.0
 10
368.9278116013469
 20
272.6832977609036
 30
0.0
 41
1.0
 10
368.7351958513469
 20
272.0805752609036
 30
0.0
 41
1.0
 10
369.1592331013469
 20
270.2472227609036
 30
0.0
 41
1.0
 10
370.1372143513469
 20
266.0185277609036
 30
0.0
 41
1.0
 10
377.1003658513469
 20
253.1886002609036
 30
0.0
 41
1.0
 10
379.652726101347
 20
250.9123877609036
 30
0.0
 41
1.0
 10
381.9553836013469
 20
248.8589027609036
 30
0.0
 41
1.0
 10
382.0261626013469
 20
248.5834802609036
 30
0.0
 41
1.0
 10
380.8352083513469
 20
246.3106202609036
 30
0.0
 41
1.0
 10
377.4929976013469
 20
239.9322527609036
 30
0.0
 41
1.0
 10
372.577379101347
 20
237.2561477609036
 30
0.0
 41
1.0
 10
364.1656041013469
 20
237.2356202609036
 30
0.0
 41
1.0
 10
357.3629233513469
 20
237.2188952609036
 30
0.0
 41
1.0
 10
355.1004486013469
 20
236.1717002609036
 30
0.0
 41
1.0
 10
357.7190308513469
 20
234.2513252609036
 30
0.0
 41
1.0
 10
358.9211338513469
 20
233.3697752609036
 30
0.0
 41
1.0
 10
360.9739566013469
 20
233.0685377609036
 30
0.0
 41
1.0
 10
364.1371446013469
 20
233.3096027609036
 30
0.0
 41
1.0
 10
368.5909596013469
 20
233.6490002609036
 30
0.0
 41
1.0
 10
368.7878953513469
 20
233.5710902609036
 30
0.0
 41
1.0
 10
368.7878953513469
 20
231.4702877609036
 30
0.0
 41
1.0
 10
368.7878953513469
 20
230.1108527609036
 30
0.0
 41
1.0
 10
368.2825326013469
 20
229.2765377609036
 30
0.0
 41
1.0
 10
367.4591001013469
 20
229.2765377609036
 30
0.0
 41
1.0
 10
366.7282753513469
 20
229.2765377609036
 30
0.0
 41
1.0
 10
366.1303378513469
 20
228.8904077609036
 30
0.0
 41
1.0
 10
366.1303378513469
 20
228.4184852609036
 30
0.0
 41
1.0
 10
366.1303378513469
 20
227.9465477609036
 30
0.0
 41
1.0
 10
365.5085946013469
 20
227.7990227609036
 30
0.0
 41
1.0
 10
364.7487088513469
 20
228.0907127609036
 30
0.0
 41
1.0
 10
363.8213511013469
 20
228.4465802609036
 30
0.0
 41
1.0
 10
363.201818851347
 20
227.9889302609036
 30
0.0
 41
1.0
 10
362.8644298513469
 20
226.6987052609036
 30
0.0
 41
1.0
 10
362.3978721013469
 20
224.9145977609036
 30
0.0
 41
1.0
 10
362.2483453513469
 20
224.8791752609036
 30
0.0
 41
1.0
 10
360.782847601347
 20
226.2054302609036
 30
0.0
 41
1.0
 10
359.3264556013469
 20
227.5234427609036
 30
0.0
 41
1.0
 10
359.1356473513469
 20
227.5122602609036
 30
0.0
 41
1.0
 10
358.3235961013469
 20
226.0611227609036
 30
0.0
 41
1.0
 10
357.5450346013469
 20
224.6698877609036
 30
0.0
 41
1.0
 10
357.2630511013469
 20
224.6368052609036
 30
0.0
 41
1.0
 10
355.884706351347
 20
225.7748627609036
 30
0.0
 41
1.0
 10
354.5889921013469
 20
226.8447527609036
 30
0.0
 41
1.0
 10
354.2576293513469
 20
226.8581402609036
 30
0.0
 41
1.0
 10
353.920041601347
 20
225.8541752609036
 30
0.0
 41
1.0
 10
353.5771596013469
 20
224.8346777609036
 30
0.0
 41
1.0
 10
353.390138851347
 20
224.8346777609036
 30
0.0
 41
1.0
 10
352.7191071013469
 20
225.8541752609036
 30
0.0
 41
1.0
 10
352.0715878513469
 20
226.8379127609036
 30
0.0
 41
1.0
 10
351.7549198513469
 20
226.7744102609036
 30
0.0
 41
1.0
 10
351.0106041013469
 20
225.5115002609036
 30
0.0
 41
1.0
 10
349.8665608513469
 20
223.5703352609036
 30
0.0
 41
1.0
 10
348.4132798513469
 20
223.4994527609036
 30
0.0
 41
1.0
 10
348.4132798513469
 20
225.3849377609036
 30
0.0
 41
1.0
 10
348.4131763513469
 20
225.3849502609035
 30
0.0
 41
1.0
 10
348.4130728513469
 20
225.3849627609036
 30
0.0
 41
1.0
 10
348.412969351347
 20
225.3849752609036
 30
0.0
 41
1.0
 10
348.412969351347
 20
226.2864152609036
 30
0.0
 41
1.0
 10
347.9256186013469
 20
226.6214927609036
 30
0.0
 41
1.0
 10
347.084177101347
 20
226.2986402609036
 30
0.0
 41
1.0
  0
SPLINE
  5
10110
330
1F
100
AcDbEntity
  8
LAYER_1
 62
     7
100
AcDbSpline
210
0.0
220
0.0
230
1.0
 70
     8
 71
     3
 72
    17
 73
    13
 74
     0
 42
0.000000001
 43
0.0000000001
 40
0.0
 40
0.0
 40
0.0
 40
0.0
 40
1.0
 40
1.0
 40
1.0
 40
2.0
 40
2.0
 40
2.0
 40
3.0
 40
3.0
 40
3.0
 40
4.0
 40
4.0
 40
4.0
 40
4.0
 10
375.6772821013469
 20
242.1716327609036
 30
0.0
 10
378.4354491013469
 20
244.1035202609036
 30
0.0
 10
378.1517646013469
 20
245.7569477609036
 30
0.0
 10
375.3742783513469
 20
243.9371552609035
 30
0.0
 10
373.8481791013469
 20
242.9372102609036
 30
0.0
 10
372.2489908513469
 20
242.6361077609036
 30
0.0
 10
370.5020848513469
 20
243.0197702609036
 30
0.0
 10
367.7794731013469
 20
243.6177752609036
 30
0.0
 10
366.8295156013469
 20
242.2794377609036
 30
0.0
 10
369.3028603513469
 20
241.3303202609036
 30
0.0
 10
371.6017018513469
 20
240.4481627609036
 30
0.0
 10
373.5916138513469
 20
240.7108202609036
 30
0.0
 10
375.6772146013469
 20
242.1716327609036
 30
0.0
  0
LWPOLYLINE
  5
10111
330
1F
100
AcDbEntity
  8
LAYER_1
 62
     7
100
AcDbPolyline
 90
        2
 70
     1
 43
0.0
 10
375.6772146013469
 20
242.1716327609036
 10
375.6772146013469
 20
242.1716327609036
  0
SPLINE
  5
10112
330
1F
100
AcDbEntity
  8
LAYER_1
 62
     7
100
AcDbSpline
210
0.0
220
0.0
230
1.0
 70
    13
 71
     3
 72
   230
 73
   226
 74
     0
 42
0.000000001
 43
0.0000000001
 40
0.0
 40
0.0
 40
0.0
 40
0.0
 40
1.0
 40
1.0
 40
1.0
 40
2.0
 40
2.0
 40
2.0
 40
3.0
 40
3.0
 40
3.0
 40
4.0
 40
4.0
 40
4.0
 40
5.0
 40
5.0
 40
5.0
 40
6.0
 40
6.0
 40
6.0
 40
7.0
 40
7.0
 40
7.0
 40
8.0
 40
8.0
 40
8.0
 40
9.0
 40
9.0
 40
9.0
 40
10.0
 40
10.0
 40
10.0
 40
11.0
 40
11.0
 40
11.0
 40
12.0
 40
12.0
 40
12.0
 40
13.0
 40
13.0
 40
13.0
 40
14.0
 40
14.0
 40
14.0
 40
15.0
 40
15.0
 40
15.0
 40
16.0
 40
16.0
 40
16.0
 40
17.0
 40
17.0
 40
17.0
 40
18.0
 40
18.0
 40
18.0
 40
19.0
 40
19.0
 40
19.0
 40
20.0
 40
20.0
 40
20.0
 40
21.0
 40
21.0
 40
21.0
 40
22.0
 40
22.0
 40
22.0
 40
23.0
 40
23.0
 40
23.0
 40
24.0
 40
24.0
 40
24.0
 40
25.0
 40
25.0
 40
25.0
 40
26.0
 40
26.0
 40
26.0
 40
27.0
 40
27.0
 40
27.0
 40
28.0
 40
28.0
 40
28.0
 40
29.0
 40
29.0
 40
29.0
 40
30.0
 40
30.0
 40
30.0
 40
31.0
 40
31.0
 40
31.0
 40
32.0
 40
32.0
 40
32.0
 40
33.0
 40
33.0
 40
33.0
 40
34.0
 40
34.0
 40
34.0
 40
35.0
 40
35.0
 40
35.0
 40
36.0
 40
36.0
 40
36.0
 40
37.0
 40
37.0
 40
37.0
 40
38.0
 40
38.0
 40
38.0
 40
39.0
 40
39.0
 40
39.0
 40
40.0
 40
40.0
 40
40.0
 40
41.0
 40
41.0
 40
41.0
 40
42.0
 40
42.0
 40
42.0
 40
43.0
 40
43.0
 40
43.0
 40
44.0
 40
44.0
 40
44.0
 40
45.0
 40
45.0
 40
45.0
 40
46.0
 40
46.0
 40
46.0
 40
47.0
 40
47.0
 40
47.0
 40
48.0
 40
48.0
 40
48.0
 40
49.0
 40
49.0
 40
49.0
 40
50.0
 40
50.0
 40
50.0
 40
51.0
 40
51.0
 40
51.0
 40
52.0
 40
52.0
 40
52.0
 40
53.0
 40
53.0
 40
53.0
 40
54.0
 40
54.0
 40
54.0
 40
55.0
 40
55.0
 40
55.0
 40
56.0
 40
56.0
 40
56.0
 40
57.0
 40
57.0
 40
57.0
 40
58.0
 40
58.0
 40
58.0
 40
59.0
 40
59.0
 40
59.0
 40
60.0
 40
60.0
 40
60.0
 40
61.0
 40
61.0
 40
61.0
 40
62.0
 40
62.0
 40
62.0
 40
63.0
 40
63.0
 40
63.0
 40
64.0
 40
64.0
 40
64.0
 40
65.0
 40
65.0
 40
65.0
 40
66.0
 40
66.0
 40
66.0
 40
67.0
 40
67.0
 40
67.0
 40
68.0
 40
68.0
 40
68.0
 40
69.0
 40
69.0
 40
69.0
 40
70.0
 40
70.0
 40
70.0
 40
71.0
 40
71.0
 40
71.0
 40
72.0
 40
72.0
 40
72.0
 40
73.0
 40
73.0
 40
73.0
 40
74.0
 40
74.0
 40
74.0
 40
75.0
 40
75.0
 40
75.0
 40
75.0
 10
311.650092601347
 20
229.8070427609036
 30
0.0
 41
1.0
 10
305.2609026013469
 20
230.4270527609036
 30
0.0
 41
1.0
 10
300.5769426013469
 20
231.7526702609036
 30
0.0
 41
1.0
 10
300.5769426013469
 20
232.9409102609036
 30
0.0
 41
1.0
 10
300.5769426013469
 20
233.4191177609036
 30
0.0
 41
1.0
 10
300.1459101013469
 20
233.5439702609036
 30
0.0
 41
1.0
 10
299.619117601347
 20
233.2184627609036
 30
0.0
 41
1.0
 10
299.0922951013469
 20
232.8930302609036
 30
0.0
 41
1.0
 10
297.5212926013469
 20
233.7186377609036
 30
0.0
 41
1.0
 10
296.1280176013469
 20
235.0534952609036
 30
0.0
 41
1.0
 10
293.4627951013469
 20
237.6069602609036
 30
0.0
 41
1.0
 10
293.7534426013469
 20
238.8235952609036
 30
0.0
 41
1.0
 10
297.3547626013469
 20
240.1883852609036
 30
0.0
 41
1.0
 10
298.6536276013469
 20
240.6805802609036
 30
0.0
 41
1.0
 10
298.7858376013469
 20
241.0774727609036
 30
0.0
 41
1.0
 10
297.9761376013469
 20
242.0531027609035
 30
0.0
 41
1.0
 10
297.2718951013469
 20
242.9016527609036
 30
0.0
 41
1.0
 10
297.2404551013469
 20
243.4736102609036
 30
0.0
 41
1.0
 10
297.8763651013469
 20
243.8666102609036
 30
0.0
 41
1.0
 10
299.3271351013469
 20
244.7632352609036
 30
0.0
 41
1.0
 10
298.967577601347
 20
246.1005002609036
 30
0.0
 41
1.0
 10
297.2549826013469
 20
246.1777727609036
 30
0.0
 41
1.0
 10
296.2803876013469
 20
246.2215727609036
 30
0.0
 41
1.0
 10
296.6113551013469
 20
246.5787377609036
 30
0.0
 41
1.0
 10
298.1463501013469
 20
247.1392802609036
 30
0.0
 41
1.0
 10
300.8740176013469
 20
248.1353027609035
 30
0.0
 41
1.0
 10
300.6033201013469
 20
249.6512252609036
 30
0.0
 41
1.0
 10
297.6977751013469
 20
249.6512252609036
 30
0.0
 41
1.0
 10
295.846872601347
 20
249.6512252609036
 30
0.0
 41
1.0
 10
295.8434601013469
 20
249.6780002609036
 30
0.0
 41
1.0
 10
297.5286951013469
 20
250.9518377609036
 30
0.0
 41
1.0
 10
299.1686601013469
 20
252.1922402609036
 30
0.0
 41
1.0
 10
299.1291201013469
 20
252.2537402609036
 30
0.0
 41
1.0
 10
296.6748576013469
 20
252.2806277609036
 30
0.0
 41
1.0
 10
294.2383476013469
 20
252.3074027609036
 30
0.0
 41
1.0
 10
294.1794576013469
 20
252.3951302609035
 30
0.0
 41
1.0
 10
295.5675501013469
 20
253.9287977609036
 30
0.0
 41
1.0
 10
296.373905101347
 20
254.8197902609036
 30
0.0
 41
1.0
 10
297.0336426013469
 20
255.8163602609036
 30
0.0
 41
1.0
 10
297.0336426013469
 20
256.1434352609036
 30
0.0
 41
1.0
 10
297.0336426013469
 20
256.4705477609036
 30
0.0
 41
1.0
 10
296.373905101347
 20
256.7380577609036
 30
0.0
 41
1.0
 10
295.5675501013469
 20
256.7380577609036
 30
0.0
 41
1.0
 10
294.2491251013469
 20
256.7380577609036
 30
0.0
 41
1.0
 10
294.2629551013469
 20
256.9165127609036
 30
0.0
 41
1.0
 10
295.7048151013469
 20
258.5097752609036
 30
0.0
 41
1.0
 10
297.2699151013469
 20
260.2392002609036
 30
0.0
 41
1.0
 10
297.2520726013469
 20
260.2814552609036
 30
0.0
 41
1.0
 10
294.9562476013469
 20
260.2814552609036
 30
0.0
 41
1.0
 10
291.8853351013469
 20
260.2814552609036
 30
0.0
 41
1.0
 10
291.9362226013469
 20
261.6660002609036
 30
0.0
 41
1.0
 10
295.0403076013469
 20
262.5724652609035
 30
0.0
 41
1.0
 10
297.3279426013469
 20
263.2404452609036
 30
0.0
 41
1.0
 10
297.2334501013469
 20
263.3196602609036
 30
0.0
 41
1.0
 10
293.4900726013469
 20
263.8719602609036
 30
0.0
 41
1.0
 10
290.1643851013469
 20
264.3626252609035
 30
0.0
 41
1.0
 10
289.8340476013469
 20
264.5713802609035
 30
0.0
 41
1.0
 10
291.496925101347
 20
265.1316527609036
 30
0.0
 41
1.0
 10
294.3241476013469
 20
266.0842577609036
 30
0.0
 41
1.0
 10
293.9668776013469
 20
267.3682877609036
 30
0.0
 41
1.0
 10
290.8746126013469
 20
267.3682877609036
 30
0.0
 41
1.0
 10
288.4843626013469
 20
267.3682877609036
 30
0.0
 41
1.0
 10
288.2880951013469
 20
267.5969627609036
 30
0.0
 41
1.0
 10
288.5954901013469
 20
270.0258452609036
 30
0.0
 41
1.0
 10
288.7806426013469
 20
271.4874977609036
 30
0.0
 41
1.0
 10
288.5820651013469
 20
272.6834027609036
 30
0.0
 41
1.0
 10
288.1521351013469
 20
272.6834027609036
 30
0.0
 41
1.0
 10
286.4409501013469
 20
272.6834027609036
 30
0.0
 41
1.0
 10
282.8598501013469
 20
270.5626127609036
 30
0.0
 41
1.0
 10
282.8598501013469
 20
269.5492052609036
 30
0.0
 41
1.0
 10
282.8598501013469
 20
268.9562252609036
 30
0.0
 41
1.0
 10
282.1973976013469
 20
267.9239777609035
 30
0.0
 41
1.0
 10
281.3877276013469
 20
267.2552927609036
 30
0.0
 41
1.0
 10
278.6795451013469
 20
265.0186877609036
 30
0.0
 41
1.0
 10
280.5589401013469
 20
272.6896577609036
 30
0.0
 41
1.0
 10
284.9190726013469
 20
281.6688077609036
 30
0.0
 41
1.0
 10
287.9923626013469
 20
287.9978605109036
 30
0.0
 41
1.0
 10
290.2667676013469
 20
291.2567057609036
 30
0.0
 41
1.0
 10
294.5389626013469
 20
295.4526205109035
 30
0.0
 41
1.0
 10
304.7876076013469
 20
305.5182227609035
 30
0.0
 41
1.0
 10
314.6273151013469
 20
307.9621690109036
 30
0.0
 41
1.0
 10
327.701135101347
 20
303.6893192609036
 30
0.0
 41
1.0
 10
334.9463301013469
 20
301.3214042609036
 30
0.0
 41
1.0
 10
336.3155976013469
 20
300.3737927609036
 30
0.0
 41
1.0
 10
332.0009001013469
 20
300.7135892609036
 30
0.0
 41
1.0
 10
329.8454226013469
 20
300.8833412609035
 30
0.0
 41
1.0
 10
328.6813551013469
 20
300.5428420109036
 30
0.0
 41
1.0
 10
328.3354251013469
 20
299.6413240109036
 30
0.0
 41
1.0
 10
328.0190301013469
 20
298.8166870109036
 30
0.0
 41
1.0
 10
327.2022276013469
 20
298.5191140109036
 30
0.0
 41
1.0
 10
326.1617076013469
 20
298.8493360109036
 30
0.0
 41
1.0
 10
324.3316626013469
 20
299.4301607609036
 30
0.0
 41
1.0
 10
323.8189026013469
 20
297.9076847609036
 30
0.0
 41
1.0
 10
325.6022376013469
 20
297.1881040109035
 30
0.0
 41
1.0
 10
326.2112601013469
 20
296.9423567609036
 30
0.0
 41
1.0
 10
325.6417626013469
 20
296.7098260109036
 30
0.0
 41
1.0
 10
324.3367176013469
 20
296.6713630109036
 30
0.0
 41
1.0
 10
320.9868726013469
 20
296.5725947609036
 30
0.0
 41
1.0
 10
318.744252601347
 20
294.2108042609036
 30
0.0
 41
1.0
 10
320.2565226013469
 20
292.3743070109036
 30
0.0
 41
1.0
 10
321.2494701013469
 20
291.1684525109036
 30
0.0
 41
1.0
 10
321.1012101013469
 20
291.0654310109036
 30
0.0
 41
1.0
 10
319.0928526013469
 20
291.5654050109035
 30
0.0
 41
1.0
 10
317.1863451013469
 20
292.0400327609036
 30
0.0
 41
1.0
 10
316.5847551013469
 20
291.7231000109036
 30
0.0
 41
1.0
 10
315.5884251013469
 20
289.7191877609036
 30
0.0
 41
1.0
 10
314.926842601347
 20
288.3886157609036
 30
0.0
 41
1.0
 10
314.3680401013469
 20
286.9013260109036
 30
0.0
 41
1.0
 10
314.3465826013469
 20
286.4141117609035
 30
0.0
 41
1.0
 10
314.3264826013469
 20
285.9268975109036
 30
0.0
 41
1.0
 10
313.9089876013469
 20
285.2292872609035
 30
0.0
 41
1.0
 10
313.4217726013469
 20
284.8638700109036
 30
0.0
 41
1.0
 10
312.8661876013469
 20
284.4472015109036
 30
0.0
 41
1.0
 10
313.0313076013469
 20
283.8742720109036
 30
0.0
 41
1.0
 10
313.8646926013469
 20
283.3271912609035
 30
0.0
 41
1.0
 10
314.5955151013469
 20
282.8474402609036
 30
0.0
 41
1.0
 10
314.8456851013469
 20
282.4488227609036
 30
0.0
 41
1.0
 10
314.4206076013469
 20
282.4413527609035
 30
0.0
 41
1.0
 10
313.995530101347
 20
282.4346027609035
 30
0.0
 41
1.0
 10
314.1440526013469
 20
281.8298177609035
 30
0.0
 41
1.0
 10
314.7503976013469
 20
281.0989952609036
 30
0.0
 41
1.0
 10
315.6302151013469
 20
280.0388852609036
 30
0.0
 41
1.0
 10
315.6302151013469
 20
279.7702352609036
 30
0.0
 41
1.0
 10
314.7503976013469
 20
279.7702352609036
 30
0.0
 41
1.0
 10
313.870580101347
 20
279.7702352609036
 30
0.0
 41
1.0
 10
313.870580101347
 20
279.5017127609036
 30
0.0
 41
1.0
 10
314.7503976013469
 20
278.4414302609036
 30
0.0
 41
1.0
 10
315.672702601347
 20
277.3301402609036
 30
0.0
 41
1.0
 10
315.5403801013469
 20
277.1126777609036
 30
0.0
 41
1.0
 10
313.941860101347
 20
277.1126777609036
 30
0.0
 41
1.0
 10
312.3050076013469
 20
277.1126777609036
 30
0.0
 41
1.0
 10
312.1666926013469
 20
276.8582177609036
 30
0.0
 41
1.0
 10
312.9787176013469
 20
275.3409602609035
 30
0.0
 41
1.0
 10
313.6696251013469
 20
274.0499327609036
 30
0.0
 41
1.0
 10
313.6523901013469
 20
273.5692427609035
 30
0.0
 41
1.0
 10
312.9151176013469
 20
273.5692427609035
 30
0.0
 41
1.0
 10
312.3586326013469
 20
273.5692427609035
 30
0.0
 41
1.0
 10
312.122892601347
 20
272.9970527609036
 30
0.0
 41
1.0
 10
312.3912426013469
 20
272.2977002609036
 30
0.0
 41
1.0
 10
312.6597651013469
 20
271.5983477609036
 30
0.0
 41
1.0
 10
312.4046676013469
 20
270.8468327609036
 30
0.0
 41
1.0
 10
311.8216326013469
 20
270.6276602609035
 30
0.0
 41
1.0
 10
311.1291051013469
 20
270.3668477609036
 30
0.0
 41
1.0
 10
311.3756301013469
 20
269.7451352609036
 30
0.0
 41
1.0
 10
312.5357826013469
 20
268.8268877609035
 30
0.0
 41
1.0
 10
313.8141201013469
 20
267.8151227609036
 30
0.0
 41
1.0
 10
313.9498176013469
 20
267.4167977609036
 30
0.0
 41
1.0
 10
313.0229976013469
 20
267.3964427609036
 30
0.0
 41
1.0
 10
312.0643701013469
 20
267.3763427609035
 30
0.0
 41
1.0
 10
311.9937201013469
 20
267.1131902609036
 30
0.0
 41
1.0
 10
312.7444401013469
 20
266.3622152609036
 30
0.0
 41
1.0
 10
313.4953176013469
 20
265.6113377609035
 30
0.0
 41
1.0
 10
313.4201151013469
 20
265.0257527609036
 30
0.0
 41
1.0
 10
312.4481226013469
 20
264.0537302609035
 30
0.0
 41
1.0
 10
311.4890301013469
 20
263.0946377609035
 30
0.0
 41
1.0
 10
311.4002376013469
 20
262.4446352609036
 30
0.0
 41
1.0
 10
312.1112751013469
 20
261.5878877609035
 30
0.0
 41
1.0
 10
312.8349726013469
 20
260.7159002609036
 30
0.0
 41
1.0
 10
312.6761676013469
 20
260.1913952609036
 30
0.0
 41
1.0
 10
311.4774876013469
 20
259.4940452609036
 30
0.0
 41
1.0
 10
310.5978351013469
 20
258.9823277609036
 30
0.0
 41
1.0
 10
310.3215876013469
 20
258.5515202609035
 30
0.0
 41
1.0
 10
310.8636126013469
 20
258.5366852609036
 30
0.0
 41
1.0
 10
311.4056301013469
 20
258.5232602609036
 30
0.0
 41
1.0
 10
311.7413751013469
 20
257.5283777609036
 30
0.0
 41
1.0
 10
311.6096976013469
 20
256.3288877609036
 30
0.0
 41
1.0
 10
311.4443001013469
 20
254.8217327609036
 30
0.0
 41
1.0
 10
311.8979676013469
 20
253.9805927609036
 30
0.0
 41
1.0
 10
313.0778376013469
 20
253.6060802609036
 30
0.0
 41
1.0
 10
314.7111726013469
 20
253.0876577609036
 30
0.0
 41
1.0
 10
314.698025101347
 20
252.9912602609036
 30
0.0
 41
1.0
 10
312.7748301013469
 20
251.3871527609036
 30
0.0
 41
1.0
 10
310.854702601347
 20
249.7857227609036
 30
0.0
 41
1.0
 10
310.8439176013469
 20
249.7082477609036
 30
0.0
 41
1.0
 10
312.5357826013469
 20
249.6671252609036
 30
0.0
 41
1.0
 10
314.0068026013469
 20
249.6313502609036
 30
0.0
 41
1.0
 10
314.0819751013469
 20
249.4782977609036
 30
0.0
 41
1.0
 10
312.9787401013469
 20
248.7653852609036
 30
0.0
 41
1.0
 10
311.8431576013469
 20
248.0315177609036
 30
0.0
 41
1.0
 10
311.8753326013469
 20
247.9046927609036
 30
0.0
 41
1.0
 10
313.2000426013469
 20
247.8930977609036
 30
0.0
 41
1.0
 10
314.9851551013469
 20
247.8763727609036
 30
0.0
 41
1.0
 10
315.2835051013469
 20
246.4718402609036
 30
0.0
 41
1.0
 10
313.642962601347
 20
245.8061627609036
 30
0.0
 41
1.0
 10
312.9256026013469
 20
245.5152152609036
 30
0.0
 41
1.0
 10
312.8476251013469
 20
245.0991452609036
 30
0.0
 41
1.0
 10
313.4216601013469
 20
244.6250177609036
 30
0.0
 41
1.0
 10
313.908875101347
 20
244.2225152609036
 30
0.0
 41
1.0
 10
314.4370701013469
 20
243.2952602609036
 30
0.0
 41
1.0
 10
314.5954026013469
 20
242.5644302609036
 30
0.0
 41
1.0
 10
314.7537651013469
 20
241.8336077609036
 30
0.0
 41
1.0
 10
315.2520276013469
 20
241.1027477609036
 30
0.0
 41
1.0
 10
315.7027176013469
 20
240.9403652609036
 30
0.0
 41
1.0
 10
316.1534151013469
 20
240.7779827609036
 30
0.0
 41
1.0
 10
316.5221301013469
 20
240.0803327609036
 30
0.0
 41
1.0
 10
316.5221301013469
 20
239.3901227609036
 30
0.0
 41
1.0
 10
316.5221301013469
 20
238.6998827609036
 30
0.0
 41
1.0
 10
317.2197426013469
 20
238.1036852609036
 30
0.0
 41
1.0
 10
318.0723726013469
 20
238.0652102609036
 30
0.0
 41
1.0
 10
319.007600101347
 20
238.0230602609036
 30
0.0
 41
1.0
 10
319.1811351013469
 20
237.8174552609036
 30
0.0
 41
1.0
 10
318.5097726013469
 20
237.5466302609035
 30
0.0
 41
1.0
 10
316.1821701013469
 20
236.6082152609036
 30
0.0
 41
1.0
 10
318.4254351013469
 20
235.7100602609036
 30
0.0
 41
1.0
 10
322.0706151013469
 20
236.1209402609036
 30
0.0
 41
1.0
 10
325.5834051013469
 20
236.5168877609036
 30
0.0
 41
1.0
 10
326.2781076013469
 20
236.2197077609036
 30
0.0
 41
1.0
 10
331.1239851013469
 20
232.2488177609036
 30
0.0
 41
1.0
 10
334.0107201013469
 20
229.8832877609036
 30
0.0
 41
1.0
 10
338.1847311013469
 20
227.0738927609035
 30
0.0
 41
1.0
 10
340.399532101347
 20
226.0057502609036
 30
0.0
 41
1.0
 10
341.7418446013469
 20
225.3583827609036
 30
0.0
 41
1.0
 10
343.2297315417361
 20
224.8761335160762
 30
0.0
 41
1.0
 10
343.2244467822535
 20
224.3003557919696
 30
0.0
 41
1.0
 10
343.0183185457746
 20
223.8566371788966
 30
0.0
 41
1.0
 10
340.2924956013469
 20
224.0375477609036
 30
0.0
 41
1.0
 10
338.2255086013469
 20
224.0244977609036
 30
0.0
 41
1.0
 10
333.5316801013469
 20
223.9943477609036
 30
0.0
 41
1.0
 10
330.1944801013469
 20
224.6301002609036
 30
0.0
 41
1.0
 10
324.4948026013469
 20
226.6383602609036
 30
0.0
 41
1.0
 10
324.4948526013469
 20
226.6383102609036
 30
0.0
 41
1.0
 10
324.4949026013469
 20
226.6382602609036
 30
0.0
 41
1.0
 10
324.4949526013469
 20
226.6382102609036
 30
0.0
 41
1.0
 10
320.3535876013469
 20
228.0974102609036
 30
0.0
 41
1.0
 10
314.5734201013469
 20
229.5234002609036
 30
0.0
 41
1.0
 10
311.650092601347
 20
229.8070427609036
 30
0.0
 41
1.0
  0
SPLINE
  5
10113
330
1F
100
AcDbEntity
  8
LAYER_1
 62
     7
100
AcDbSpline
210
0.0
220
0.0
230
1.0
 70
     9
 71
     3
 72
    14
 73
    10
 74
     0
 42
0.000000001
 43
0.0000000001
 40
0.0
 40
0.0
 40
0.0
 40
0.0
 40
1.0
 40
1.0
 40
1.0
 40
2.0
 40
2.0
 40
2.0
 40
3.0
 40
3.0
 40
3.0
 40
3.0
 10
335.1107226013469
 20
255.4002527609036
 30
0.0
 10
335.6059026013469
 20
255.7062752609036
 30
0.0
 10
336.0110226013469
 20
255.3352277609036
 30
0.0
 10
336.0110226013469
 20
254.5756127609036
 30
0.0
 10
336.0110226013469
 20
253.0195877609036
 30
0.0
 10
335.479482601347
 20
252.7904777609036
 30
0.0
 10
334.7201001013469
 20
254.0191952609036
 30
0.0
 10
334.4398626013469
 20
254.4727277609036
 30
0.0
 10
334.6156401013469
 20
255.0942077609036
 30
0.0
 10
335.1107226013469
 20
255.4002527609036
 30
0.0
  0
SPLINE
  5
10114
330
1F
100
AcDbEntity
  8
LAYER_1
 62
     7
100
AcDbSpline
210
0.0
220
0.0
230
1.0
 70
    13
 71
     3
 72
    26
 73
    22
 74
     0
 42
0.000000001
 43
0.0000000001
 40
0.0
 40
0.0
 40
0.0
 40
0.0
 40
1.0
 40
1.0
 40
1.0
 40
2.0
 40
2.0
 40
2.0
 40
3.0
 40
3.0
 40
3.0
 40
4.0
 40
4.0
 40
4.0
 40
5.0
 40
5.0
 40
5.0
 40
6.0
 40
6.0
 40
6.0
 40
7.0
 40
7.0
 40
7.0
 40
7.0
 10
352.620767851347
 20
262.9253552609035
 30
0.0
 41
1.0
 10
352.9861761013469
 20
262.9186052609036
 30
0.0
 41
1.0
 10
353.8831026013469
 20
262.4816627609036
 30
0.0
 41
1.0
 10
354.6139281013469
 20
261.9559427609035
 30
0.0
 41
1.0
 10
355.7208141013469
 20
261.1596977609035
 30
0.0
 41
1.0
 10
355.6730953513469
 20
261.0874802609036
 30
0.0
 41
1.0
 10
354.3280018513469
 20
261.5234702609036
 30
0.0
 41
1.0
 10
351.835004101347
 20
262.3315952609035
 30
0.0
 41
1.0
 10
352.8390321013469
 20
259.2306827609036
 30
0.0
 41
1.0
 10
355.5075051013469
 20
257.8805627609035
 30
0.0
 41
1.0
 10
357.4863628513469
 20
256.8794177609036
 30
0.0
 41
1.0
 10
357.5267061013469
 20
256.7627327609036
 30
0.0
 41
1.0
 10
355.8982971013469
 20
256.7510102609036
 30
0.0
 41
1.0
 10
354.8995168513469
 20
256.7442602609036
 30
0.0
 41
1.0
 10
353.6039398513469
 20
257.2163027609036
 30
0.0
 41
1.0
 10
353.0192901013469
 20
257.8009802609035
 30
0.0
 41
1.0
 10
353.0193236013469
 20
257.8009802609035
 30
0.0
 41
1.0
 10
353.0193571013469
 20
257.8009802609035
 30
0.0
 41
1.0
 10
353.0193906013469
 20
257.8009802609035
 30
0.0
 41
1.0
 10
351.8590093513469
 20
258.9613727609036
 30
0.0
 41
1.0
 10
351.5489406013469
 20
262.9472552609036
 30
0.0
 41
1.0
 10
352.620767851347
 20
262.9253552609035
 30
0.0
 41
1.0
  0
LWPOLYLINE
  5
10115
330
1F
100
AcDbEntity
  8
LAYER_1
 62
     7
100
AcDbPolyline
 90
        2
 70
     1
 43
0.0
 10
334.7201001013469
 20
254.0191952609036
 10
334.7201001013469
 20
254.0191952609036
  0
SPLINE
  5
10116
330
1F
100
AcDbEntity
  8
LAYER_1
 62
     7
100
AcDbSpline
210
0.0
220
0.0
230
1.0
 70
     9
 71
     3
 72
    17
 73
    13
 74
     0
 42
0.000000001
 43
0.0000000001
 40
0.0
 40
0.0
 40
0.0
 40
0.0
 40
1.0
 40
1.0
 40
1.0
 40
2.0
 40
2.0
 40
2.0
 40
3.0
 40
3.0
 40
3.0
 40
4.0
 40
4.0
 40
4.0
 40
4.0
 10
333.5172576013469
 20
271.4392127609036
 30
0.0
 10
336.4903461013469
 20
272.9766677609036
 30
0.0
 10
341.8161988513469
 20
272.5136177609036
 30
0.0
 10
342.4559593513469
 20
270.6620777609036
 30
0.0
 10
342.9269361013469
 20
269.2990352609036
 30
0.0
 10
340.3911486013469
 20
263.8247852609036
 30
0.0
 10
339.2887911013469
 20
263.8247852609036
 30
0.0
 10
338.8359261013469
 20
263.8247852609036
 30
0.0
 10
336.5296461013469
 20
264.8783402609035
 30
0.0
 10
334.1637501013469
 20
266.1660452609036
 30
0.0
 10
329.4924651013469
 20
268.7084627609035
 30
0.0
 10
329.4176076013469
 20
269.3191952609036
 30
0.0
 10
333.5172576013469
 20
271.4392127609036
 30
0.0
  0
SPLINE
  5
10117
330
1F
100
AcDbEntity
  8
LAYER_1
 62
     7
100
AcDbSpline
210
0.0
220
0.0
230
1.0
 70
     9
 71
     3
 72
    17
 73
    13
 74
     0
 42
0.000000001
 43
0.0000000001
 40
0.0
 40
0.0
 40
0.0
 40
0.0
 40
1.0
 40
1.0
 40
1.0
 40
2.0
 40
2.0
 40
2.0
 40
3.0
 40
3.0
 40
3.0
 40
4.0
 40
4.0
 40
4.0
 40
4.0
 10
336.7064286013469
 20
279.3700052609036
 30
0.0
 10
336.9501636013469
 20
279.1262552609036
 30
0.0
 10
336.6371286013469
 20
278.3098577609036
 30
0.0
 10
336.0110226013469
 20
277.5554927609036
 30
0.0
 10
335.3849676013469
 20
276.8011052609036
 30
0.0
 10
334.6733901013469
 20
276.3832202609036
 30
0.0
 10
334.429790101347
 20
276.6268277609035
 30
0.0
 10
334.1860476013469
 20
276.8705702609036
 30
0.0
 10
334.499090101347
 20
277.6869752609036
 30
0.0
 10
335.1251901013469
 20
278.4413327609036
 30
0.0
 10
335.7512526013469
 20
279.1957352609036
 30
0.0
 10
336.4628211013469
 20
279.6136052609035
 30
0.0
 10
336.7064286013469
 20
279.3700052609036
 30
0.0
  0
LWPOLYLINE
  5
10118
330
1F
100
AcDbEntity
  8
LAYER_1
 62
     7
100
AcDbPolyline
 90
        2
 70
     1
 43
0.0
 10
334.1637501013469
 20
266.1660452609036
 10
334.1637501013469
 20
266.1660452609036
  0
SPLINE
  5
10119
330
1F
100
AcDbEntity
  8
LAYER_1
 62
     7
100
AcDbSpline
210
0.0
220
0.0
230
1.0
 70
     8
 71
     3
 72
    14
 73
    10
 74
     0
 42
0.000000001
 43
0.0000000001
 40
0.0
 40
0.0
 40
0.0
 40
0.0
 40
1.0
 40
1.0
 40
1.0
 40
2.0
 40
2.0
 40
2.0
 40
3.0
 40
3.0
 40
3.0
 40
3.0
 10
336.2509476013469
 20
282.0770402609036
 30
0.0
 10
336.5452536013469
 20
282.3713402609036
 30
0.0
 10
337.3093611013469
 20
282.4028102609036
 30
0.0
 10
337.9488411013469
 20
282.1470152609036
 30
0.0
 10
338.6554911013469
 20
281.8641002609036
 30
0.0
 10
338.445596101347
 20
281.6543477609036
 30
0.0
 10
337.4136486013469
 20
281.6118227609036
 30
0.0
 10
336.479793601347
 20
281.5732727609036
 30
0.0
 10
335.9565876013469
 20
281.7829052609036
 30
0.0
 10
336.2509476013469
 20
282.0771077609036
 30
0.0
  0
LWPOLYLINE
  5
1011A
330
1F
100
AcDbEntity
  8
LAYER_1
 62
     7
100
AcDbPolyline
 90
        2
 70
     1
 43
0.0
 10
335.1251901013469
 20
278.4413327609036
 10
335.1251901013469
 20
278.4413327609036
  0
SPLINE
  5
1011B
330
1F
100
AcDbEntity
  8
LAYER_1
 62
     7
100
AcDbSpline
210
0.0
220
0.0
230
1.0
 70
    13
 71
     3
 72
    62
 73
    58
 74
     0
 42
0.000000001
 43
0.0000000001
 40
0.0
 40
0.0
 40
0.0
 40
0.0
 40
1.0
 40
1.0
 40
1.0
 40
2.0
 40
2.0
 40
2.0
 40
3.0
 40
3.0
 40
3.0
 40
4.0
 40
4.0
 40
4.0
 40
5.0
 40
5.0
 40
5.0
 40
6.0
 40
6.0
 40
6.0
 40
7.0
 40
7.0
 40
7.0
 40
8.0
 40
8.0
 40
8.0
 40
9.0
 40
9.0
 40
9.0
 40
10.0
 40
10.0
 40
10.0
 40
11.0
 40
11.0
 40
11.0
 40
12.0
 40
12.0
 40
12.0
 40
13.0
 40
13.0
 40
13.0
 40
14.0
 40
14.0
 40
14.0
 40
15.0
 40
15.0
 40
15.0
 40
16.0
 40
16.0
 40
16.0
 40
17.0
 40
17.0
 40
17.0
 40
18.0
 40
18.0
 40
18.0
 40
19.0
 40
19.0
 40
19.0
 40
19.0
 10
340.1200536013469
 20
288.4349282609036
 30
0.0
 41
1.0
 10
340.7897713513469
 20
289.1046820109036
 30
0.0
 41
1.0
 10
341.7477973513469
 20
290.4188425109036
 30
0.0
 41
1.0
 10
342.248976601347
 20
291.3552730109036
 30
0.0
 41
1.0
 10
342.7501191013469
 20
292.2917035109036
 30
0.0
 41
1.0
 10
343.7581356013469
 20
293.0579162609035
 30
0.0
 41
1.0
 10
344.4889611013469
 20
293.0579162609035
 30
0.0
 41
1.0
 10
345.2197866013469
 20
293.0579162609035
 30
0.0
 41
1.0
 10
346.7101896013469
 20
293.6426657609036
 30
0.0
 41
1.0
 10
347.8009371013469
 20
294.3573542609036
 30
0.0
 41
1.0
 10
350.3476408513469
 20
296.0260157609035
 30
0.0
 41
1.0
 10
354.2373298513469
 20
296.1944537609036
 30
0.0
 41
1.0
 10
358.1573218513469
 20
294.8058310109036
 30
0.0
 41
1.0
 10
362.858564851347
 20
293.1404462609036
 30
0.0
 41
1.0
 10
363.7727316013469
 20
292.6009052609036
 30
0.0
 41
1.0
 10
364.2281736013469
 20
291.2229250109036
 30
0.0
 41
1.0
 10
364.5576268513469
 20
290.2264637609036
 30
0.0
 41
1.0
 10
364.3798423513469
 20
290.1772757609036
 30
0.0
 41
1.0
 10
363.392519851347
 20
290.9915717609036
 30
0.0
 41
1.0
 10
362.4275968513469
 20
291.7873480109035
 30
0.0
 41
1.0
 10
361.7525856013469
 20
291.7433177609035
 30
0.0
 41
1.0
 10
360.4633318513469
 20
290.8007260109036
 30
0.0
 41
1.0
 10
359.0029888513469
 20
289.7328880109036
 30
0.0
 41
1.0
 10
358.4634381013469
 20
289.8068477609036
 30
0.0
 41
1.0
 10
356.2580458513469
 20
291.3772067609036
 30
0.0
 41
1.0
 10
354.8372766013469
 20
292.3888652609036
 30
0.0
 41
1.0
 10
353.7280821013469
 20
292.7377067609036
 30
0.0
 41
1.0
 10
353.7280821013469
 20
292.1728457609035
 30
0.0
 41
1.0
 10
353.7280821013469
 20
291.6068530109036
 30
0.0
 41
1.0
 10
353.029805101347
 20
291.3885880109036
 30
0.0
 41
1.0
 10
352.1313726013469
 20
291.6737477609036
 30
0.0
 41
1.0
 10
351.2531661013469
 20
291.9523082609036
 30
0.0
 41
1.0
 10
349.7583096013469
 20
291.5934265109036
 30
0.0
 41
1.0
 10
348.8094201013469
 20
290.8757627609036
 30
0.0
 41
1.0
 10
347.8605306013469
 20
290.1581627609036
 30
0.0
 41
1.0
 10
346.4155281013469
 20
289.5583435109036
 30
0.0
 41
1.0
 10
345.5982561013469
 20
289.5428455109036
 30
0.0
 41
1.0
 10
344.780984851347
 20
289.5261430109036
 30
0.0
 41
1.0
 10
343.3283698513469
 20
288.5180882609036
 30
0.0
 41
1.0
 10
342.3702801013469
 20
287.3000215109036
 30
0.0
 41
1.0
 10
341.4121536013469
 20
286.0819727609036
 30
0.0
 41
1.0
 10
340.1873136013469
 20
285.0854110109036
 30
0.0
 41
1.0
 10
339.6484011013469
 20
285.0854110109036
 30
0.0
 41
1.0
 10
339.1094886013469
 20
285.0854110109036
 30
0.0
 41
1.0
 10
338.6685786013469
 20
284.6867515109036
 30
0.0
 41
1.0
 10
338.6685786013469
 20
284.1995372609035
 30
0.0
 41
1.0
 10
338.6685786013469
 20
283.7123237609036
 30
0.0
 41
1.0
 10
338.4425811013469
 20
283.3137010109036
 30
0.0
 41
1.0
 10
338.1659661013469
 20
283.3137010109036
 30
0.0
 41
1.0
 10
337.889418601347
 20
283.3137010109036
 30
0.0
 41
1.0
 10
337.9419786013469
 20
284.1920440109036
 30
0.0
 41
1.0
 10
338.2828161013469
 20
285.2655415109036
 30
0.0
 41
1.0
 10
338.2828261013469
 20
285.2654867609036
 30
0.0
 41
1.0
 10
338.2828361013469
 20
285.2654320109036
 30
0.0
 41
1.0
 10
338.282846101347
 20
285.2653772609036
 30
0.0
 41
1.0
 10
338.623556101347
 20
286.3389107609036
 30
0.0
 41
1.0
 10
339.4503036013469
 20
287.7652022609036
 30
0.0
 41
1.0
 10
340.1200536013469
 20
288.4349282609036
 30
0.0
 41
1.0
  0
LWPOLYLINE
  5
1011C
330
1F
100
AcDbEntity
  8
LAYER_1
 62
     7
100
AcDbPolyline
 90
        2
 70
     1
 43
0.0
 10
336.2509476013469
 20
282.0771077609036
 10
336.2509476013469
 20
282.0771077609036
  0
LWPOLYLINE
  5
1011D
330
1F
100
AcDbEntity
  8
0
  6
Continuous
100
AcDbPolyline
 90
        4
 70
     1
 43
0.0
 10
270.5373803396342
 20
314.1383699382286
 10
390.8400767343446
 20
314.1383699382286
 10
390.8400767343446
 20
214.9756368540165
 10
270.5373803396342
 20
214.9756368540165
  0
ELLIPSE
  5
1017D
330
1F
100
AcDbEntity
  8
0
  6
Continuous
100
AcDbEllipse
 10
201.5235168465935
 20
160.1197475244798
 30
0.0
 11
-46.97670100859132
 21
-9.858476674893207
 31
0.0
210
0.0
220
0.0
230
1.0
 40
0.7219854166666665
 41
0.0
 42
6.283185307179586
  0
ELLIPSE
  5
10188
330
1F
100
AcDbEntity
  8
0
  6
Continuous
100
AcDbEllipse
 10
315.8411393682029
 20
157.4723601869552
 30
0.0
 11
-47.46604164409744
 21
9.961169140256666
 31
0.0
210
0.0
220
0.0
230
1.0
 40
0.7247422680412376
 41
0.0
 42
6.283185307179586
  0
SPLINE
  5
1019F
330
1F
100
AcDbEntity
  8
0
  6
Continuous
100
AcDbSpline
210
0.0
220
0.0
230
1.0
 70
    13
 71
     3
 72
    24
 73
    20
 74
     0
 42
0.000000001
 43
0.0000000001
 40
0.0
 40
0.0
 40
0.0
 40
0.0
 40
43.58004429302032
 40
81.0840943604898
 40
81.0840943604898
 40
81.0840943604898
 40
81.42341639669947
 40
81.42341639669947
 40
81.42341639669947
 40
82.9291917705807
 40
82.9291917705807
 40
82.9291917705807
 40
84.43496714446192
 40
84.43496714446192
 40
84.43496714446192
 40
85.94074251834317
 40
85.94074251834317
 40
85.94074251834317
 40
86.40366451951853
 40
86.40366451951853
 40
86.40366451951853
 40
86.40366451951853
 10
163.5873151885178
 20
117.2218013295034
 30
0.0
 41
1.0
 10
178.0506644654129
 20
112.8713260984695
 30
0.0
 41
1.0
 10
204.6333798611974
 20
107.6487266294002
 30
0.0
 41
1.0
 10
229.2975074211472
 20
119.2508979032778
 30
0.0
 41
1.0
 10
240.5973068669942
 20
125.5658417394538
 30
0.0
 41
1.0
 10
242.5815402660296
 20
126.6747395152805
 30
0.0
 41
0.9904280400237558
 10
244.350048718866
 20
128.1027501284506
 30
0.0
 41
0.9904280400237558
 10
245.8520479491186
 20
129.80886699766
 30
0.0
 41
1.0
 10
266.2889085432026
 20
153.023041752869
 30
0.0
 41
0.8198116410572666
 10
263.9569395783565
 20
180.459073573731
 30
0.0
 41
0.8198116410572666
 10
240.1167220372201
 20
197.2860018111433
 30
0.0
 41
1.0
 10
216.2765044960838
 20
214.1129300485557
 30
0.0
 41
0.8198116410572666
 10
183.8152274053825
 20
211.234704947079
 30
0.0
 41
0.8198116410572666
 10
160.2803235095928
 20
190.2071944798219
 30
0.0
 41
1.0
 10
136.7454196138031
 20
169.1796840125648
 30
0.0
 41
0.8198116410572666
 10
134.8590360454968
 20
141.3696259907658
 30
0.0
 41
0.8198116410572666
 10
155.6408858832029
 20
121.8101665655756
 30
0.0
 41
1.0
 10
157.9085162567051
 20
119.675918429423
 30
0.0
 41
0.9822215204477798
 10
160.6052702101635
 20
118.118779793332
 30
0.0
 41
0.9822215204477798
 10
163.5873151885182
 20
117.2218013295046
 30
0.0
 41
1.0
  0
ENDSEC
  0
SECTION
  2
OBJECTS
  0
DICTIONARY
  5
C
330
0
100
AcDbDictionary
281
     1
  3
ACAD_CIP_PREVIOUS_PRODUCT_INFO
350
10056
  3
ACAD_COLOR
350
10035
  3
ACAD_DETAILVIEWSTYLE
350
1004F
  3
ACAD_GROUP
350
D
  3
ACAD_LAST_SAVED_VERSION_INFO
350
1005F
  3
ACAD_LAYOUT
350
10036
  3
ACAD_MATERIAL
350
10003
  3
ACAD_MLEADERSTYLE
350
1004B
  3
ACAD_MLINESTYLE
350
17
  3
ACAD_PLOTSETTINGS
350
10051
  3
ACAD_PLOTSTYLENAME
350
10001
  3
ACAD_SCALELIST
350
10039
  3
ACAD_SECTIONVIEWSTYLE
350
1004D
  3
ACAD_TABLESTYLE
350
10037
  3
ACAD_VISUALSTYLE
350
1001C
  3
ACDB_RECOMPOSE_DATA
350
101AB
  3
AcDbVariableDictionary
350
1006F
  0
DICTIONARY
  5
1007F
330
2
100
AcDbDictionary
280
     1
281
     1
  3
ACAD_LAYERSTATES
360
10080
  0
DICTIONARY
  5
10060
330
50
100
AcDbDictionary
280
     1
281
     1
  3
ADSK_XREC_LAYER_RECONCILED
360
10061
  0
DICTIONARY
  5
10062
330
51
100
AcDbDictionary
280
     1
281
     1
  3
ADSK_XREC_LAYER_RECONCILED
360
10063
  0
XRECORD
  5
10056
102
{ACAD_REACTORS
330
C
102
}
330
C
100
AcDbXrecord
280
     1
300
ACD
300
2024
300

  0
DICTIONARY
  5
10035
102
{ACAD_REACTORS
330
C
102
}
330
C
100
AcDbDictionary
281
     1
  0
DICTIONARY
  5
1004F
102
{ACAD_REACTORS
330
C
102
}
330
C
100
AcDbDictionary
281
     1
  3
Metric50
350
10050
  0
DICTIONARY
  5
D
330
C
100
AcDbDictionary
281
     1
  0
XRECORD
  5
1005F
102
{ACAD_REACTORS
330
C
102
}
330
C
100
AcDbXrecord
280
     1
300
{4055562B-248B-D04A-82D1-66FA32B76219}
301
{A34D65BD-60CF-DF47-A544-17CB9FDB1136}
302
{4055562B-248B-D04A-82D1-66FA32B76219}
303
E:\Privat\Fräse\Stiftebox\Meerschweinchen\guinea pig bw simplified.dxf
  0
DICTIONARY
  5
10036
102
{ACAD_REACTORS
330
C
102
}
330
C
100
AcDbDictionary
281
     1
  3
Layout1
350
10053
  3
Model
350
10052
  0
DICTIONARY
  5
10003
102
{ACAD_REACTORS
330
C
102
}
330
C
100
AcDbDictionary
281
     1
  3
ByBlock
350
1000C
  3
ByLayer
350
10004
  3
Global
350
10014
  0
DICTIONARY
  5
1004B
102
{ACAD_REACTORS
330
C
102
}
330
C
100
AcDbDictionary
281
     1
  3
Standard
350
1004C
  0
DICTIONARY
  5
17
330
C
100
AcDbDictionary
281
     1
  3
Standard
350
100DE
  0
DICTIONARY
  5
10051
102
{ACAD_REACTORS
330
C
102
}
330
C
100
AcDbDictionary
281
     1
  0
ACDBDICTIONARYWDFLT
  5
10001
102
{ACAD_REACTORS
330
C
102
}
330
C
100
AcDbDictionary
281
     1
  3
Normal
350
10002
100
AcDbDictionaryWithDefault
340
10002
  0
DICTIONARY
  5
10039
102
{ACAD_REACTORS
330
C
102
}
330
C
100
AcDbDictionary
281
     1
  3
A0
350
1003A
  3
A1
350
1003B
  3
A2
350
1003C
  3
A3
350
1003D
  3
A4
350
1003E
  3
A5
350
1003F
  3
A6
350
10040
  3
A7
350
10041
  3
A8
350
10042
  3
A9
350
10043
  3
B0
350
10044
  3
B1
350
10045
  3
B2
350
10046
  3
B3
350
10047
  3
B4
350
10048
  3
B5
350
10049
  3
B6
350
1004A
  0
DICTIONARY
  5
1004D
102
{ACAD_REACTORS
330
C
102
}
330
C
100
AcDbDictionary
281
     1
  3
Metric50
350
1004E
  0
DICTIONARY
  5
10037
102
{ACAD_REACTORS
330
C
102
}
330
C
100
AcDbDictionary
281
     1
  3
Standard
350
10038
  0
DICTIONARY
  5
1001C
102
{ACAD_REACTORS
330
C
102
}
330
C
100
AcDbDictionary
281
     1
  3
2dWireframe
350
10022
  3
Basic
350
10021
  3
Brighten
350
10028
  3
ColorChange
350
1002C
  3
Conceptual
350
10025
  3
Dim
350
10027
  3
EdgeColorOff
350
10034
  3
Facepattern
350
1002B
  3
Flat
350
1001D
  3
FlatWithEdges
350
1001E
  3
Gouraud
350
1001F
  3
GouraudWithEdges
350
10020
  3
Hidden
350
10024
  3
JitterOff
350
10032
  3
Linepattern
350
1002A
  3
OverhangOff
350
10033
  3
Realistic
350
10026
  3
Shaded
350
10031
  3
Shaded with edges
350
10030
  3
Shades of Gray
350
1002D
  3
Sketchy
350
1002E
  3
Thicken
350
10029
  3
Wireframe
350
10023
  3
X-Ray
350
1002F
  0
XRECORD
  5
101AB
102
{ACAD_REACTORS
330
C
102
}
330
C
100
AcDbXrecord
280
     1
 90
        1
330
10038
  0
DICTIONARY
  5
1006F
102
{ACAD_REACTORS
330
C
102
}
330
C
100
AcDbDictionary
281
     1
  3
CANNOSCALE
350
10075
  3
CMLEADERSTYLE
350
10071
  3
CTABLESTYLE
350
10070
  3
CVIEWDETAILSTYLE
350
10072
  3
CVIEWSECTIONSTYLE
350
10073
  3
LAYEREVAL
350
10077
  3
LAYERNOTIFY
350
10078
  3
LIGHTINGUNITS
350
10076
  3
MSLTSCALE
350
10074
  0
DICTIONARY
  5
10080
102
{ACAD_REACTORS
330
1007F
102
}
330
1007F
100
AcDbDictionary
281
     1
  0
XRECORD
  5
10061
102
{ACAD_REACTORS
330
10060
102
}
330
10060
100
AcDbXrecord
280
     1
290
     1
  0
XRECORD
  5
10063
102
{ACAD_REACTORS
330
10062
102
}
330
10062
100
AcDbXrecord
280
     1
290
     1
  0
ACDBDETAILVIEWSTYLE
  5
10050
102
{ACAD_REACTORS
330
1004F
102
}
330
1004F
100
AcDbModelDocViewStyle
 70
     0
  3
Metric50
290
     0
300
Metric50
 90
        0
100
AcDbDetailViewStyle
 70
     0
 71
     0
 90
        3
 71
     1
340
11
 62
   256
 40
5.0
340
0
 62
   256
 40
5.0
300

 40
0.0
280
     1
 71
     2
340
16
 90
       25
 62
   256
 71
     3
340
11
 62
   256
 40
5.0
 90
        0
 40
15.0
 90
        1
300
%<\AcVar ViewDetailId>% (%<\AcVar ViewScale \f "%sn">%)
 71
     4
340
16
 90
       25
 62
   256
340
16
 90
       25
 62
   256
280
     0
  0
LAYOUT
  5
10053
102
{ACAD_REACTORS
330
10036
102
}
330
10036
100
AcDbPlotSettings
  1

  2
Brother MFC-J5730DW Printer
  4

  6

 40
0.0
 41
0.0
 42
0.0
 43
0.0
 44
0.0
 45
0.0
 46
0.0
 47
0.0
 48
0.0
 49
0.0
140
0.0
141
0.0
142
1.0
143
1.0
 70
   688
 72
     0
 73
     0
 74
     5
  7

 75
    16
147
1.0
 76
     0
 77
     2
 78
   300
148
0.0
149
0.0
100
AcDbLayout
  1
Layout1
 70
     1
 71
     1
 10
0.0
 20
0.0
 11
12.0
 21
9.0
 12
0.0
 22
0.0
 32
0.0
 14
1.000000000000000E+20
 24
1.000000000000000E+20
 34
1.000000000000000E+20
 15
-1.000000000000000E+20
 25
-1.000000000000000E+20
 35
-1.000000000000000E+20
146
0.0
 13
0.0
 23
0.0
 33
0.0
 16
1.0
 26
0.0
 36
0.0
 17
0.0
 27
1.0
 37
0.0
 76
     0
330
1B
  0
LAYOUT
  5
10052
102
{ACAD_REACTORS
330
10036
102
}
330
10036
100
AcDbPlotSettings
  1

  2
Brother MFC-J5730DW Printer
  4

  6

 40
0.0
 41
0.0
 42
0.0
 43
0.0
 44
0.0
 45
0.0
 46
0.0
 47
0.0
 48
0.0
 49
0.0
140
0.0
141
0.0
142
1.0
143
1.0
 70
  1712
 72
     0
 73
     0
 74
     0
  7

 75
     0
147
1.0
 76
     0
 77
     2
 78
   300
148
0.0
149
0.0
100
AcDbLayout
  1
Model
 70
     1
 71
     0
 10
0.0
 20
0.0
 11
12.0
 21
9.0
 12
0.0
 22
0.0
 32
0.0
 14
0.0
 24
0.0
 34
0.0
 15
0.0
 25
0.0
 35
0.0
146
0.0
 13
0.0
 23
0.0
 33
0.0
 16
1.0
 26
0.0
 36
0.0
 17
0.0
 27
1.0
 37
0.0
 76
     0
330
1F
331
2E
  0
MATERIAL
  5
1000C
102
{ACAD_XDICTIONARY
360
1000D
102
}
102
{ACAD_REACTORS
330
10003
102
}
330
10003
100
AcDbMaterial
  1
ByBlock
 72
     0
 43
0.0008202099737533
 43
0.0
 43
0.0
 43
0.0
 43
0.0
 43
0.0008202099737533
 43
0.0
 43
0.0
 43
0.0
 43
0.0
 43
1.0
 43
0.0
 43
0.0
 43
0.0
 43
0.0
 43
1.0
 77
     0
 47
0.0008202099737533
 47
0.0
 47
0.0
 47
0.0
 47
0.0
 47
0.0008202099737533
 47
0.0
 47
0.0
 47
0.0
 47
0.0
 47
1.0
 47
0.0
 47
0.0
 47
0.0
 47
0.0
 47
1.0
171
     0
 49
0.0008202099737533
 49
0.0
 49
0.0
 49
0.0
 49
0.0
 49
0.0008202099737533
 49
0.0
 49
0.0
 49
0.0
 49
0.0
 49
1.0
 49
0.0
 49
0.0
 49
0.0
 49
0.0
 49
1.0
175
     0
142
0.0008202099737533
142
0.0
142
0.0
142
0.0
142
0.0
142
0.0008202099737533
142
0.0
142
0.0
142
0.0
142
0.0
142
1.0
142
0.0
142
0.0
142
0.0
142
0.0
142
1.0
179
     0
144
0.0008202099737533
144
0.0
144
0.0
144
0.0
144
0.0
144
0.0008202099737533
144
0.0
144
0.0
144
0.0
144
0.0
144
1.0
144
0.0
144
0.0
144
0.0
144
0.0
144
1.0
147
0.0008202099737533
147
0.0
147
0.0
147
0.0
147
0.0
147
0.0008202099737533
147
0.0
147
0.0
147
0.0
147
0.0
147
1.0
147
0.0
147
0.0
147
0.0
147
0.0
147
1.0
  0
MATERIAL
  5
10004
102
{ACAD_XDICTIONARY
360
10005
102
}
102
{ACAD_REACTORS
330
10003
102
}
330
10003
100
AcDbMaterial
  1
ByLayer
 72
     0
 43
0.0008202099737533
 43
0.0
 43
0.0
 43
0.0
 43
0.0
 43
0.0008202099737533
 43
0.0
 43
0.0
 43
0.0
 43
0.0
 43
1.0
 43
0.0
 43
0.0
 43
0.0
 43
0.0
 43
1.0
 77
     0
 47
0.0008202099737533
 47
0.0
 47
0.0
 47
0.0
 47
0.0
 47
0.0008202099737533
 47
0.0
 47
0.0
 47
0.0
 47
0.0
 47
1.0
 47
0.0
 47
0.0
 47
0.0
 47
0.0
 47
1.0
171
     0
 49
0.0008202099737533
 49
0.0
 49
0.0
 49
0.0
 49
0.0
 49
0.0008202099737533
 49
0.0
 49
0.0
 49
0.0
 49
0.0
 49
1.0
 49
0.0
 49
0.0
 49
0.0
 49
0.0
 49
1.0
175
     0
142
0.0008202099737533
142
0.0
142
0.0
142
0.0
142
0.0
142
0.0008202099737533
142
0.0
142
0.0
142
0.0
142
0.0
142
1.0
142
0.0
142
0.0
142
0.0
142
0.0
142
1.0
179
     0
144
0.0008202099737533
144
0.0
144
0.0
144
0.0
144
0.0
144
0.0008202099737533
144
0.0
144
0.0
144
0.0
144
0.0
144
1.0
144
0.0
144
0.0
144
0.0
144
0.0
144
1.0
147
0.0008202099737533
147
0.0
147
0.0
147
0.0
147
0.0
147
0.0008202099737533
147
0.0
147
0.0
147
0.0
147
0.0
147
1.0
147
0.0
147
0.0
147
0.0
147
0.0
147
1.0
  0
MATERIAL
  5
10014
102
{ACAD_XDICTIONARY
360
10015
102
}
102
{ACAD_REACTORS
330
10003
102
}
330
10003
100
AcDbMaterial
  1
Global
 72
     0
 43
0.0008202099737533
 43
0.0
 43
0.0
 43
0.0
 43
0.0
 43
0.0008202099737533
 43
0.0
 43
0.0
 43
0.0
 43
0.0
 43
1.0
 43
0.0
 43
0.0
 43
0.0
 43
0.0
 43
1.0
 77
     0
 47
0.0008202099737533
 47
0.0
 47
0.0
 47
0.0
 47
0.0
 47
0.0008202099737533
 47
0.0
 47
0.0
 47
0.0
 47
0.0
 47
1.0
 47
0.0
 47
0.0
 47
0.0
 47
0.0
 47
1.0
171
     0
 49
0.0008202099737533
 49
0.0
 49
0.0
 49
0.0
 49
0.0
 49
0.0008202099737533
 49
0.0
 49
0.0
 49
0.0
 49
0.0
 49
1.0
 49
0.0
 49
0.0
 49
0.0
 49
0.0
 49
1.0
175
     0
142
0.0008202099737533
142
0.0
142
0.0
142
0.0
142
0.0
142
0.0008202099737533
142
0.0
142
0.0
142
0.0
142
0.0
142
1.0
142
0.0
142
0.0
142
0.0
142
0.0
142
1.0
179
     0
144
0.0008202099737533
144
0.0
144
0.0
144
0.0
144
0.0
144
0.0008202099737533
144
0.0
144
0.0
144
0.0
144
0.0
144
1.0
144
0.0
144
0.0
144
0.0
144
0.0
144
1.0
147
0.0008202099737533
147
0.0
147
0.0
147
0.0
147
0.0
147
0.0008202099737533
147
0.0
147
0.0
147
0.0
147
0.0
147
1.0
147
0.0
147
0.0
147
0.0
147
0.0
147
1.0
  0
MLEADERSTYLE
  5
1004C
102
{ACAD_REACTORS
330
1004B
102
}
330
1004B
100
AcDbMLeaderStyle
179
     2
170
     2
171
     1
172
     0
 90
        2
 40
0.0
 41
0.0
173
     1
 91
-1056964608
340
14
 92
       -2
290
     1
 42
2.0
291
     1
 43
0.36
  3
Standard
 44
4.0
300

342
11
174
     1
178
     6
175
     1
176
     0
 93
-1056964608
 45
4.0
292
     0
297
     0
 46
4.0
 94
-1056964608
 47
1.0
 49
1.0
140
1.0
293
     1
141
0.0
294
     1
177
     0
142
1.0
295
     0
296
     0
143
0.125
271
     0
272
     9
273
     9
298
     0
  0
MLINESTYLE
  5
100DE
102
{ACAD_REACTORS
330
17
102
}
330
17
100
AcDbMlineStyle
  2
STANDARD
 70
     0
  3

 62
   256
 51
90.0
 52
90.0
 71
     2
 49
0.5
 62
   256
  6
BYLAYER
 49
-0.5
 62
   256
  6
BYLAYER
  0
ACDBPLACEHOLDER
  5
10002
102
{ACAD_REACTORS
330
10001
102
}
330
10001
  0
SCALE
  5
1003A
102
{ACAD_REACTORS
330
10039
102
}
330
10039
100
AcDbScale
 70
     0
300
1:1
140
1.0
141
1.0
290
     1
  0
SCALE
  5
1003B
102
{ACAD_REACTORS
330
10039
102
}
330
10039
100
AcDbScale
 70
     0
300
1:2
140
1.0
141
2.0
290
     0
  0
SCALE
  5
1003C
102
{ACAD_REACTORS
330
10039
102
}
330
10039
100
AcDbScale
 70
     0
300
1:4
140
1.0
141
4.0
290
     0
  0
SCALE
  5
1003D
102
{ACAD_REACTORS
330
10039
102
}
330
10039
100
AcDbScale
 70
     0
300
1:5
140
1.0
141
5.0
290
     0
  0
SCALE
  5
1003E
102
{ACAD_REACTORS
330
10039
102
}
330
10039
100
AcDbScale
 70
     0
300
1:8
140
1.0
141
8.0
290
     0
  0
SCALE
  5
1003F
102
{ACAD_REACTORS
330
10039
102
}
330
10039
100
AcDbScale
 70
     0
300
1:10
140
1.0
141
10.0
290
     0
  0
SCALE
  5
10040
102
{ACAD_REACTORS
330
10039
102
}
330
10039
100
AcDbScale
 70
     0
300
1:16
140
1.0
141
16.0
290
     0
  0
SCALE
  5
10041
102
{ACAD_REACTORS
330
10039
102
}
330
10039
100
AcDbScale
 70
     0
300
1:20
140
1.0
141
20.0
290
     0
  0
SCALE
  5
10042
102
{ACAD_REACTORS
330
10039
102
}
330
10039
100
AcDbScale
 70
     0
300
1:30
140
1.0
141
30.0
290
     0
  0
SCALE
  5
10043
102
{ACAD_REACTORS
330
10039
102
}
330
10039
100
AcDbScale
 70
     0
300
1:40
140
1.0
141
40.0
290
     0
  0
SCALE
  5
10044
102
{ACAD_REACTORS
330
10039
102
}
330
10039
100
AcDbScale
 70
     0
300
1:50
140
1.0
141
50.0
290
     0
  0
SCALE
  5
10045
102
{ACAD_REACTORS
330
10039
102
}
330
10039
100
AcDbScale
 70
     0
300
1:100
140
1.0
141
100.0
290
     0
  0
SCALE
  5
10046
102
{ACAD_REACTORS
330
10039
102
}
330
10039
100
AcDbScale
 70
     0
300
2:1
140
2.0
141
1.0
290
     0
  0
SCALE
  5
10047
102
{ACAD_REACTORS
330
10039
102
}
330
10039
100
AcDbScale
 70
     0
300
4:1
140
4.0
141
1.0
290
     0
  0
SCALE
  5
10048
102
{ACAD_REACTORS
330
10039
102
}
330
10039
100
AcDbScale
 70
     0
300
8:1
140
8.0
141
1.0
290
     0
  0
SCALE
  5
10049
102
{ACAD_REACTORS
330
10039
102
}
330
10039
100
AcDbScale
 70
     0
300
10:1
140
10.0
141
1.0
290
     0
  0
SCALE
  5
1004A
102
{ACAD_REACTORS
330
10039
102
}
330
10039
100
AcDbScale
 70
     0
300
100:1
140
100.0
141
1.0
290
     0
  0
ACDBSECTIONVIEWSTYLE
  5
1004E
102
{ACAD_REACTORS
330
1004D
102
}
330
1004D
100
AcDbModelDocViewStyle
 70
     0
  3
Metric50
290
     0
300
Metric50
 90
        0
100
AcDbSectionViewStyle
 70
     0
 71
     0
 90
      102
 71
     1
340
11
 62
   256
 40
5.0
340
0
340
0
 62
   256
 40
5.0
300
I, O, Q, S, X, Z
 40
10.0
 90
        0
 40
2.5
 90
        0
 71
     2
340
16
 90
       25
 62
   256
340
16
 90
       50
 62
   256
 40
5.0
 40
2.5
 40
5.0
 71
     3
340
11
 62
   256
 40
5.0
 90
        0
 40
15.0
 90
        1
300
%<\AcVar ViewSectionStartId>%-%<\AcVar ViewSectionEndId>% (%<\AcVar ViewScale \f "%sn">%)
 71
     4
 62
   256
 62
   257
300
ANSI31
 40
1.0
 90
        0
290
     0
290
     0
 90
        6
 40
0.0
 40
1.570796326794896
 40
0.2617993877991494
 40
1.308996938995747
 40
-0.2617993877991494
 40
1.832595714594046
  0
TABLESTYLE
  5
10038
102
{ACAD_XDICTIONARY
360
101A9
102
}
102
{ACAD_REACTORS
330
10037
102
}
330
10037
100
AcDbTableStyle
280
     0
  3
Standard
 70
     0
 71
     0
 40
1.5
 41
1.5
280
     0
281
     0
  7
STANDARD
140
4.5
170
     2
 62
     0
 63
     7
283
     0
 90
      512
 91
        0
  1

274
    -2
284
     1
 64
     0
275
    -2
285
     1
 65
     0
276
    -2
286
     1
 66
     0
277
    -2
287
     1
 67
     0
278
    -2
288
     1
 68
     0
279
    -2
289
     1
 69
     0
  7
STANDARD
140
6.0
170
     5
 62
     0
 63
     7
283
     0
 90
      512
 91
        0
  1

274
    -2
284
     1
 64
     0
275
    -2
285
     1
 65
     0
276
    -2
286
     1
 66
     0
277
    -2
287
     1
 67
     0
278
    -2
288
     1
 68
     0
279
    -2
289
     1
 69
     0
  7
STANDARD
140
4.5
170
     5
 62
     0
 63
     7
283
     0
 90
      512
 91
        0
  1

274
    -2
284
     1
 64
     0
275
    -2
285
     1
 65
     0
276
    -2
286
     1
 66
     0
277
    -2
287
     1
 67
     0
278
    -2
288
     1
 68
     0
279
    -2
289
     1
 69
     0
  0
VISUALSTYLE
  5
10022
102
{ACAD_REACTORS
330
1001C
102
}
330
1001C
100
AcDbVisualStyle
  2
2dWireframe
 70
     4
177
     3
291
     0
 70
    58
 90
        0
176
     1
 90
        2
176
     1
 90
        0
176
     1
 90
        0
176
     1
 40
0.6
176
     1
 40
30.0
176
     1
 62
     7
420
 16777215
176
     1
 90
        1
176
     1
 90
        4
176
     1
 62
     7
176
     1
 62
   257
176
     1
 90
        1
176
     1
 90
        1
176
     1
 40
1.0
176
     1
 90
        0
176
     1
 62
   257
176
     1
 40
1.0
176
     1
 90
        1
176
     1
 90
        6
176
     1
 90
        2
176
     1
 62
     7
176
     1
 90
        5
176
     1
 90
        0
176
     1
 90
        0
176
     1
290
     0
176
     1
 90
        1
176
     1
 40
0.0
176
     1
 90
        0
176
     1
290
     1
176
     1
290
     1
176
     1
290
     0
176
     1
290
     0
176
     1
290
     0
176
     1
290
     0
176
     1
290
     0
176
     1
290
     0
176
     1
290
     0
176
     1
 90
       50
176
     1
 40
0.0
176
     1
 40
1.0
176
     1
 90
        0
176
     1
 62
    18
420
        0
176
     1
 90
       50
176
     1
 90
        3
176
     1
 62
     5
420
      255
176
     1
290
     0
176
     1
 90
       50
176
     1
 90
       50
176
     1
 90
       50
176
     1
290
     0
176
     1
 90
       50
176
     1
 62
   256
176
     0
 40
1.0
176
     0
 90
        2
176
     1
  1
strokes_ogs.tif
176
     1
290
     0
176
     1
 40
1.0
176
     1
 40
1.0
176
     1
  0
VISUALSTYLE
  5
10021
102
{ACAD_REACTORS
330
1001C
102
}
330
1001C
100
AcDbVisualStyle
  2
Basic
 70
     7
177
     3
291
     1
 70
    58
 90
        1
176
     1
 90
        0
176
     1
 90
        1
176
     1
 90
        0
176
     1
 40
0.6
176
     1
 40
30.0
176
     1
 62
     7
420
 16777215
176
     1
 90
        0
176
     1
 90
        4
176
     1
 62
     7
176
     1
 62
   257
176
     1
 90
        1
176
     1
 90
        1
176
     1
 40
1.0
176
     1
 90
        8
176
     1
 62
     7
176
     1
 40
1.0
176
     1
 90
        1
176
     1
 90
        6
176
     1
 90
        2
176
     1
 62
     7
176
     1
 90
        5
176
     1
 90
        0
176
     1
 90
        0
176
     1
290
     0
176
     1
 90
        1
176
     1
 40
0.0
176
     1
 90
        0
176
     1
290
     0
176
     1
290
     1
176
     1
290
     1
176
     1
290
     0
176
     1
290
     0
176
     1
290
     0
176
     1
290
     0
176
     1
290
     0
176
     1
290
     0
176
     1
 90
       50
176
     1
 40
0.0
176
     1
 40
1.0
176
     1
 90
        0
176
     1
 62
    18
420
        0
176
     1
 90
       50
176
     1
 90
        3
176
     1
 62
     5
420
      255
176
     1
290
     0
176
     1
 90
       50
176
     1
 90
       50
176
     1
 90
       50
176
     1
290
     0
176
     1
 90
       50
176
     1
 62
   256
176
     0
 40
1.0
176
     0
 90
        2
176
     1
  1
strokes_ogs.tif
176
     1
290
     0
176
     1
 40
1.0
176
     1
 40
1.0
176
     1
  0
VISUALSTYLE
  5
10028
102
{ACAD_REACTORS
330
1001C
102
}
330
1001C
100
AcDbVisualStyle
  2
Brighten
 70
    12
177
     3
291
     1
 70
    58
 90
        2
176
     1
 90
        2
176
     1
 90
        0
176
     1
 90
        0
176
     1
 40
0.6
176
     1
 40
30.0
176
     1
 62
     7
420
 16777215
176
     1
 90
        1
176
     1
 90
        4
176
     1
 62
     7
176
     1
 62
   257
176
     1
 90
        1
176
     1
 90
        1
176
     1
 40
1.0
176
     1
 90
        8
176
     1
 62
     7
176
     1
 40
1.0
176
     1
 90
        1
176
     1
 90
        6
176
     1
 90
        2
176
     1
 62
     7
176
     1
 90
        5
176
     1
 90
        0
176
     1
 90
        0
176
     1
290
     0
176
     1
 90
        1
176
     1
 40
50.0
176
     1
 90
        0
176
     1
290
     0
176
     1
290
     1
176
     1
290
     1
176
     1
290
     0
176
     1
290
     0
176
     1
290
     0
176
     1
290
     0
176
     1
290
     0
176
     1
290
     0
176
     1
 90
       50
176
     1
 40
0.0
176
     1
 40
1.0
176
     1
 90
        0
176
     1
 62
    18
420
        0
176
     1
 90
       50
176
     1
 90
        3
176
     1
 62
     5
420
      255
176
     1
290
     0
176
     1
 90
       50
176
     1
 90
       50
176
     1
 90
       50
176
     1
290
     0
176
     1
 90
       50
176
     1
 62
   256
176
     0
 40
1.0
176
     0
 90
        2
176
     1
  1
strokes_ogs.tif
176
     1
290
     0
176
     1
 40
1.0
176
     1
 40
1.0
176
     1
  0
VISUALSTYLE
  5
1002C
102
{ACAD_REACTORS
330
1001C
102
}
330
1001C
100
AcDbVisualStyle
  2
ColorChange
 70
    16
177
     3
291
     1
 70
    58
 90
        2
176
     1
 90
        2
176
     1
 90
        3
176
     1
 90
        0
176
     1
 40
0.6
176
     1
 40
30.0
176
     1
 62
     8
420
  8421504
176
     1
 90
        1
176
     1
 90
        4
176
     1
 62
     7
176
     1
 62
   257
176
     1
 90
        1
176
     1
 90
        1
176
     1
 40
1.0
176
     1
 90
        8
176
     1
 62
     8
420
  8421504
176
     1
 40
1.0
176
     1
 90
        1
176
     1
 90
        6
176
     1
 90
        2
176
     1
 62
     7
176
     1
 90
        5
176
     1
 90
        0
176
     1
 90
        0
176
     1
290
     0
176
     1
 90
        1
176
     1
 40
0.0
176
     1
 90
        0
176
     1
290
     0
176
     1
290
     1
176
     1
290
     1
176
     1
290
     0
176
     1
290
     0
176
     1
290
     0
176
     1
290
     0
176
     1
290
     0
176
     1
290
     0
176
     1
 90
       50
176
     1
 40
0.0
176
     1
 40
1.0
176
     1
 90
        0
176
     1
 62
    18
420
        0
176
     1
 90
       50
176
     1
 90
        3
176
     1
 62
     5
420
      255
176
     1
290
     0
176
     1
 90
       50
176
     1
 90
       50
176
     1
 90
       50
176
     1
290
     0
176
     1
 90
       50
176
     1
 62
   256
176
     0
 40
1.0
176
     0
 90
        2
176
     1
  1
strokes_ogs.tif
176
     1
290
     0
176
     1
 40
1.0
176
     1
 40
1.0
176
     1
  0
VISUALSTYLE
  5
10025
102
{ACAD_REACTORS
330
1001C
102
}
330
1001C
100
AcDbVisualStyle
  2
Conceptual
 70
     9
177
     3
291
     0
 70
    58
 90
        3
176
     1
 90
        2
176
     1
 90
        0
176
     1
 90
        0
176
     1
 40
0.6
176
     1
 40
30.0
176
     1
 62
     7
420
 16777215
176
     1
 90
        2
176
     1
 90
        2
176
     1
 62
     7
176
     1
 62
   257
176
     1
 90
        1
176
     1
 90
        1
176
     1
 40
179.0
176
     1
 90
        8
176
     1
 62
     7
176
     1
 40
1.0
176
     1
 90
        1
176
     1
 90
        6
176
     1
 90
        2
176
     1
 62
     7
176
     1
 90
        3
176
     1
 90
        0
176
     1
 90
        0
176
     1
290
     0
176
     1
 90
        1
176
     1
 40
0.0
176
     1
 90
        0
176
     1
290
     0
176
     1
290
     1
176
     1
290
     1
176
     1
290
     0
176
     1
290
     0
176
     1
290
     0
176
     1
290
     0
176
     1
290
     0
176
     1
290
     0
176
     1
 90
       50
176
     1
 40
0.0
176
     1
 40
1.0
176
     1
 90
        0
176
     1
 62
    18
420
        0
176
     1
 90
       50
176
     1
 90
        3
176
     1
 62
     5
420
      255
176
     1
290
     0
176
     1
 90
       50
176
     1
 90
       50
176
     1
 90
       50
176
     1
290
     0
176
     1
 90
       50
176
     1
 62
   256
176
     0
 40
1.0
176
     0
 90
        2
176
     1
  1
strokes_ogs.tif
176
     1
290
     0
176
     1
 40
1.0
176
     1
 40
1.0
176
     1
  0
VISUALSTYLE
  5
10027
102
{ACAD_REACTORS
330
1001C
102
}
330
1001C
100
AcDbVisualStyle
  2
Dim
 70
    11
177
     3
291
     1
 70
    58
 90
        2
176
     1
 90
        2
176
     1
 90
        0
176
     1
 90
        0
176
     1
 40
0.6
176
     1
 40
30.0
176
     1
 62
     7
420
 16777215
176
     1
 90
        1
176
     1
 90
        4
176
     1
 62
     7
176
     1
 62
   257
176
     1
 90
        1
176
     1
 90
        1
176
     1
 40
1.0
176
     1
 90
        8
176
     1
 62
     7
176
     1
 40
1.0
176
     1
 90
        1
176
     1
 90
        6
176
     1
 90
        2
176
     1
 62
     7
176
     1
 90
        5
176
     1
 90
        0
176
     1
 90
        0
176
     1
290
     0
176
     1
 90
        1
176
     1
 40
-50.0
176
     1
 90
        0
176
     1
290
     0
176
     1
290
     1
176
     1
290
     1
176
     1
290
     0
176
     1
290
     0
176
     1
290
     0
176
     1
290
     0
176
     1
290
     0
176
     1
290
     0
176
     1
 90
       50
176
     1
 40
0.0
176
     1
 40
1.0
176
     1
 90
        0
176
     1
 62
    18
420
        0
176
     1
 90
       50
176
     1
 90
        3
176
     1
 62
     5
420
      255
176
     1
290
     0
176
     1
 90
       50
176
     1
 90
       50
176
     1
 90
       50
176
     1
290
     0
176
     1
 90
       50
176
     1
 62
   256
176
     0
 40
1.0
176
     0
 90
        2
176
     1
  1
strokes_ogs.tif
176
     1
290
     0
176
     1
 40
1.0
176
     1
 40
1.0
176
     1
  0
VISUALSTYLE
  5
10034
102
{ACAD_REACTORS
330
1001C
102
}
330
1001C
100
AcDbVisualStyle
  2
EdgeColorOff
 70
    22
177
     3
291
     1
 70
    58
 90
        2
176
     0
 90
        2
176
     0
 90
        0
176
     0
 90
        0
176
     0
 40
0.6
176
     0
 40
30.0
176
     0
 62
     7
420
 16777215
176
     0
 90
        1
176
     0
 90
        4
176
     0
 62
     7
176
     0
 62
   257
176
     0
 90
        1
176
     0
 90
        1
176
     0
 40
1.0
176
     0
 90
        8
176
     2
 62
     7
176
     0
 40
1.0
176
     0
 90
        1
176
     0
 90
        6
176
     0
 90
        2
176
     0
 62
     7
176
     0
 90
        5
176
     0
 90
        0
176
     0
 90
        0
176
     0
290
     0
176
     0
 90
        1
176
     0
 40
0.0
176
     0
 90
        0
176
     0
290
     0
176
     1
290
     1
176
     1
290
     1
176
     1
290
     0
176
     1
290
     0
176
     1
290
     0
176
     1
290
     0
176
     1
290
     0
176
     1
290
     0
176
     1
 90
       50
176
     0
 40
0.0
176
     0
 40
1.0
176
     0
 90
        0
176
     0
 62
    18
420
        0
176
     0
 90
       50
176
     0
 90
        3
176
     0
 62
     5
420
      255
176
     0
290
     0
176
     1
 90
       50
176
     0
 90
       50
176
     0
 90
       50
176
     0
290
     0
176
     1
 90
       50
176
     0
 62
   256
176
     0
 40
1.0
176
     0
 90
        2
176
     0
  1
strokes_ogs.tif
176
     0
290
     0
176
     1
 40
1.0
176
     0
 40
1.0
176
     0
  0
VISUALSTYLE
  5
1002B
102
{ACAD_REACTORS
330
1001C
102
}
330
1001C
100
AcDbVisualStyle
  2
Facepattern
 70
    15
177
     3
291
     1
 70
    58
 90
        2
176
     1
 90
        2
176
     1
 90
        0
176
     1
 90
        0
176
     1
 40
0.6
176
     1
 40
30.0
176
     1
 62
     7
420
 16777215
176
     1
 90
        1
176
     1
 90
        4
176
     1
 62
     7
176
     1
 62
   257
176
     1
 90
        1
176
     1
 90
        1
176
     1
 40
1.0
176
     1
 90
        8
176
     1
 62
     7
176
     1
 40
1.0
176
     1
 90
        1
176
     1
 90
        6
176
     1
 90
        2
176
     1
 62
     7
176
     1
 90
        5
176
     1
 90
        0
176
     1
 90
        0
176
     1
290
     0
176
     1
 90
        1
176
     1
 40
0.0
176
     1
 90
        0
176
     1
290
     0
176
     1
290
     1
176
     1
290
     1
176
     1
290
     0
176
     1
290
     0
176
     1
290
     0
176
     1
290
     0
176
     1
290
     0
176
     1
290
     0
176
     1
 90
       50
176
     1
 40
0.0
176
     1
 40
1.0
176
     1
 90
        0
176
     1
 62
    18
420
        0
176
     1
 90
       50
176
     1
 90
        3
176
     1
 62
     5
420
      255
176
     1
290
     0
176
     1
 90
       50
176
     1
 90
       50
176
     1
 90
       50
176
     1
290
     0
176
     1
 90
       50
176
     1
 62
   256
176
     0
 40
1.0
176
     0
 90
        2
176
     1
  1
strokes_ogs.tif
176
     1
290
     0
176
     1
 40
1.0
176
     1
 40
1.0
176
     1
  0
VISUALSTYLE
  5
1001D
102
{ACAD_REACTORS
330
1001C
102
}
330
1001C
100
AcDbVisualStyle
  2
Flat
 70
     0
177
     3
291
     1
 70
    58
 90
        2
176
     1
 90
        1
176
     1
 90
        1
176
     1
 90
        2
176
     1
 40
0.6
176
     1
 40
30.0
176
     1
 62
     7
420
 16777215
176
     1
 90
        0
176
     1
 90
        0
176
     1
 62
     7
176
     1
 62
   257
176
     1
 90
        1
176
     1
 90
        1
176
     1
 40
1.0
176
     1
 90
        8
176
     1
 62
     7
176
     1
 40
1.0
176
     1
 90
        1
176
     1
 90
        6
176
     1
 90
        2
176
     1
 62
     7
176
     1
 90
        5
176
     1
 90
        0
176
     1
 90
        0
176
     1
290
     0
176
     1
 90
       13
176
     1
 40
0.0
176
     1
 90
        0
176
     1
290
     0
176
     1
290
     1
176
     1
290
     1
176
     1
290
     0
176
     1
290
     0
176
     1
290
     0
176
     1
290
     0
176
     1
290
     0
176
     1
290
     0
176
     1
 90
       50
176
     1
 40
0.0
176
     1
 40
1.0
176
     1
 90
        0
176
     1
 62
    18
420
        0
176
     1
 90
       50
176
     1
 90
        3
176
     1
 62
     5
420
      255
176
     1
290
     0
176
     1
 90
       50
176
     1
 90
       50
176
     1
 90
       50
176
     1
290
     0
176
     1
 90
       50
176
     1
 62
   256
176
     0
 40
1.0
176
     0
 90
        2
176
     1
  1
strokes_ogs.tif
176
     1
290
     0
176
     1
 40
1.0
176
     1
 40
1.0
176
     1
  0
VISUALSTYLE
  5
1001E
102
{ACAD_REACTORS
330
1001C
102
}
330
1001C
100
AcDbVisualStyle
  2
FlatWithEdges
 70
     1
177
     3
291
     1
 70
    58
 90
        2
176
     1
 90
        1
176
     1
 90
        1
176
     1
 90
        2
176
     1
 40
0.6
176
     1
 40
30.0
176
     1
 62
     7
420
 16777215
176
     1
 90
        1
176
     1
 90
        0
176
     1
 62
     7
176
     1
 62
   257
176
     1
 90
        1
176
     1
 90
        1
176
     1
 40
1.0
176
     1
 90
        0
176
     1
 62
   257
176
     1
 40
1.0
176
     1
 90
        1
176
     1
 90
        6
176
     1
 90
        2
176
     1
 62
     7
176
     1
 90
        5
176
     1
 90
        0
176
     1
 90
        0
176
     1
290
     0
176
     1
 90
       13
176
     1
 40
0.0
176
     1
 90
        0
176
     1
290
     0
176
     1
290
     1
176
     1
290
     1
176
     1
290
     0
176
     1
290
     0
176
     1
290
     0
176
     1
290
     0
176
     1
290
     0
176
     1
290
     0
176
     1
 90
       50
176
     1
 40
0.0
176
     1
 40
1.0
176
     1
 90
        0
176
     1
 62
    18
420
        0
176
     1
 90
       50
176
     1
 90
        3
176
     1
 62
     5
420
      255
176
     1
290
     0
176
     1
 90
       50
176
     1
 90
       50
176
     1
 90
       50
176
     1
290
     0
176
     1
 90
       50
176
     1
 62
   256
176
     0
 40
1.0
176
     0
 90
        2
176
     1
  1
strokes_ogs.tif
176
     1
290
     0
176
     1
 40
1.0
176
     1
 40
1.0
176
     1
  0
VISUALSTYLE
  5
1001F
102
{ACAD_REACTORS
330
1001C
102
}
330
1001C
100
AcDbVisualStyle
  2
Gouraud
 70
     2
177
     3
291
     1
 70
    58
 90
        2
176
     1
 90
        2
176
     1
 90
        1
176
     1
 90
        2
176
     1
 40
0.6
176
     1
 40
30.0
176
     1
 62
     7
420
 16777215
176
     1
 90
        0
176
     1
 90
        0
176
     1
 62
     7
176
     1
 62
   257
176
     1
 90
        1
176
     1
 90
        1
176
     1
 40
1.0
176
     1
 90
        0
176
     1
 62
     7
176
     1
 40
1.0
176
     1
 90
        1
176
     1
 90
        6
176
     1
 90
        2
176
     1
 62
     7
176
     1
 90
        5
176
     1
 90
        0
176
     1
 90
        0
176
     1
290
     0
176
     1
 90
       13
176
     1
 40
0.0
176
     1
 90
        0
176
     1
290
     0
176
     1
290
     1
176
     1
290
     1
176
     1
290
     0
176
     1
290
     0
176
     1
290
     0
176
     1
290
     0
176
     1
290
     0
176
     1
290
     0
176
     1
 90
       50
176
     1
 40
0.0
176
     1
 40
1.0
176
     1
 90
        0
176
     1
 62
    18
420
        0
176
     1
 90
       50
176
     1
 90
        3
176
     1
 62
     5
420
      255
176
     1
290
     0
176
     1
 90
       50
176
     1
 90
       50
176
     1
 90
       50
176
     1
290
     0
176
     1
 90
       50
176
     1
 62
   256
176
     0
 40
1.0
176
     0
 90
        2
176
     1
  1
strokes_ogs.tif
176
     1
290
     0
176
     1
 40
1.0
176
     1
 40
1.0
176
     1
  0
VISUALSTYLE
  5
10020
102
{ACAD_REACTORS
330
1001C
102
}
330
1001C
100
AcDbVisualStyle
  2
GouraudWithEdges
 70
     3
177
     3
291
     1
 70
    58
 90
        2
176
     1
 90
        2
176
     1
 90
        1
176
     1
 90
        2
176
     1
 40
0.6
176
     1
 40
30.0
176
     1
 62
     7
420
 16777215
176
     1
 90
        1
176
     1
 90
        0
176
     1
 62
     7
176
     1
 62
   257
176
     1
 90
        1
176
     1
 90
        1
176
     1
 40
1.0
176
     1
 90
        0
176
     1
 62
   257
176
     1
 40
1.0
176
     1
 90
        1
176
     1
 90
        6
176
     1
 90
        2
176
     1
 62
     7
176
     1
 90
        5
176
     1
 90
        0
176
     1
 90
        0
176
     1
290
     0
176
     1
 90
       13
176
     1
 40
0.0
176
     1
 90
        0
176
     1
290
     0
176
     1
290
     1
176
     1
290
     1
176
     1
290
     0
176
     1
290
     0
176
     1
290
     0
176
     1
290
     0
176
     1
290
     0
176
     1
290
     0
176
     1
 90
       50
176
     1
 40
0.0
176
     1
 40
1.0
176
     1
 90
        0
176
     1
 62
    18
420
        0
176
     1
 90
       50
176
     1
 90
        3
176
     1
 62
     5
420
      255
176
     1
290
     0
176
     1
 90
       50
176
     1
 90
       50
176
     1
 90
       50
176
     1
290
     0
176
     1
 90
       50
176
     1
 62
   256
176
     0
 40
1.0
176
     0
 90
        2
176
     1
  1
strokes_ogs.tif
176
     1
290
     0
176
     1
 40
1.0
176
     1
 40
1.0
176
     1
  0
VISUALSTYLE
  5
10024
102
{ACAD_REACTORS
330
1001C
102
}
330
1001C
100
AcDbVisualStyle
  2
Hidden
 70
     6
177
     3
291
     0
 70
    58
 90
        1
176
     1
 90
        2
176
     1
 90
        2
176
     1
 90
        0
176
     1
 40
0.6
176
     1
 40
30.0
176
     1
 62
     7
420
 16777215
176
     1
 90
        2
176
     1
 90
        2
176
     1
 62
     7
176
     1
 62
   257
176
     1
 90
        2
176
     1
 90
        1
176
     1
 40
40.0
176
     1
 90
        0
176
     1
 62
   257
176
     1
 40
1.0
176
     1
 90
        1
176
     1
 90
        6
176
     1
 90
        2
176
     1
 62
     7
176
     1
 90
        3
176
     1
 90
        0
176
     1
 90
        0
176
     1
290
     0
176
     1
 90
        1
176
     1
 40
0.0
176
     1
 90
        0
176
     1
290
     0
176
     1
290
     1
176
     1
290
     1
176
     1
290
     0
176
     1
290
     0
176
     1
290
     0
176
     1
290
     0
176
     1
290
     0
176
     1
290
     0
176
     1
 90
       50
176
     1
 40
0.0
176
     1
 40
1.0
176
     1
 90
        0
176
     1
 62
    18
420
        0
176
     1
 90
       50
176
     1
 90
        3
176
     1
 62
     5
420
      255
176
     1
290
     0
176
     1
 90
       50
176
     1
 90
       50
176
     1
 90
       50
176
     1
290
     0
176
     1
 90
       50
176
     1
 62
   256
176
     0
 40
1.0
176
     0
 90
        2
176
     1
  1
strokes_ogs.tif
176
     1
290
     0
176
     1
 40
1.0
176
     1
 40
1.0
176
     1
  0
VISUALSTYLE
  5
10032
102
{ACAD_REACTORS
330
1001C
102
}
330
1001C
100
AcDbVisualStyle
  2
JitterOff
 70
    20
177
     3
291
     1
 70
    58
 90
        2
176
     0
 90
        2
176
     0
 90
        0
176
     0
 90
        0
176
     0
 40
0.6
176
     0
 40
30.0
176
     0
 62
     7
420
 16777215
176
     0
 90
        1
176
     0
 90
        4
176
     0
 62
     7
176
     0
 62
   257
176
     0
 90
        1
176
     0
 90
        1
176
     0
 40
1.0
176
     0
 90
       10
176
     2
 62
     7
176
     0
 40
1.0
176
     0
 90
        1
176
     0
 90
        6
176
     0
 90
        2
176
     0
 62
     7
176
     0
 90
        5
176
     0
 90
        0
176
     0
 90
        0
176
     0
290
     0
176
     0
 90
        1
176
     0
 40
0.0
176
     0
 90
        0
176
     0
290
     0
176
     1
290
     1
176
     1
290
     1
176
     1
290
     0
176
     1
290
     0
176
     1
290
     0
176
     1
290
     0
176
     1
290
     0
176
     1
290
     0
176
     1
 90
       50
176
     0
 40
0.0
176
     0
 40
1.0
176
     0
 90
        0
176
     0
 62
    18
420
        0
176
     0
 90
       50
176
     0
 90
        3
176
     0
 62
     5
420
      255
176
     0
290
     0
176
     1
 90
       50
176
     0
 90
       50
176
     0
 90
       50
176
     0
290
     0
176
     1
 90
       50
176
     0
 62
   256
176
     0
 40
1.0
176
     0
 90
        2
176
     0
  1
strokes_ogs.tif
176
     0
290
     0
176
     1
 40
1.0
176
     0
 40
1.0
176
     0
  0
VISUALSTYLE
  5
1002A
102
{ACAD_REACTORS
330
1001C
102
}
330
1001C
100
AcDbVisualStyle
  2
Linepattern
 70
    14
177
     3
291
     1
 70
    58
 90
        2
176
     1
 90
        2
176
     1
 90
        0
176
     1
 90
        0
176
     1
 40
0.6
176
     1
 40
30.0
176
     1
 62
     7
420
 16777215
176
     1
 90
        1
176
     1
 90
        4
176
     1
 62
     7
176
     1
 62
   257
176
     1
 90
        7
176
     1
 90
        7
176
     1
 40
1.0
176
     1
 90
        8
176
     1
 62
     7
176
     1
 40
1.0
176
     1
 90
        1
176
     1
 90
        6
176
     1
 90
        2
176
     1
 62
     7
176
     1
 90
        5
176
     1
 90
        0
176
     1
 90
        0
176
     1
290
     0
176
     1
 90
        1
176
     1
 40
0.0
176
     1
 90
        0
176
     1
290
     0
176
     1
290
     1
176
     1
290
     1
176
     1
290
     0
176
     1
290
     0
176
     1
290
     0
176
     1
290
     0
176
     1
290
     0
176
     1
290
     0
176
     1
 90
       50
176
     1
 40
0.0
176
     1
 40
1.0
176
     1
 90
        0
176
     1
 62
    18
420
        0
176
     1
 90
       50
176
     1
 90
        3
176
     1
 62
     5
420
      255
176
     1
290
     0
176
     1
 90
       50
176
     1
 90
       50
176
     1
 90
       50
176
     1
290
     0
176
     1
 90
       50
176
     1
 62
   256
176
     0
 40
1.0
176
     0
 90
        2
176
     1
  1
strokes_ogs.tif
176
     1
290
     0
176
     1
 40
1.0
176
     1
 40
1.0
176
     1
  0
VISUALSTYLE
  5
10033
102
{ACAD_REACTORS
330
1001C
102
}
330
1001C
100
AcDbVisualStyle
  2
OverhangOff
 70
    21
177
     3
291
     1
 70
    58
 90
        2
176
     0
 90
        2
176
     0
 90
        0
176
     0
 90
        0
176
     0
 40
0.6
176
     0
 40
30.0
176
     0
 62
     7
420
 16777215
176
     0
 90
        1
176
     0
 90
        4
176
     0
 62
     7
176
     0
 62
   257
176
     0
 90
        1
176
     0
 90
        1
176
     0
 40
1.0
176
     0
 90
        9
176
     2
 62
     7
176
     0
 40
1.0
176
     0
 90
        1
176
     0
 90
        6
176
     0
 90
        2
176
     0
 62
     7
176
     0
 90
        5
176
     0
 90
        0
176
     0
 90
        0
176
     0
290
     0
176
     0
 90
        1
176
     0
 40
0.0
176
     0
 90
        0
176
     0
290
     0
176
     1
290
     1
176
     1
290
     1
176
     1
290
     0
176
     1
290
     0
176
     1
290
     0
176
     1
290
     0
176
     1
290
     0
176
     1
290
     0
176
     1
 90
       50
176
     0
 40
0.0
176
     0
 40
1.0
176
     0
 90
        0
176
     0
 62
    18
420
        0
176
     0
 90
       50
176
     0
 90
        3
176
     0
 62
     5
420
      255
176
     0
290
     0
176
     1
 90
       50
176
     0
 90
       50
176
     0
 90
       50
176
     0
290
     0
176
     1
 90
       50
176
     0
 62
   256
176
     0
 40
1.0
176
     0
 90
        2
176
     0
  1
strokes_ogs.tif
176
     0
290
     0
176
     1
 40
1.0
176
     0
 40
1.0
176
     0
  0
VISUALSTYLE
  5
10026
102
{ACAD_REACTORS
330
1001C
102
}
330
1001C
100
AcDbVisualStyle
  2
Realistic
 70
     8
177
     3
291
     0
 70
    58
 90
        2
176
     1
 90
        3
176
     1
 90
        0
176
     1
 90
        2
176
     1
 40
0.6
176
     1
 40
30.0
176
     1
 62
     7
420
 16777215
176
     1
 90
        0
176
     1
 90
        0
176
     1
 62
     7
176
     1
 62
   257
176
     1
 90
        1
176
     1
 90
        1
176
     1
 40
1.0
176
     1
 90
        8
176
     1
 62
   257
176
     1
 40
1.0
176
     1
 90
        1
176
     1
 90
        6
176
     1
 90
        2
176
     1
 62
     7
176
     1
 90
        3
176
     1
 90
        0
176
     1
 90
        0
176
     1
290
     0
176
     1
 90
       13
176
     1
 40
0.0
176
     1
 90
        0
176
     1
290
     0
176
     1
290
     1
176
     1
290
     1
176
     1
290
     0
176
     1
290
     0
176
     1
290
     0
176
     1
290
     0
176
     1
290
     0
176
     1
290
     0
176
     1
 90
       50
176
     1
 40
0.0
176
     1
 40
1.0
176
     1
 90
        0
176
     1
 62
    18
420
        0
176
     1
 90
       50
176
     1
 90
        3
176
     1
 62
     5
420
      255
176
     1
290
     0
176
     1
 90
       50
176
     1
 90
       50
176
     1
 90
       50
176
     1
290
     0
176
     1
 90
       50
176
     1
 62
   256
176
     0
 40
1.0
176
     0
 90
        2
176
     1
  1
strokes_ogs.tif
176
     1
290
     0
176
     1
 40
1.0
176
     1
 40
1.0
176
     1
  0
VISUALSTYLE
  5
10031
102
{ACAD_REACTORS
330
1001C
102
}
330
1001C
100
AcDbVisualStyle
  2
Shaded
 70
    27
177
     3
291
     0
 70
    58
 90
        2
176
     1
 90
        2
176
     1
 90
        1
176
     1
 90
        2
176
     1
 40
0.6
176
     1
 40
30.0
176
     1
 62
     7
420
 16777215
176
     1
 90
        0
176
     1
 90
        4
176
     1
 62
     7
176
     1
 62
   257
176
     1
 90
        1
176
     1
 90
        1
176
     1
 40
1.0
176
     1
 90
        8
176
     1
 62
   257
176
     1
 40
1.0
176
     1
 90
        1
176
     1
 90
        6
176
     1
 90
        2
176
     1
 62
     8
420
  7895160
176
     1
 90
        3
176
     1
 90
        0
176
     1
 90
        0
176
     1
290
     0
176
     1
 90
        5
176
     1
 40
0.0
176
     1
 90
        0
176
     1
290
     0
176
     1
290
     1
176
     1
290
     1
176
     1
290
     0
176
     1
290
     0
176
     1
290
     0
176
     1
290
     0
176
     1
290
     0
176
     1
290
     0
176
     1
 90
       50
176
     1
 40
0.0
176
     1
 40
1.0
176
     1
 90
        0
176
     1
 62
    18
420
        0
176
     1
 90
       50
176
     1
 90
        3
176
     1
 62
     5
420
      255
176
     1
290
     0
176
     1
 90
       50
176
     1
 90
       50
176
     1
 90
       50
176
     1
290
     0
176
     1
 90
       50
176
     1
 62
   256
176
     0
 40
1.0
176
     0
 90
        2
176
     1
  1
strokes_ogs.tif
176
     1
290
     0
176
     1
 40
1.0
176
     1
 40
1.0
176
     1
  0
VISUALSTYLE
  5
10030
102
{ACAD_REACTORS
330
1001C
102
}
330
1001C
100
AcDbVisualStyle
  2
Shaded with edges
 70
    26
177
     3
291
     0
 70
    58
 90
        2
176
     1
 90
        2
176
     1
 90
        1
176
     1
 90
        2
176
     1
 40
0.6
176
     1
 40
30.0
176
     1
 62
     7
420
 16777215
176
     1
 90
        1
176
     1
 90
        2
176
     1
 62
     7
176
     1
 62
   257
176
     1
 90
        2
176
     1
 90
        1
176
     1
 40
1.0
176
     1
 90
        8
176
     1
 62
   257
176
     1
 40
1.0
176
     1
 90
        1
176
     1
 90
        6
176
     1
 90
        2
176
     1
 62
     7
176
     1
 90
        3
176
     1
 90
        0
176
     1
 90
        0
176
     1
290
     0
176
     1
 90
        5
176
     1
 40
0.0
176
     1
 90
        0
176
     1
290
     0
176
     1
290
     1
176
     1
290
     1
176
     1
290
     0
176
     1
290
     0
176
     1
290
     0
176
     1
290
     0
176
     1
290
     0
176
     1
290
     0
176
     1
 90
       50
176
     1
 40
0.0
176
     1
 40
1.0
176
     1
 90
        0
176
     1
 62
    18
420
        0
176
     1
 90
       50
176
     1
 90
        3
176
     1
 62
     5
420
      255
176
     1
290
     0
176
     1
 90
       50
176
     1
 90
       50
176
     1
 90
       50
176
     1
290
     0
176
     1
 90
       50
176
     1
 62
   256
176
     0
 40
1.0
176
     0
 90
        2
176
     1
  1
strokes_ogs.tif
176
     1
290
     0
176
     1
 40
1.0
176
     1
 40
1.0
176
     1
  0
VISUALSTYLE
  5
1002D
102
{ACAD_REACTORS
330
1001C
102
}
330
1001C
100
AcDbVisualStyle
  2
Shades of Gray
 70
    23
177
     3
291
     0
 70
    58
 90
        2
176
     1
 90
        2
176
     1
 90
        3
176
     1
 90
        0
176
     1
 40
0.6
176
     1
 40
30.0
176
     1
 62
     7
420
 16777215
176
     1
 90
        2
176
     1
 90
        2
176
     1
 62
     7
176
     1
 62
     7
176
     1
 90
        1
176
     1
 90
        1
176
     1
 40
40.0
176
     1
 90
        8
176
     1
 62
     7
176
     1
 40
1.0
176
     1
 90
        1
176
     1
 90
        6
176
     1
 90
        2
176
     1
 62
     7
176
     1
 90
        3
176
     1
 90
        0
176
     1
 90
        0
176
     1
290
     0
176
     1
 90
        1
176
     1
 40
0.0
176
     1
 90
        0
176
     1
290
     0
176
     1
290
     1
176
     1
290
     1
176
     1
290
     0
176
     1
290
     0
176
     1
290
     0
176
     1
290
     0
176
     1
290
     0
176
     1
290
     0
176
     1
 90
       50
176
     1
 40
0.0
176
     1
 40
1.0
176
     1
 90
        0
176
     1
 62
    18
420
        0
176
     1
 90
       50
176
     1
 90
        3
176
     1
 62
     5
420
      255
176
     1
290
     0
176
     1
 90
       50
176
     1
 90
       50
176
     1
 90
       50
176
     1
290
     0
176
     1
 90
       50
176
     1
 62
   256
176
     0
 40
1.0
176
     0
 90
        2
176
     1
  1
strokes_ogs.tif
176
     1
290
     0
176
     1
 40
1.0
176
     1
 40
1.0
176
     1
  0
VISUALSTYLE
  5
1002E
102
{ACAD_REACTORS
330
1001C
102
}
330
1001C
100
AcDbVisualStyle
  2
Sketchy
 70
    24
177
     3
291
     0
 70
    58
 90
        1
176
     1
 90
        2
176
     1
 90
        2
176
     1
 90
        0
176
     1
 40
0.6
176
     1
 40
30.0
176
     1
 62
     7
420
 16777215
176
     1
 90
        2
176
     1
 90
        2
176
     1
 62
     7
176
     1
 62
     7
176
     1
 90
        1
176
     1
 90
        1
176
     1
 40
40.0
176
     1
 90
       11
176
     1
 62
     7
176
     1
 40
1.0
176
     1
 90
        1
176
     1
 90
        6
176
     1
 90
        2
176
     1
 62
     7
176
     1
 90
        6
176
     1
 90
        0
176
     1
 90
        0
176
     1
290
     0
176
     1
 90
        1
176
     1
 40
0.0
176
     1
 90
        0
176
     1
290
     0
176
     1
290
     1
176
     1
290
     1
176
     1
290
     0
176
     1
290
     0
176
     1
290
     0
176
     1
290
     0
176
     1
290
     0
176
     1
290
     0
176
     1
 90
       50
176
     1
 40
0.0
176
     1
 40
1.0
176
     1
 90
        0
176
     1
 62
    18
420
        0
176
     1
 90
       50
176
     1
 90
        3
176
     1
 62
     5
420
      255
176
     1
290
     0
176
     1
 90
       50
176
     1
 90
       50
176
     1
 90
       50
176
     1
290
     0
176
     1
 90
       50
176
     1
 62
   256
176
     0
 40
1.0
176
     0
 90
        2
176
     1
  1
strokes_ogs.tif
176
     1
290
     0
176
     1
 40
1.0
176
     1
 40
1.0
176
     1
  0
VISUALSTYLE
  5
10029
102
{ACAD_REACTORS
330
1001C
102
}
330
1001C
100
AcDbVisualStyle
  2
Thicken
 70
    13
177
     3
291
     1
 70
    58
 90
        2
176
     1
 90
        2
176
     1
 90
        0
176
     1
 90
        0
176
     1
 40
0.6
176
     1
 40
30.0
176
     1
 62
     7
420
 16777215
176
     1
 90
        1
176
     1
 90
        4
176
     1
 62
     7
176
     1
 62
   257
176
     1
 90
        1
176
     1
 90
        1
176
     1
 40
1.0
176
     1
 90
       12
176
     1
 62
     7
176
     1
 40
1.0
176
     1
 90
        1
176
     1
 90
        6
176
     1
 90
        2
176
     1
 62
     7
176
     1
 90
        5
176
     1
 90
        0
176
     1
 90
        0
176
     1
290
     0
176
     1
 90
        1
176
     1
 40
0.0
176
     1
 90
        0
176
     1
290
     0
176
     1
290
     1
176
     1
290
     1
176
     1
290
     0
176
     1
290
     0
176
     1
290
     0
176
     1
290
     0
176
     1
290
     0
176
     1
290
     0
176
     1
 90
       50
176
     1
 40
0.0
176
     1
 40
1.0
176
     1
 90
        0
176
     1
 62
    18
420
        0
176
     1
 90
       50
176
     1
 90
        3
176
     1
 62
     5
420
      255
176
     1
290
     0
176
     1
 90
       50
176
     1
 90
       50
176
     1
 90
       50
176
     1
290
     0
176
     1
 90
       50
176
     1
 62
   256
176
     0
 40
1.0
176
     0
 90
        2
176
     1
  1
strokes_ogs.tif
176
     1
290
     0
176
     1
 40
1.0
176
     1
 40
1.0
176
     1
  0
VISUALSTYLE
  5
10023
102
{ACAD_REACTORS
330
1001C
102
}
330
1001C
100
AcDbVisualStyle
  2
Wireframe
 70
     5
177
     3
291
     0
 70
    58
 90
        0
176
     1
 90
        2
176
     1
 90
        0
176
     1
 90
        0
176
     1
 40
0.6
176
     1
 40
30.0
176
     1
 62
     7
420
 16777215
176
     1
 90
        1
176
     1
 90
        4
176
     1
 62
     7
176
     1
 62
   257
176
     1
 90
        1
176
     1
 90
        1
176
     1
 40
1.0
176
     1
 90
        0
176
     1
 62
   257
176
     1
 40
1.0
176
     1
 90
        1
176
     1
 90
        6
176
     1
 90
        2
176
     1
 62
     7
176
     1
 90
        3
176
     1
 90
        0
176
     1
 90
        0
176
     1
290
     0
176
     1
 90
        1
176
     1
 40
0.0
176
     1
 90
        0
176
     1
290
     0
176
     1
290
     1
176
     1
290
     1
176
     1
290
     0
176
     1
290
     0
176
     1
290
     0
176
     1
290
     0
176
     1
290
     0
176
     1
290
     0
176
     1
 90
       50
176
     1
 40
0.0
176
     1
 40
1.0
176
     1
 90
        0
176
     1
 62
    18
420
        0
176
     1
 90
       50
176
     1
 90
        3
176
     1
 62
     5
420
      255
176
     1
290
     0
176
     1
 90
       50
176
     1
 90
       50
176
     1
 90
       50
176
     1
290
     0
176
     1
 90
       50
176
     1
 62
   256
176
     0
 40
1.0
176
     0
 90
        2
176
     1
  1
strokes_ogs.tif
176
     1
290
     0
176
     1
 40
1.0
176
     1
 40
1.0
176
     1
  0
VISUALSTYLE
  5
1002F
102
{ACAD_REACTORS
330
1001C
102
}
330
1001C
100
AcDbVisualStyle
  2
X-Ray
 70
    25
177
     3
291
     0
 70
    58
 90
        2
176
     1
 90
        2
176
     1
 90
        1
176
     1
 90
        1
176
     1
 40
0.5
176
     1
 40
30.0
176
     1
 62
     7
420
 16777215
176
     1
 90
        1
176
     1
 90
        0
176
     1
 62
     7
176
     1
 62
   257
176
     1
 90
        1
176
     1
 90
        1
176
     1
 40
1.0
176
     1
 90
        8
176
     1
 62
     7
176
     1
 40
1.0
176
     1
 90
        1
176
     1
 90
        6
176
     1
 90
        2
176
     1
 62
     7
176
     1
 90
        3
176
     1
 90
        0
176
     1
 90
        0
176
     1
290
     0
176
     1
 90
       13
176
     1
 40
0.0
176
     1
 90
        0
176
     1
290
     0
176
     1
290
     1
176
     1
290
     1
176
     1
290
     0
176
     1
290
     0
176
     1
290
     0
176
     1
290
     0
176
     1
290
     0
176
     1
290
     0
176
     1
 90
       50
176
     1
 40
0.0
176
     1
 40
1.0
176
     1
 90
        0
176
     1
 62
    18
420
        0
176
     1
 90
       50
176
     1
 90
        3
176
     1
 62
     5
420
      255
176
     1
290
     0
176
     1
 90
       50
176
     1
 90
       50
176
     1
 90
       50
176
     1
290
     0
176
     1
 90
       50
176
     1
 62
   256
176
     0
 40
1.0
176
     0
 90
        2
176
     1
  1
strokes_ogs.tif
176
     1
290
     0
176
     1
 40
1.0
176
     1
 40
1.0
176
     1
  0
DICTIONARYVAR
  5
10075
102
{ACAD_REACTORS
330
1006F
102
}
330
1006F
100
DictionaryVariables
280
     0
  1
1:1
  0
DICTIONARYVAR
  5
10071
102
{ACAD_REACTORS
330
1006F
102
}
330
1006F
100
DictionaryVariables
280
     0
  1
STANDARD
  0
DICTIONARYVAR
  5
10070
102
{ACAD_REACTORS
330
1006F
102
}
330
1006F
100
DictionaryVariables
280
     0
  1
STANDARD
  0
DICTIONARYVAR
  5
10072
102
{ACAD_REACTORS
330
1006F
102
}
330
1006F
100
DictionaryVariables
280
     0
  1
Metric50
  0
DICTIONARYVAR
  5
10073
102
{ACAD_REACTORS
330
1006F
102
}
330
1006F
100
DictionaryVariables
280
     0
  1
Metric50
  0
DICTIONARYVAR
  5
10077
102
{ACAD_REACTORS
330
1006F
102
}
330
1006F
100
DictionaryVariables
280
     0
  1
1
  0
DICTIONARYVAR
  5
10078
102
{ACAD_REACTORS
330
1006F
102
}
330
1006F
100
DictionaryVariables
280
     0
  1
15
  0
DICTIONARYVAR
  5
10076
102
{ACAD_REACTORS
330
1006F
102
}
330
1006F
100
DictionaryVariables
280
     0
  1
0
  0
DICTIONARYVAR
  5
10074
102
{ACAD_REACTORS
330
1006F
102
}
330
1006F
100
DictionaryVariables
280
     0
  1
0
  0
DICTIONARY
  5
1000D
330
1000C
100
AcDbDictionary
280
     1
281
     1
  3
BUMPTILE
360
1000F
  3
DIFFUSETILE
360
1000E
  3
OPACITYTILE
360
10012
  3
REFLECTIONTILE
360
10011
  3
REFRACTIONTILE
360
10013
  3
SPECULARTILE
360
10010
  0
DICTIONARY
  5
10005
330
10004
100
AcDbDictionary
280
     1
281
     1
  3
BUMPTILE
360
10007
  3
DIFFUSETILE
360
10006
  3
OPACITYTILE
360
1000A
  3
REFLECTIONTILE
360
10009
  3
REFRACTIONTILE
360
1000B
  3
SPECULARTILE
360
10008
  0
DICTIONARY
  5
10015
330
10014
100
AcDbDictionary
280
     1
281
     1
  3
BUMPTILE
360
10017
  3
DIFFUSETILE
360
10016
  3
OPACITYTILE
360
1001A
  3
REFLECTIONTILE
360
10019
  3
REFRACTIONTILE
360
1001B
  3
SPECULARTILE
360
10018
  0
DICTIONARY
  5
101A9
330
10038
100
AcDbDictionary
280
     1
281
     1
  3
ACAD_ROUNDTRIP_2008_TABLESTYLE_CELLSTYLEMAP
360
101AA
  0
XRECORD
  5
1000F
102
{ACAD_REACTORS
330
1000D
102
}
330
1000D
100
AcDbXrecord
280
     1
270
     1
271
     1
  0
XRECORD
  5
1000E
102
{ACAD_REACTORS
330
1000D
102
}
330
1000D
100
AcDbXrecord
280
     1
270
     1
271
     1
  0
XRECORD
  5
10012
102
{ACAD_REACTORS
330
1000D
102
}
330
1000D
100
AcDbXrecord
280
     1
270
     1
271
     1
  0
XRECORD
  5
10011
102
{ACAD_REACTORS
330
1000D
102
}
330
1000D
100
AcDbXrecord
280
     1
270
     1
271
     1
  0
XRECORD
  5
10013
102
{ACAD_REACTORS
330
1000D
102
}
330
1000D
100
AcDbXrecord
280
     1
270
     1
271
     1
  0
XRECORD
  5
10010
102
{ACAD_REACTORS
330
1000D
102
}
330
1000D
100
AcDbXrecord
280
     1
270
     1
271
     1
  0
XRECORD
  5
10007
102
{ACAD_REACTORS
330
10005
102
}
330
10005
100
AcDbXrecord
280
     1
270
     1
271
     1
  0
XRECORD
  5
10006
102
{ACAD_REACTORS
330
10005
102
}
330
10005
100
AcDbXrecord
280
     1
270
     1
271
     1
  0
XRECORD
  5
1000A
102
{ACAD_REACTORS
330
10005
102
}
330
10005
100
AcDbXrecord
280
     1
270
     1
271
     1
  0
XRECORD
  5
10009
102
{ACAD_REACTORS
330
10005
102
}
330
10005
100
AcDbXrecord
280
     1
270
     1
271
     1
  0
XRECORD
  5
1000B
102
{ACAD_REACTORS
330
10005
102
}
330
10005
100
AcDbXrecord
280
     1
270
     1
271
     1
  0
XRECORD
  5
10008
102
{ACAD_REACTORS
330
10005
102
}
330
10005
100
AcDbXrecord
280
     1
270
     1
271
     1
  0
XRECORD
  5
10017
102
{ACAD_REACTORS
330
10015
102
}
330
10015
100
AcDbXrecord
280
     1
270
     1
271
     1
  0
XRECORD
  5
10016
102
{ACAD_REACTORS
330
10015
102
}
330
10015
100
AcDbXrecord
280
     1
270
     1
271
     1
  0
XRECORD
  5
1001A
102
{ACAD_REACTORS
330
10015
102
}
330
10015
100
AcDbXrecord
280
     1
270
     1
271
     1
  0
XRECORD
  5
10019
102
{ACAD_REACTORS
330
10015
102
}
330
10015
100
AcDbXrecord
280
     1
270
     1
271
     1
  0
XRECORD
  5
1001B
102
{ACAD_REACTORS
330
10015
102
}
330
10015
100
AcDbXrecord
280
     1
270
     1
271
     1
  0
XRECORD
  5
10018
102
{ACAD_REACTORS
330
10015
102
}
330
10015
100
AcDbXrecord
280
     1
270
     1
271
     1
  0
CELLSTYLEMAP
  5
101AA
102
{ACAD_REACTORS
330
101A9
102
}
330
101A9
100
AcDbCellStyleMap
 90
        3
300
CELLSTYLE
  1
TABLEFORMAT_BEGIN
 90
        5
170
     1
 91
        0
 92
    32768
 62
   257
 93
        1
300
CONTENTFORMAT
  1
CONTENTFORMAT_BEGIN
 90
        0
 91
        0
 92
      512
 93
        0
300

 40
0.0
140
1.0
 94
        5
 62
     0
340
11
144
6.0
309
CONTENTFORMAT_END
171
     1
301
MARGIN
  1
CELLMARGIN_BEGIN
 40
1.5
 40
1.5
 40
1.5
 40
1.5
 40
4.5
 40
4.5
309
CELLMARGIN_END
 94
        6
 95
        1
302
GRIDFORMAT
  1
GRIDFORMAT_BEGIN
 90
        0
 91
        1
 62
     0
 92
       -2
340
0
 93
        0
 40
1.125
309
GRIDFORMAT_END
 95
        2
302
GRIDFORMAT
  1
GRIDFORMAT_BEGIN
 90
        0
 91
        1
 62
     0
 92
       -2
340
0
 93
        0
 40
1.125
309
GRIDFORMAT_END
 95
        4
302
GRIDFORMAT
  1
GRIDFORMAT_BEGIN
 90
        0
 91
        1
 62
     0
 92
       -2
340
0
 93
        0
 40
1.125
309
GRIDFORMAT_END
 95
        8
302
GRIDFORMAT
  1
GRIDFORMAT_BEGIN
 90
        0
 91
        1
 62
     0
 92
       -2
340
0
 93
        0
 40
1.125
309
GRIDFORMAT_END
 95
       16
302
GRIDFORMAT
  1
GRIDFORMAT_BEGIN
 90
        0
 91
        1
 62
     0
 92
       -2
340
0
 93
        0
 40
1.125
309
GRIDFORMAT_END
 95
       32
302
GRIDFORMAT
  1
GRIDFORMAT_BEGIN
 90
        0
 91
        1
 62
     0
 92
       -2
340
0
 93
        0
 40
1.125
309
GRIDFORMAT_END
309
TABLEFORMAT_END
  1
CELLSTYLE_BEGIN
 90
        1
 91
        1
300
_TITLE
309
CELLSTYLE_END
300
CELLSTYLE
  1
TABLEFORMAT_BEGIN
 90
        5
170
     1
 91
        0
 92
        0
 62
   257
 93
        1
300
CONTENTFORMAT
  1
CONTENTFORMAT_BEGIN
 90
        0
 91
        0
 92
      512
 93
        0
300

 40
0.0
140
1.0
 94
        5
 62
     0
340
11
144
4.5
309
CONTENTFORMAT_END
171
     1
301
MARGIN
  1
CELLMARGIN_BEGIN
 40
1.5
 40
1.5
 40
1.5
 40
1.5
 40
4.5
 40
4.5
309
CELLMARGIN_END
 94
        6
 95
        1
302
GRIDFORMAT
  1
GRIDFORMAT_BEGIN
 90
        0
 91
        1
 62
     0
 92
       -2
340
0
 93
        0
 40
1.125
309
GRIDFORMAT_END
 95
        2
302
GRIDFORMAT
  1
GRIDFORMAT_BEGIN
 90
        0
 91
        1
 62
     0
 92
       -2
340
0
 93
        0
 40
1.125
309
GRIDFORMAT_END
 95
        4
302
GRIDFORMAT
  1
GRIDFORMAT_BEGIN
 90
        0
 91
        1
 62
     0
 92
       -2
340
0
 93
        0
 40
1.125
309
GRIDFORMAT_END
 95
        8
302
GRIDFORMAT
  1
GRIDFORMAT_BEGIN
 90
        0
 91
        1
 62
     0
 92
       -2
340
0
 93
        0
 40
1.125
309
GRIDFORMAT_END
 95
       16
302
GRIDFORMAT
  1
GRIDFORMAT_BEGIN
 90
        0
 91
        1
 62
     0
 92
       -2
340
0
 93
        0
 40
1.125
309
GRIDFORMAT_END
 95
       32
302
GRIDFORMAT
  1
GRIDFORMAT_BEGIN
 90
        0
 91
        1
 62
     0
 92
       -2
340
0
 93
        0
 40
1.125
309
GRIDFORMAT_END
309
TABLEFORMAT_END
  1
CELLSTYLE_BEGIN
 90
        2
 91
        1
300
_HEADER
309
CELLSTYLE_END
300
CELLSTYLE
  1
TABLEFORMAT_BEGIN
 90
        5
170
     1
 91
        0
 92
        0
 62
   257
 93
        1
300
CONTENTFORMAT
  1
CONTENTFORMAT_BEGIN
 90
        0
 91
        0
 92
      512
 93
        0
300

 40
0.0
140
1.0
 94
        2
 62
     0
340
11
144
4.5
309
CONTENTFORMAT_END
171
     1
301
MARGIN
  1
CELLMARGIN_BEGIN
 40
1.5
 40
1.5
 40
1.5
 40
1.5
 40
4.5
 40
4.5
309
CELLMARGIN_END
 94
        6
 95
        1
302
GRIDFORMAT
  1
GRIDFORMAT_BEGIN
 90
        0
 91
        1
 62
     0
 92
       -2
340
0
 93
        0
 40
1.125
309
GRIDFORMAT_END
 95
        2
302
GRIDFORMAT
  1
GRIDFORMAT_BEGIN
 90
        0
 91
        1
 62
     0
 92
       -2
340
0
 93
        0
 40
1.125
309
GRIDFORMAT_END
 95
        4
302
GRIDFORMAT
  1
GRIDFORMAT_BEGIN
 90
        0
 91
        1
 62
     0
 92
       -2
340
0
 93
        0
 40
1.125
309
GRIDFORMAT_END
 95
        8
302
GRIDFORMAT
  1
GRIDFORMAT_BEGIN
 90
        0
 91
        1
 62
     0
 92
       -2
340
0
 93
        0
 40
1.125
309
GRIDFORMAT_END
 95
       16
302
GRIDFORMAT
  1
GRIDFORMAT_BEGIN
 90
        0
 91
        1
 62
     0
 92
       -2
340
0
 93
        0
 40
1.125
309
GRIDFORMAT_END
 95
       32
302
GRIDFORMAT
  1
GRIDFORMAT_BEGIN
 90
        0
 91
        1
 62
     0
 92
       -2
340
0
 93
        0
 40
1.125
309
GRIDFORMAT_END
309
TABLEFORMAT_END
  1
CELLSTYLE_BEGIN
 90
        3
 91
        2
300
_DATA
309
CELLSTYLE_END
  0
ENDSEC
  0
SECTION
  2
ACDSDATA
 70
     2
 71
     8
  0
ACDSSCHEMA
 90
        0
  1
AcDb_Thumbnail_Schema
  2
AcDbDs::ID
280
    10
 91
        8
  2
Thumbnail_Data
280
    15
 91
        0
101
ACDSRECORD
 95
        0
 90
        1
  2
AcDbDs::TreatedAsObjectData
280
     1
291
     1
101
ACDSRECORD
 95
        0
 90
        2
  2
AcDbDs::Legacy
280
     1
291
     1
101
ACDSRECORD
  1
AcDbDs::ID
 90
        3
  2
AcDs:Indexable
280
     1
291
     1
101
ACDSRECORD
  1
AcDbDs::ID
 90
        4
  2
AcDbDs::HandleAttribute
280
     7
282
     1
  0
ACDSSCHEMA
 90
        1
  1
AcDbDs::TreatedAsObjectDataSchema
  2
AcDbDs::TreatedAsObjectData
280
     1
 91
        0
  0
ACDSSCHEMA
 90
        2
  1
AcDbDs::LegacySchema
  2
AcDbDs::Legacy
280
     1
 91
        0
  0
ACDSSCHEMA
 90
        3
  1
AcDbDs::IndexedPropertySchema
  2
AcDs:Indexable
280
     1
 91
        0
  0
ACDSSCHEMA
 90
        4
  1
AcDbDs::HandleAttributeSchema
  2
AcDbDs::HandleAttribute
280
     7
 91
        1
284
     1
  0
ACDSRECORD
 90
        0
  2
AcDbDs::ID
280
    10
320
10052
  2
Thumbnail_Data
280
    15
 94
     2007
310
89504E470D0A1A0A0000000D4948445200000100000000570803000000DC506BAF00000300504C5445212830FFFFFF2128300000000000000000000000000000000000000000000000000000330000660000990000CC0000FF0033000033330033660033990033CC0033FF0066000066330066660066990066CC0066FF0099
310
000099330099660099990099CC0099FF00CC0000CC3300CC6600CC9900CCCC00CCFF00FF0000FF3300FF6600FF9900FFCC00FFFF3300003300333300663300993300CC3300FF3333003333333333663333993333CC3333FF3366003366333366663366993366CC3366FF3399003399333399663399993399CC3399FF33CC00
310
33CC3333CC6633CC9933CCCC33CCFF33FF0033FF3333FF6633FF9933FFCC33FFFF6600006600336600666600996600CC6600FF6633006633336633666633996633CC6633FF6666006666336666666666996666CC6666FF6699006699336699666699996699CC6699FF66CC0066CC3366CC6666CC9966CCCC66CCFF66FF0066
310
FF3366FF6666FF9966FFCC66FFFF9900009900339900669900999900CC9900FF9933009933339933669933999933CC9933FF9966009966339966669966999966CC9966FF9999009999339999669999999999CC9999FF99CC0099CC3399CC6699CC9999CCCC99CCFF99FF0099FF3399FF6699FF9999FFCC99FFFFCC0000CC00
310
33CC0066CC0099CC00CCCC00FFCC3300CC3333CC3366CC3399CC33CCCC33FFCC6600CC6633CC6666CC6699CC66CCCC66FFCC9900CC9933CC9966CC9999CC99CCCC99FFCCCC00CCCC33CCCC66CCCC99CCCCCCCCCCFFCCFF00CCFF33CCFF66CCFF99CCFFCCCCFFFFFF0000FF0033FF0066FF0099FF00CCFF00FFFF3300FF3333
310
FF3366FF3399FF33CCFF33FFFF6600FF6633FF6666FF6699FF66CCFF66FFFF9900FF9933FF9966FF9999FF99CCFF99FFFFCC00FFCC33FFCC66FFCC99FFCCCCFFCCFFFFFF00FFFF33FFFF66FFFF99FFFFCCFFFFFF0000000D0D0D1A1A1A2828283535354343435050505D5D5D6B6B6B787878868686939393A1A1A1AEAEAEBB
310
BBBBC9C9C9D6D6D6E4E4E4F1F1F1FFFFFF0000000000000000000000000000000000000000000000000000000000002E4550F1000004194944415478DAED9CD992EB200C44F9FFFFEDF7BB549C005A10D0B29D9479989AC924181D1A2140A41462C1DF225F817C8F78DF4F14699465E6BFD79711E0556E6FBEDB46942504B5
310
E1F7A2A0F47EE00398B53EF4DAED7B7F4D04E65B6F80006B4D9A11815BE5C563A17EF8A47B0A13C01EA173BADF9803ABB23A0C42C65D2483D743D5D91EFA0426E961B7FBAF9301CC5047D380E2200304E0C703970609502700D31BBC5FABFE312600DF72636C9D024186B4AFBFFD18A88D0347042C7575A2D263845C0A28D0
310
3A3FF0D44605F067798117C2F4F77371AA5780E89CF8139B10C0D300FACFE8F51F18B46197E7FF219B1A7FDCFFE636466230C78EB5A5774112827E3E9B5FDD7C3C814900CDEA1141654904E9D13F9616771F11C00530B57856112079FC6355680701430230E7DA0082DC51208219AC82AC09C0982C56A4A569F47EF6BF09A8
310
00B05EB95C68E29EF6BB04B05379AF1CAA043AFB77EA3EBA4A1BB80471218540ED01B1292EB422021140FF69640860D7FECAD18BC06F7B74F5C30037B4BFB2BB1B0310AFECCC324C00CC0120001488AA6F47802A80DAC8A6C3E12E11564336D00500427DEA182002204B008A4A7701003600101E002280B63A5685E8C7000A
310
130093009AA50B07C07B23AD9F17C1D2181B007802100EB002001E63B000A0D6016956317ED014C074282703E039EED90DBBDF0350786222D7D8C700204F02B54F65DBFF0020AF2EBE06808CDCD30070DD0CE8005891C07701F0B7F2A9006863AC6CEFDDA5028035211205C0012AE6673A00143A00942C00A448B53927CF05
310
40D9BFC167E092FCCA8900183B786C05B4B9229D8361AD04C003104E6DD9D96122BAAD4EABB703A0EE31A310B75CDA1356DE10C8044025406D2FF815C272876400A4D5B51803E0D9AF00E09D3C1001B4AD4486FD09674F1900F6CF2EFBE3706DF39674FCCA04C012A86D7F7F98B37F00CFDB60A311809E67A94A6053670900
310
B609C82012664ACF7E0E0E73871514370D2D99D1CC695ACEC27B771671875912C04A169B4CB22F4E7627F672A572017CCE3697D55FB41E863DFB5CE7008C087036933596D50E35A2BFDE7EED94692A97397AFB51CBF99ECCC646BFDF9425013F97BF1DFBF0E36B6F50CCDEB414EE3A93807B5BE4B8D661FC337059621E81C8
310
1AA7668A1ACDC3C7DAC6F4E3B7C12C15710C11A569E69373858DE675F6A2BE40A63773B0A0826D9A03010A2672BEBC7F396A7C61B4F9F8ECAD60D817F3EA0E18A224470313BED9BC453920A572D16F66CE5EE65F278069CB07A33CCAC0B92B189B66493B6D71A7BC79A70FE64D5921FFF4DE2F6245B860FDEAF2C61AF8539E
310
942E8290B36398EFCA3F3A97F209E8CF72B0505A15FA9A8EDC1BD48618879A445603462EE30406A76BD2F8A686726299019DD427B1D02B1B0288A0BEB3F853C18F1B6FAAF19EDFFBF594A73CE5294F79CA539EF29452FE00E5F4B2D05CB053350000000049454E44AE4260826160DAC9C04B5E2780BEE70A5F0036FAFEB229
310
E281E1E2B70B71ADF937B8246F03FA1004EFFB22B9DCD9F6F77F8F1E574DC8F7A250BF3FF0035FA8691FFB2AD17FEBFA03964563ECB44765470000000049454E44AE426082828282828282828282FE20FD031D279AF143C8C9E00000000049454E44AE426082
  0
ENDSEC
  0
EOF
