0
SECTION
2
HEADER
9
$INSUNITS
70
4
9
$ACADVER
1
AC1014
9
$HANDSEED
5
FFFF
0
ENDSEC
0
SECTION
2
TABLES
0
TABLE
2
VPORT
5
8
100
AcDbSymbolTable
0
ENDTAB
0
TABLE
2
LTYPE
5
5
100
AcDbSymbolTable
0
LTYPE
5
14
100
AcDbSymbolTableRecord
100
AcDbLinetypeTableRecord
2
BYBLOCK
70
0
0
LTYPE
5
15
100
AcDbSymbolTableRecord
100
AcDbLinetypeTableRecord
2
BYLAYER
70
0
0
ENDTAB
0
TABLE
2
LAYER
5
2
100
AcDbSymbolTable
70
2
0
LAYER
5
50
100
AcDbSymbolTableRecord
100
AcDbLayerTableRecord
2
0
70
0
6
CONTINUOUS
0
ENDTAB
0
TABLE
2
STYLE
5
3
100
AcDbSymbolTable
70
1
0
STYLE
5
11
100
AcDbSymbolTableRecord
100
AcDbTextStyleTableRecord
2
STANDARD
70
0
0
ENDTAB
0
TABLE
2
VIEW
5
6
100
AcDbSymbolTable
70
0
0
ENDTAB
0
TABLE
2
UCS
5
7
100
AcDbSymbolTable
70
0
0
ENDTAB
0
TABLE
2
APPID
5
9
100
AcDbSymbolTable
70
2
0
APPID
5
12
100
AcDbSymbolTableRecord
100
AcDbRegAppTableRecord
2
ACAD
70
0
0
ENDTAB
0
TABLE
2
DIMSTYLE
5
A
100
AcDbSymbolTable
70
1
0
ENDTAB
0
TABLE
2
BLOCK_RECORD
5
1
100
AcDbSymbolTable
70
1
0
BLOCK_RECORD
5
1F
100
AcDbSymbolTableRecord
100
AcDbBlockTableRecord
2
*MODEL_SPACE
0
BLOCK_RECORD
5
1B
100
AcDbSymbolTableRecord
100
AcDbBlockTableRecord
2
*PAPER_SPACE
0
ENDTAB
0
ENDSEC
0
SECTION
2
BLOCKS
0
BLOCK
5
20
100
AcDbEntity
100
AcDbBlockBegin
2
*MODEL_SPACE
0
ENDBLK
5
21
100
AcDbEntity
100
AcDbBlockEnd
0
BLOCK
5
1C
100
AcDbEntity
100
AcDbBlockBegin
2
*PAPER_SPACE
0
ENDBLK
5
1D
100
AcDbEntity
100
AcDbBlockEnd
0
ENDSEC
0
SECTION
2
ENTITIES
0
CIRCLE
5
100
100
AcDbEntity
8
0
100
AcDbCircle
10
-312.39279642856781
20
-147.91436334756111
30
0
40
2.0000000298023224
210
-5.8387436013533892e-46
220
4.9303806576313238e-32
230
1
0
CIRCLE
5
101
100
AcDbEntity
8
0
100
AcDbCircle
10
-144.89279642856874
20
186.38715184261287
30
0
40
1.6249999999999964
210
-1.1677487202706962e-46
220
-4.9303806576313238e-32
230
1
0
LWPOLYLINE
5
102
100
AcDbEntity
8
0
100
AcDbPolyline
90
4
70
1
43
0.0
10
-315.01779642856781
20
-170.41436334756102
42
0.99999999999999989
10
-309.76779642856781
20
-170.41436334756125
10
-309.76779642856775
20
-165.91436334756114
42
1.0000076934566924
10
-315.0177964288564
20
-165.91440373807495
0
CIRCLE
5
103
100
AcDbEntity
8
0
100
AcDbCircle
10
-312.39279642856781
20
-129.61284815738915
30
0
40
2.0000000298023224
210
-5.8387436013533892e-46
220
4.9303806576313238e-32
230
1
0
CIRCLE
5
104
100
AcDbEntity
8
0
100
AcDbCircle
10
-454.89279642856872
20
186.38715184261196
30
0
40
1.6250000000000142
210
-0
220
0
230
1
0
CIRCLE
5
105
100
AcDbEntity
8
0
100
AcDbCircle
10
-320.15576206265223
20
-138.76360575247509
30
0
40
2.0000000298023224
210
-5.8387436013533892e-46
220
4.9303806576313238e-32
230
1
0
CIRCLE
5
106
100
AcDbEntity
8
0
100
AcDbCircle
10
-304.62983079448338
20
-138.76360575247514
30
0
40
2.0000000298023224
210
-5.8387436013533892e-46
220
4.9303806576313238e-32
230
1
0
LWPOLYLINE
5
107
100
AcDbEntity
8
0
100
AcDbPolyline
90
10
70
1
43
0.0
10
-498.61766118041203
20
166.20592012500481
42
0.43905403571857621
10
-500.54962382086944
20
155.14645094520978
42
-0.075386745091931662
10
-319.54629993076679
20
-173.05406269332337
42
0.69690336381041929
10
-305.23929292636626
20
-173.05406269332593
42
-0.07538674509190095
10
-124.23596903627853
20
155.14645094521242
42
0.30650396629860754
10
-123.72645457178956
20
163.67680892704732
10
-139.19408204087415
20
189.76580236139876
42
0.29821954221843
10
-145.70996543284531
20
192.96156130799034
42
-0.061909512423321635
10
-454.07562742428536
20
192.96156130803297
42
0.17528427722635342
10
-458.4702274299799
20
191.96322684486256
0
CIRCLE
5
108
100
AcDbEntity
8
0
100
AcDbCircle
10
-299.89279642855143
20
-123.61284815738762
30
0
40
1.6250000000000142
210
-0
220
0
230
1
0
LWPOLYLINE
5
109
100
AcDbEntity
8
0
100
AcDbPolyline
90
4
70
1
43
0.0
10
-492.094907541422
20
155.16702660709754
42
0.99999999999999989
10
-489.29371569606042
20
159.60727707812734
10
-493.09964467124217
20
162.00829865986441
42
0.99999998509883881
10
-495.90083656336685
20
157.56804821834555
0
LWPOLYLINE
5
110
100
AcDbEntity
8
0
100
AcDbPolyline
90
4
70
1
43
0.0
10
-135.49187716105246
20
159.60727707814206
42
0.99999998946328772
10
-132.69068531573743
20
155.16702660708293
10
-128.88475634054623
20
157.56804818884842
42
0.99999999999999989
10
-131.68594818588744
20
162.00829865982263
0
LWPOLYLINE
5
111
100
AcDbEntity
8
0
100
AcDbPolyline
90
4
70
1
43
0.0
10
-122.66184999112789
20
193.03635923179951
10
-502.16631450189817
20
193.03635923179951
10
-502.16631450189817
20
-178.04284004873043
10
-122.66184999112789
20
-178.0428400487304
0
ENDSEC
0
SECTION
2
OBJECTS
0
DICTIONARY
5
C
100
AcDbDictionary
3
ACAD_GROUP
350
D
3
ACAD_MLINESTYLE
350
17
0
DICTIONARY
5
D
100
AcDbDictionary
0
DICTIONARY
5
1A
330
C
100
AcDbDictionary
0
DICTIONARY
5
17
100
AcDbDictionary
0
ENDSEC
0
EOF
