  0
SECTION
  2
HEADER
  9
$ACADVER
  1
AC1009
  0
ENDSEC
  0
SECTION
  2
ENTITIES
  0
POLYLINE
  5
90
  8
Layer_0
  62
0
  70
1
  66
1
  10
0
  20
0
  30
0
  0
VERTEX
  5
90
  8
Layer_0
  10
200
  20
0
  0
VERTEX
  5
91
  8
Layer_0
  10
0
  20
0
  0
VERTEX
  5
92
  8
Layer_0
  10
0
  20
218
  0
VERTEX
  5
93
  8
Layer_0
  10
200
  20
218
  0
VERTEX
  5
94
  8
Layer_0
  10
200
  20
0
  0
SEQEND
  0
POLYLINE
  5
96
  8
Layer_0
  62
0
  70
1
  66
1
  10
0
  20
0
  30
0
  0
VERTEX
  5
96
  8
Layer_0
  10
403
  20
0
  0
VERTEX
  5
97
  8
Layer_0
  10
203
  20
0
  0
VERTEX
  5
98
  8
Layer_0
  10
203
  20
241
  0
VERTEX
  5
99
  8
Layer_0
  10
403
  20
241
  0
VERTEX
  5
9a
  8
Layer_0
  10
403
  20
0
  0
SEQEND
  0
POLYLINE
  5
9c
  8
Layer_0
  62
0
  70
1
  66
1
  10
0
  20
0
  30
0
  0
VERTEX
  5
9c
  8
Layer_0
  10
403
  20
244
  0
VERTEX
  5
9d
  8
Layer_0
  10
203
  20
244
  0
VERTEX
  5
9e
  8
Layer_0
  10
203
  20
485
  0
VERTEX
  5
9f
  8
Layer_0
  10
403
  20
485
  0
VERTEX
  5
a0
  8
Layer_0
  10
403
  20
244
  0
SEQEND
  0
POLYLINE
  5
a2
  8
Layer_0
  62
0
  70
1
  66
1
  10
0
  20
0
  30
0
  0
VERTEX
  5
a2
  8
Layer_0
  10
606
  20
0
  0
VERTEX
  5
a3
  8
Layer_0
  10
406
  20
0
  0
VERTEX
  5
a4
  8
Layer_0
  10
406
  20
268
  0
VERTEX
  5
a5
  8
Layer_0
  10
606
  20
268
  0
VERTEX
  5
a6
  8
Layer_0
  10
606
  20
0
  0
SEQEND
  0
POLYLINE
  5
a8
  8
Layer_0
  62
0
  70
1
  66
1
  10
0
  20
0
  30
0
  0
VERTEX
  5
a8
  8
Layer_0
  10
96.656418
  20
133.82385
  0
VERTEX
  5
a9
  8
Layer_0
  10
128.43059
  20
133.82385
  0
VERTEX
  5
aa
  8
Layer_0
  10
137.29411
  20
110.80945
  0
VERTEX
  5
ab
  8
Layer_0
  10
148.74919
  20
110.80945
  0
VERTEX
  5
ac
  8
Layer_0
  10
117.64909
  20
186.79797
  0
VERTEX
  5
ad
  8
Layer_0
  10
106.81584
  20
186.79797
  0
VERTEX
  5
ae
  8
Layer_0
  10
77.633469
  20
110.80945
  0
VERTEX
  5
af
  8
Layer_0
  10
88.311203
  20
110.80945
  0
VERTEX
  5
b0
  8
Layer_0
  10
96.656418
  20
133.82385
  0
SEQEND
  0
POLYLINE
  5
b2
  8
Layer_0
  62
0
  70
1
  66
1
  10
0
  20
0
  30
0
  0
VERTEX
  5
b2
  8
Layer_0
  10
99.559006
  20
142.01355
  0
VERTEX
  5
b3
  8
Layer_0
  10
107.90422
  20
164.30188
  0
VERTEX
  5
b4
  8
Layer_0
  10
108.5393
  20
166.07938
  0
VERTEX
  5
b5
  8
Layer_0
  10
109.13947
  20
167.86841
  0
VERTEX
  5
b6
  8
Layer_0
  10
109.70457
  20
169.66843
  0
VERTEX
  5
b7
  8
Layer_0
  10
110.23449
  20
171.47894
  0
VERTEX
  5
b8
  8
Layer_0
  10
110.72905
  20
173.29944
  0
VERTEX
  5
b9
  8
Layer_0
  10
111.18812
  20
175.12936
  0
VERTEX
  5
ba
  8
Layer_0
  10
111.61154
  20
176.96826
  0
VERTEX
  5
bb
  8
Layer_0
  10
111.99919
  20
178.81555
  0
VERTEX
  5
bc
  8
Layer_0
  10
112.22673
  20
178.03113
  0
VERTEX
  5
bd
  8
Layer_0
  10
113.31555
  20
174.55371
  0
VERTEX
  5
be
  8
Layer_0
  10
114.46483
  20
171.09604
  0
VERTEX
  5
bf
  8
Layer_0
  10
115.67426
  20
167.65894
  0
VERTEX
  5
c0
  8
Layer_0
  10
116.94353
  20
164.24329
  0
VERTEX
  5
c1
  8
Layer_0
  10
125.32048
  20
142.01355
  0
VERTEX
  5
c2
  8
Layer_0
  10
99.559006
  20
142.01355
  0
SEQEND
  0
POLYLINE
  5
c4
  8
Layer_0
  62
0
  70
1
  66
1
  10
0
  20
0
  30
0
  0
VERTEX
  5
c4
  8
Layer_0
  10
306.59689
  20
325.23218
  0
VERTEX
  5
c5
  8
Layer_0
  10
307.63742
  20
325.2782
  0
VERTEX
  5
c6
  8
Layer_0
  10
308.67551
  20
325.3548
  0
VERTEX
  5
c7
  8
Layer_0
  10
309.71045
  20
325.46194
  0
VERTEX
  5
c8
  8
Layer_0
  10
310.74152
  20
325.59952
  0
VERTEX
  5
c9
  8
Layer_0
  10
311.76813
  20
325.7674
  0
VERTEX
  5
ca
  8
Layer_0
  10
312.78955
  20
325.96548
  0
VERTEX
  5
cb
  8
Layer_0
  10
313.80511
  20
326.1937
  0
VERTEX
  5
cc
  8
Layer_0
  10
314.81418
  20
326.4519
  0
VERTEX
  5
cd
  8
Layer_0
  10
316.08368
  20
326.8291
  0
VERTEX
  5
ce
  8
Layer_0
  10
317.33005
  20
327.26221
  0
VERTEX
  5
cf
  8
Layer_0
  10
318.55164
  20
327.75003
  0
VERTEX
  5
d0
  8
Layer_0
  10
319.74689
  20
328.29138
  0
VERTEX
  5
d1
  8
Layer_0
  10
320.91406
  20
328.88507
  0
VERTEX
  5
d2
  8
Layer_0
  10
322.05151
  20
329.52991
  0
VERTEX
  5
d3
  8
Layer_0
  10
323.15771
  20
330.22467
  0
VERTEX
  5
d4
  8
Layer_0
  10
324.23096
  20
330.96826
  0
VERTEX
  5
d5
  8
Layer_0
  10
325.26959
  20
331.75943
  0
VERTEX
  5
d6
  8
Layer_0
  10
326.272
  20
332.59698
  0
VERTEX
  5
d7
  8
Layer_0
  10
327.23657
  20
333.47974
  0
VERTEX
  5
d8
  8
Layer_0
  10
328.16171
  20
334.40649
  0
VERTEX
  5
d9
  8
Layer_0
  10
329.04568
  20
335.3761
  0
VERTEX
  5
da
  8
Layer_0
  10
329.8869
  20
336.38736
  0
VERTEX
  5
db
  8
Layer_0
  10
330.68375
  20
337.43906
  0
VERTEX
  5
dc
  8
Layer_0
  10
331.43454
  20
338.53003
  0
VERTEX
  5
dd
  8
Layer_0
  10
332.00598
  20
339.43353
  0
VERTEX
  5
de
  8
Layer_0
  10
332.55023
  20
340.35291
  0
VERTEX
  5
df
  8
Layer_0
  10
333.06696
  20
341.28745
  0
VERTEX
  5
e0
  8
Layer_0
  10
333.55588
  20
342.23657
  0
VERTEX
  5
e1
  8
Layer_0
  10
334.01666
  20
343.19965
  0
VERTEX
  5
e2
  8
Layer_0
  10
334.44904
  20
344.17609
  0
VERTEX
  5
e3
  8
Layer_0
  10
334.85269
  20
345.16525
  0
VERTEX
  5
e4
  8
Layer_0
  10
335.22726
  20
346.1665
  0
VERTEX
  5
e5
  8
Layer_0
  10
335.60901
  20
347.26334
  0
VERTEX
  5
e6
  8
Layer_0
  10
335.96356
  20
348.36908
  0
VERTEX
  5
e7
  8
Layer_0
  10
336.2908
  20
349.48322
  0
VERTEX
  5
e8
  8
Layer_0
  10
336.59055
  20
350.60522
  0
VERTEX
  5
e9
  8
Layer_0
  10
326.53488
  20
353.14502
  0
VERTEX
  5
ea
  8
Layer_0
  10
326.26096
  20
351.96484
  0
VERTEX
  5
eb
  8
Layer_0
  10
325.82349
  20
350.34375
  0
VERTEX
  5
ec
  8
Layer_0
  10
325.29938
  20
348.74985
  0
VERTEX
  5
ed
  8
Layer_0
  10
324.68991
  20
347.18658
  0
VERTEX
  5
ee
  8
Layer_0
  10
323.99631
  20
345.65747
  0
VERTEX
  5
ef
  8
Layer_0
  10
323.59998
  20
344.88016
  0
VERTEX
  5
f0
  8
Layer_0
  10
323.17325
  20
344.12027
  0
VERTEX
  5
f1
  8
Layer_0
  10
322.7168
  20
343.37869
  0
VERTEX
  5
f2
  8
Layer_0
  10
322.2312
  20
342.65625
  0
VERTEX
  5
f3
  8
Layer_0
  10
321.71707
  20
341.95386
  0
VERTEX
  5
f4
  8
Layer_0
  10
321.17499
  20
341.27231
  0
VERTEX
  5
f5
  8
Layer_0
  10
320.60559
  20
340.61252
  0
VERTEX
  5
f6
  8
Layer_0
  10
320.00949
  20
339.97534
  0
VERTEX
  5
f7
  8
Layer_0
  10
319.4548
  20
339.43759
  0
VERTEX
  5
f8
  8
Layer_0
  10
318.88165
  20
338.92236
  0
VERTEX
  5
f9
  8
Layer_0
  10
318.29086
  20
338.43005
  0
VERTEX
  5
fa
  8
Layer_0
  10
317.68311
  20
337.961
  0
VERTEX
  5
fb
  8
Layer_0
  10
317.05908
  20
337.51563
  0
VERTEX
  5
fc
  8
Layer_0
  10
316.41953
  20
337.0943
  0
VERTEX
  5
fd
  8
Layer_0
  10
315.76514
  20
336.69745
  0
VERTEX
  5
fe
  8
Layer_0
  10
315.09662
  20
336.32532
  0
VERTEX
  5
ff
  8
Layer_0
  10
314.4147
  20
335.97839
  0
VERTEX
  5
100
  8
Layer_0
  10
313.72009
  20
335.65704
  0
VERTEX
  5
101
  8
Layer_0
  10
313.01346
  20
335.36163
  0
VERTEX
  5
102
  8
Layer_0
  10
312.29559
  20
335.0925
  0
VERTEX
  5
103
  8
Layer_0
  10
311.56714
  20
334.8501
  0
VERTEX
  5
104
  8
Layer_0
  10
310.82886
  20
334.63477
  0
VERTEX
  5
105
  8
Layer_0
  10
310.08148
  20
334.4469
  0
VERTEX
  5
106
  8
Layer_0
  10
309.32565
  20
334.28687
  0
VERTEX
  5
107
  8
Layer_0
  10
307.86197
  20
334.04358
  0
VERTEX
  5
108
  8
Layer_0
  10
306.39041
  20
333.88501
  0
VERTEX
  5
109
  8
Layer_0
  10
304.91455
  20
333.811
  0
VERTEX
  5
10a
  8
Layer_0
  10
303.43808
  20
333.82147
  0
VERTEX
  5
10b
  8
Layer_0
  10
301.9646
  20
333.91626
  0
VERTEX
  5
10c
  8
Layer_0
  10
300.4978
  20
334.09528
  0
VERTEX
  5
10d
  8
Layer_0
  10
299.04126
  20
334.35834
  0
VERTEX
  5
10e
  8
Layer_0
  10
297.5986
  20
334.70532
  0
VERTEX
  5
10f
  8
Layer_0
  10
296.47546
  20
335.04449
  0
VERTEX
  5
110
  8
Layer_0
  10
295.37201
  20
335.43683
  0
VERTEX
  5
111
  8
Layer_0
  10
294.29004
  20
335.8815
  0
VERTEX
  5
112
  8
Layer_0
  10
293.23138
  20
336.37756
  0
VERTEX
  5
113
  8
Layer_0
  10
292.19788
  20
336.92413
  0
VERTEX
  5
114
  8
Layer_0
  10
291.19135
  20
337.5202
  0
VERTEX
  5
115
  8
Layer_0
  10
290.21365
  20
338.16495
  0
VERTEX
  5
116
  8
Layer_0
  10
289.26657
  20
338.85742
  0
VERTEX
  5
117
  8
Layer_0
  10
288.42822
  20
339.56778
  0
VERTEX
  5
118
  8
Layer_0
  10
287.63037
  20
340.32001
  0
VERTEX
  5
119
  8
Layer_0
  10
286.87448
  20
341.11227
  0
VERTEX
  5
11a
  8
Layer_0
  10
286.16202
  20
341.94281
  0
VERTEX
  5
11b
  8
Layer_0
  10
285.49442
  20
342.80981
  0
VERTEX
  5
11c
  8
Layer_0
  10
284.87314
  20
343.71149
  0
VERTEX
  5
11d
  8
Layer_0
  10
284.29965
  20
344.64612
  0
VERTEX
  5
11e
  8
Layer_0
  10
283.77536
  20
345.61182
  0
VERTEX
  5
11f
  8
Layer_0
  10
283.34845
  20
346.49304
  0
VERTEX
  5
120
  8
Layer_0
  10
282.94809
  20
347.38596
  0
VERTEX
  5
121
  8
Layer_0
  10
282.57452
  20
348.28992
  0
VERTEX
  5
122
  8
Layer_0
  10
282.22797
  20
349.20435
  0
VERTEX
  5
123
  8
Layer_0
  10
281.90857
  20
350.12863
  0
VERTEX
  5
124
  8
Layer_0
  10
281.61664
  20
351.06216
  0
VERTEX
  5
125
  8
Layer_0
  10
281.35236
  20
352.00433
  0
VERTEX
  5
126
  8
Layer_0
  10
281.11594
  20
352.95459
  0
VERTEX
  5
127
  8
Layer_0
  10
280.81915
  20
354.30627
  0
VERTEX
  5
128
  8
Layer_0
  10
280.55966
  20
355.66476
  0
VERTEX
  5
129
  8
Layer_0
  10
280.33762
  20
357.02939
  0
VERTEX
  5
12a
  8
Layer_0
  10
280.15305
  20
358.39932
  0
VERTEX
  5
12b
  8
Layer_0
  10
280.0061
  20
359.77377
  0
VERTEX
  5
12c
  8
Layer_0
  10
279.89682
  20
361.15204
  0
VERTEX
  5
12d
  8
Layer_0
  10
279.82532
  20
362.53326
  0
VERTEX
  5
12e
  8
Layer_0
  10
279.79172
  20
363.91675
  0
VERTEX
  5
12f
  8
Layer_0
  10
279.78363
  20
366.04303
  0
VERTEX
  5
130
  8
Layer_0
  10
279.87488
  20
368.16394
  0
VERTEX
  5
131
  8
Layer_0
  10
280.06488
  20
370.276
  0
VERTEX
  5
132
  8
Layer_0
  10
280.35309
  20
372.37573
  0
VERTEX
  5
133
  8
Layer_0
  10
280.73889
  20
374.45972
  0
VERTEX
  5
134
  8
Layer_0
  10
281.22186
  20
376.52457
  0
VERTEX
  5
135
  8
Layer_0
  10
281.80133
  20
378.56683
  0
VERTEX
  5
136
  8
Layer_0
  10
282.47678
  20
380.58301
  0
VERTEX
  5
137
  8
Layer_0
  10
282.84595
  20
381.52264
  0
VERTEX
  5
138
  8
Layer_0
  10
283.25616
  20
382.44098
  0
VERTEX
  5
139
  8
Layer_0
  10
283.70645
  20
383.33688
  0
VERTEX
  5
13a
  8
Layer_0
  10
284.19568
  20
384.20923
  0
VERTEX
  5
13b
  8
Layer_0
  10
284.7229
  20
385.05676
  0
VERTEX
  5
13c
  8
Layer_0
  10
285.28717
  20
385.87836
  0
VERTEX
  5
13d
  8
Layer_0
  10
285.88733
  20
386.67288
  0
VERTEX
  5
13e
  8
Layer_0
  10
286.52246
  20
387.43912
  0
VERTEX
  5
13f
  8
Layer_0
  10
287.19153
  20
388.1759
  0
VERTEX
  5
140
  8
Layer_0
  10
287.89352
  20
388.88208
  0
VERTEX
  5
141
  8
Layer_0
  10
288.62741
  20
389.55646
  0
VERTEX
  5
142
  8
Layer_0
  10
289.39221
  20
390.19788
  0
VERTEX
  5
143
  8
Layer_0
  10
290.18686
  20
390.80518
  0
VERTEX
  5
144
  8
Layer_0
  10
291.01038
  20
391.3772
  0
VERTEX
  5
145
  8
Layer_0
  10
291.86176
  20
391.91272
  0
VERTEX
  5
146
  8
Layer_0
  10
292.73996
  20
392.41064
  0
VERTEX
  5
147
  8
Layer_0
  10
293.58685
  20
392.83145
  0
VERTEX
  5
148
  8
Layer_0
  10
294.44897
  20
393.2171
  0
VERTEX
  5
149
  8
Layer_0
  10
295.32538
  20
393.56723
  0
VERTEX
  5
14a
  8
Layer_0
  10
296.21484
  20
393.88147
  0
VERTEX
  5
14b
  8
Layer_0
  10
297.11633
  20
394.15945
  0
VERTEX
  5
14c
  8
Layer_0
  10
298.02863
  20
394.40082
  0
VERTEX
  5
14d
  8
Layer_0
  10
298.95074
  20
394.60519
  0
VERTEX
  5
14e
  8
Layer_0
  10
299.88156
  20
394.77222
  0
VERTEX
  5
14f
  8
Layer_0
  10
301.08856
  20
394.94885
  0
VERTEX
  5
150
  8
Layer_0
  10
302.3002
  20
395.07651
  0
VERTEX
  5
151
  8
Layer_0
  10
303.51501
  20
395.15512
  0
VERTEX
  5
152
  8
Layer_0
  10
304.73151
  20
395.18475
  0
VERTEX
  5
153
  8
Layer_0
  10
305.94818
  20
395.16528
  0
VERTEX
  5
154
  8
Layer_0
  10
307.1636
  20
395.0968
  0
VERTEX
  5
155
  8
Layer_0
  10
308.37625
  20
394.97931
  0
VERTEX
  5
156
  8
Layer_0
  10
309.58469
  20
394.81274
  0
VERTEX
  5
157
  8
Layer_0
  10
310.48804
  20
394.64349
  0
VERTEX
  5
158
  8
Layer_0
  10
311.38062
  20
394.43121
  0
VERTEX
  5
159
  8
Layer_0
  10
312.26093
  20
394.17645
  0
VERTEX
  5
15a
  8
Layer_0
  10
313.12744
  20
393.87982
  0
VERTEX
  5
15b
  8
Layer_0
  10
313.9787
  20
393.54181
  0
VERTEX
  5
15c
  8
Layer_0
  10
314.81317
  20
393.16299
  0
VERTEX
  5
15d
  8
Layer_0
  10
315.62933
  20
392.74393
  0
VERTEX
  5
15e
  8
Layer_0
  10
316.42575
  20
392.28516
  0
VERTEX
  5
15f
  8
Layer_0
  10
317.19241
  20
391.77765
  0
VERTEX
  5
160
  8
Layer_0
  10
317.9299
  20
391.23178
  0
VERTEX
  5
161
  8
Layer_0
  10
318.63684
  20
390.64886
  0
VERTEX
  5
162
  8
Layer_0
  10
319.31189
  20
390.03021
  0
VERTEX
  5
163
  8
Layer_0
  10
319.95367
  20
389.37711
  0
VERTEX
  5
164
  8
Layer_0
  10
320.56085
  20
388.69089
  0
VERTEX
  5
165
  8
Layer_0
  10
321.13208
  20
387.9729
  0
VERTEX
  5
166
  8
Layer_0
  10
321.66599
  20
387.22437
  0
VERTEX
  5
167
  8
Layer_0
  10
322.55542
  20
385.81952
  0
VERTEX
  5
168
  8
Layer_0
  10
323.35831
  20
384.36517
  0
VERTEX
  5
169
  8
Layer_0
  10
324.0726
  20
382.86536
  0
VERTEX
  5
16a
  8
Layer_0
  10
324.69626
  20
381.32397
  0
VERTEX
  5
16b
  8
Layer_0
  10
325.0592
  20
380.32733
  0
VERTEX
  5
16c
  8
Layer_0
  10
325.3945
  20
379.32104
  0
VERTEX
  5
16d
  8
Layer_0
  10
335.29465
  20
381.65356
  0
VERTEX
  5
16e
  8
Layer_0
  10
334.96838
  20
382.74023
  0
VERTEX
  5
16f
  8
Layer_0
  10
334.60675
  20
383.8147
  0
VERTEX
  5
170
  8
Layer_0
  10
334.21024
  20
384.8761
  0
VERTEX
  5
171
  8
Layer_0
  10
333.77911
  20
385.92365
  0
VERTEX
  5
172
  8
Layer_0
  10
333.31375
  20
386.95639
  0
VERTEX
  5
173
  8
Layer_0
  10
332.81451
  20
387.97357
  0
VERTEX
  5
174
  8
Layer_0
  10
332.28183
  20
388.97433
  0
VERTEX
  5
175
  8
Layer_0
  10
331.71603
  20
389.95776
  0
VERTEX
  5
176
  8
Layer_0
  10
331.02057
  20
391.05908
  0
VERTEX
  5
177
  8
Layer_0
  10
330.27737
  20
392.12268
  0
VERTEX
  5
178
  8
Layer_0
  10
329.48807
  20
393.14728
  0
VERTEX
  5
179
  8
Layer_0
  10
328.6543
  20
394.13153
  0
VERTEX
  5
17a
  8
Layer_0
  10
327.77771
  20
395.07422
  0
VERTEX
  5
17b
  8
Layer_0
  10
326.85999
  20
395.97406
  0
VERTEX
  5
17c
  8
Layer_0
  10
325.90277
  20
396.82977
  0
VERTEX
  5
17d
  8
Layer_0
  10
324.90759
  20
397.64011
  0
VERTEX
  5
17e
  8
Layer_0
  10
323.87622
  20
398.40375
  0
VERTEX
  5
17f
  8
Layer_0
  10
322.81021
  20
399.11945
  0
VERTEX
  5
180
  8
Layer_0
  10
321.71124
  20
399.78595
  0
VERTEX
  5
181
  8
Layer_0
  10
320.58093
  20
400.40192
  0
VERTEX
  5
182
  8
Layer_0
  10
319.42096
  20
400.96613
  0
VERTEX
  5
183
  8
Layer_0
  10
318.23291
  20
401.47736
  0
VERTEX
  5
184
  8
Layer_0
  10
317.01846
  20
401.9342
  0
VERTEX
  5
185
  8
Layer_0
  10
315.77927
  20
402.33545
  0
VERTEX
  5
186
  8
Layer_0
  10
314.66721
  20
402.64322
  0
VERTEX
  5
187
  8
Layer_0
  10
313.5466
  20
402.91437
  0
VERTEX
  5
188
  8
Layer_0
  10
312.41837
  20
403.14874
  0
VERTEX
  5
189
  8
Layer_0
  10
311.28339
  20
403.34619
  0
VERTEX
  5
18a
  8
Layer_0
  10
310.14261
  20
403.50653
  0
VERTEX
  5
18b
  8
Layer_0
  10
308.99689
  20
403.6297
  0
VERTEX
  5
18c
  8
Layer_0
  10
307.84714
  20
403.71555
  0
VERTEX
  5
18d
  8
Layer_0
  10
306.69431
  20
403.76392
  0
VERTEX
  5
18e
  8
Layer_0
  10
305.15222
  20
403.79257
  0
VERTEX
  5
18f
  8
Layer_0
  10
303.61194
  20
403.7616
  0
VERTEX
  5
190
  8
Layer_0
  10
302.07513
  20
403.67117
  0
VERTEX
  5
191
  8
Layer_0
  10
300.54352
  20
403.52161
  0
VERTEX
  5
192
  8
Layer_0
  10
299.01883
  20
403.31302
  0
VERTEX
  5
193
  8
Layer_0
  10
297.50275
  20
403.04559
  0
VERTEX
  5
194
  8
Layer_0
  10
295.99704
  20
402.7196
  0
VERTEX
  5
195
  8
Layer_0
  10
294.50339
  20
402.33521
  0
VERTEX
  5
196
  8
Layer_0
  10
292.94708
  20
401.86194
  0
VERTEX
  5
197
  8
Layer_0
  10
291.41678
  20
401.31821
  0
VERTEX
  5
198
  8
Layer_0
  10
289.91476
  20
400.70517
  0
VERTEX
  5
199
  8
Layer_0
  10
288.44333
  20
400.02393
  0
VERTEX
  5
19a
  8
Layer_0
  10
287.00482
  20
399.27567
  0
VERTEX
  5
19b
  8
Layer_0
  10
285.60156
  20
398.46155
  0
VERTEX
  5
19c
  8
Layer_0
  10
284.2359
  20
397.58264
  0
VERTEX
  5
19d
  8
Layer_0
  10
282.91013
  20
396.64014
  0
VERTEX
  5
19e
  8
Layer_0
  10
281.76361
  20
395.7179
  0
VERTEX
  5
19f
  8
Layer_0
  10
280.66394
  20
394.74387
  0
VERTEX
  5
1a0
  8
Layer_0
  10
279.61285
  20
393.72
  0
VERTEX
  5
1a1
  8
Layer_0
  10
278.61194
  20
392.64813
  0
VERTEX
  5
1a2
  8
Layer_0
  10
277.6629
  20
391.53009
  0
VERTEX
  5
1a3
  8
Layer_0
  10
276.76733
  20
390.36774
  0
VERTEX
  5
1a4
  8
Layer_0
  10
275.92694
  20
389.1629
  0
VERTEX
  5
1a5
  8
Layer_0
  10
275.14328
  20
387.91748
  0
VERTEX
  5
1a6
  8
Layer_0
  10
274.43823
  20
386.68509
  0
VERTEX
  5
1a7
  8
Layer_0
  10
273.78009
  20
385.42865
  0
VERTEX
  5
1a8
  8
Layer_0
  10
273.16953
  20
384.14957
  0
VERTEX
  5
1a9
  8
Layer_0
  10
272.60706
  20
382.84912
  0
VERTEX
  5
1aa
  8
Layer_0
  10
272.09323
  20
381.52869
  0
VERTEX
  5
1ab
  8
Layer_0
  10
271.62857
  20
380.18967
  0
VERTEX
  5
1ac
  8
Layer_0
  10
271.21368
  20
378.83337
  0
VERTEX
  5
1ad
  8
Layer_0
  10
270.84909
  20
377.46118
  0
VERTEX
  5
1ae
  8
Layer_0
  10
270.53967
  20
376.11584
  0
VERTEX
  5
1af
  8
Layer_0
  10
270.26782
  20
374.76324
  0
VERTEX
  5
1b0
  8
Layer_0
  10
270.03363
  20
373.40411
  0
VERTEX
  5
1b1
  8
Layer_0
  10
269.83728
  20
372.03934
  0
VERTEX
  5
1b2
  8
Layer_0
  10
269.67883
  20
370.66962
  0
VERTEX
  5
1b3
  8
Layer_0
  10
269.55835
  20
369.29578
  0
VERTEX
  5
1b4
  8
Layer_0
  10
269.47601
  20
367.91858
  0
VERTEX
  5
1b5
  8
Layer_0
  10
269.43185
  20
366.53882
  0
VERTEX
  5
1b6
  8
Layer_0
  10
269.40918
  20
364.54321
  0
VERTEX
  5
1b7
  8
Layer_0
  10
269.46063
  20
362.55017
  0
VERTEX
  5
1b8
  8
Layer_0
  10
269.586
  20
360.5618
  0
VERTEX
  5
1b9
  8
Layer_0
  10
269.78497
  20
358.58014
  0
VERTEX
  5
1ba
  8
Layer_0
  10
270.05737
  20
356.60724
  0
VERTEX
  5
1bb
  8
Layer_0
  10
270.40298
  20
354.64508
  0
VERTEX
  5
1bc
  8
Layer_0
  10
270.8215
  20
352.69583
  0
VERTEX
  5
1bd
  8
Layer_0
  10
271.31271
  20
350.76147
  0
VERTEX
  5
1be
  8
Layer_0
  10
271.66669
  20
349.5354
  0
VERTEX
  5
1bf
  8
Layer_0
  10
272.05417
  20
348.32019
  0
VERTEX
  5
1c0
  8
Layer_0
  10
272.47485
  20
347.11664
  0
VERTEX
  5
1c1
  8
Layer_0
  10
272.92844
  20
345.92535
  0
VERTEX
  5
1c2
  8
Layer_0
  10
273.4147
  20
344.74704
  0
VERTEX
  5
1c3
  8
Layer_0
  10
273.93341
  20
343.58237
  0
VERTEX
  5
1c4
  8
Layer_0
  10
274.48419
  20
342.43201
  0
VERTEX
  5
1c5
  8
Layer_0
  10
275.06686
  20
341.29663
  0
VERTEX
  5
1c6
  8
Layer_0
  10
275.7157
  20
340.14282
  0
VERTEX
  5
1c7
  8
Layer_0
  10
276.41202
  20
339.01923
  0
VERTEX
  5
1c8
  8
Layer_0
  10
277.15482
  20
337.92719
  0
VERTEX
  5
1c9
  8
Layer_0
  10
277.94293
  20
336.8681
  0
VERTEX
  5
1ca
  8
Layer_0
  10
278.7753
  20
335.84341
  0
VERTEX
  5
1cb
  8
Layer_0
  10
279.65079
  20
334.85455
  0
VERTEX
  5
1cc
  8
Layer_0
  10
280.56836
  20
333.90295
  0
VERTEX
  5
1cd
  8
Layer_0
  10
281.52682
  20
332.98999
  0
VERTEX
  5
1ce
  8
Layer_0
  10
282.63647
  20
332.0332
  0
VERTEX
  5
1cf
  8
Layer_0
  10
283.79288
  20
331.13849
  0
VERTEX
  5
1d0
  8
Layer_0
  10
284.99335
  20
330.3074
  0
VERTEX
  5
1d1
  8
Layer_0
  10
286.23523
  20
329.5415
  0
VERTEX
  5
1d2
  8
Layer_0
  10
287.5159
  20
328.84235
  0
VERTEX
  5
1d3
  8
Layer_0
  10
288.83264
  20
328.21143
  0
VERTEX
  5
1d4
  8
Layer_0
  10
290.1828
  20
327.65036
  0
VERTEX
  5
1d5
  8
Layer_0
  10
291.56369
  20
327.16064
  0
VERTEX
  5
1d6
  8
Layer_0
  10
292.50674
  20
326.8678
  0
VERTEX
  5
1d7
  8
Layer_0
  10
293.45667
  20
326.59979
  0
VERTEX
  5
1d8
  8
Layer_0
  10
294.41287
  20
326.35675
  0
VERTEX
  5
1d9
  8
Layer_0
  10
295.37494
  20
326.13873
  0
VERTEX
  5
1da
  8
Layer_0
  10
296.34241
  20
325.94586
  0
VERTEX
  5
1db
  8
Layer_0
  10
297.3147
  20
325.77826
  0
VERTEX
  5
1dc
  8
Layer_0
  10
298.29138
  20
325.63605
  0
VERTEX
  5
1dd
  8
Layer_0
  10
299.27194
  20
325.51929
  0
VERTEX
  5
1de
  8
Layer_0
  10
301.09857
  20
325.35175
  0
VERTEX
  5
1df
  8
Layer_0
  10
302.92938
  20
325.24802
  0
VERTEX
  5
1e0
  8
Layer_0
  10
304.7627
  20
325.20813
  0
VERTEX
  5
1e1
  8
Layer_0
  10
306.59689
  20
325.23218
  0
SEQEND
  0
POLYLINE
  5
1e3
  8
Layer_0
  62
0
  70
1
  66
1
  10
0
  20
0
  30
0
  0
VERTEX
  5
1e3
  8
Layer_0
  10
307.41391
  20
119.73518
  0
VERTEX
  5
1e4
  8
Layer_0
  10
308.45444
  20
119.78119
  0
VERTEX
  5
1e5
  8
Layer_0
  10
309.49252
  20
119.85781
  0
VERTEX
  5
1e6
  8
Layer_0
  10
310.52747
  20
119.96495
  0
VERTEX
  5
1e7
  8
Layer_0
  10
311.55853
  20
120.10251
  0
VERTEX
  5
1e8
  8
Layer_0
  10
312.58514
  20
120.27039
  0
VERTEX
  5
1e9
  8
Layer_0
  10
313.60657
  20
120.46848
  0
VERTEX
  5
1ea
  8
Layer_0
  10
314.62213
  20
120.69669
  0
VERTEX
  5
1eb
  8
Layer_0
  10
315.6312
  20
120.95491
  0
VERTEX
  5
1ec
  8
Layer_0
  10
316.9007
  20
121.33211
  0
VERTEX
  5
1ed
  8
Layer_0
  10
318.14706
  20
121.76521
  0
VERTEX
  5
1ee
  8
Layer_0
  10
319.36865
  20
122.25304
  0
VERTEX
  5
1ef
  8
Layer_0
  10
320.5639
  20
122.79438
  0
VERTEX
  5
1f0
  8
Layer_0
  10
321.73108
  20
123.38806
  0
VERTEX
  5
1f1
  8
Layer_0
  10
322.86853
  20
124.0329
  0
VERTEX
  5
1f2
  8
Layer_0
  10
323.97473
  20
124.72769
  0
VERTEX
  5
1f3
  8
Layer_0
  10
325.04797
  20
125.47126
  0
VERTEX
  5
1f4
  8
Layer_0
  10
326.08661
  20
126.26242
  0
VERTEX
  5
1f5
  8
Layer_0
  10
327.08902
  20
127.09996
  0
VERTEX
  5
1f6
  8
Layer_0
  10
328.05359
  20
127.98273
  0
VERTEX
  5
1f7
  8
Layer_0
  10
328.97873
  20
128.9095
  0
VERTEX
  5
1f8
  8
Layer_0
  10
329.8627
  20
129.8791
  0
VERTEX
  5
1f9
  8
Layer_0
  10
330.70392
  20
130.89037
  0
VERTEX
  5
1fa
  8
Layer_0
  10
331.50076
  20
131.94208
  0
VERTEX
  5
1fb
  8
Layer_0
  10
332.25156
  20
133.03304
  0
VERTEX
  5
1fc
  8
Layer_0
  10
332.823
  20
133.93652
  0
VERTEX
  5
1fd
  8
Layer_0
  10
333.36725
  20
134.85587
  0
VERTEX
  5
1fe
  8
Layer_0
  10
333.88397
  20
135.79041
  0
VERTEX
  5
1ff
  8
Layer_0
  10
334.37289
  20
136.73953
  0
VERTEX
  5
200
  8
Layer_0
  10
334.83368
  20
137.70264
  0
VERTEX
  5
201
  8
Layer_0
  10
335.26605
  20
138.67908
  0
VERTEX
  5
202
  8
Layer_0
  10
335.66971
  20
139.66824
  0
VERTEX
  5
203
  8
Layer_0
  10
336.04428
  20
140.66951
  0
VERTEX
  5
204
  8
Layer_0
  10
336.42603
  20
141.76634
  0
VERTEX
  5
205
  8
Layer_0
  10
336.78058
  20
142.87207
  0
VERTEX
  5
206
  8
Layer_0
  10
337.10782
  20
143.98621
  0
VERTEX
  5
207
  8
Layer_0
  10
337.40756
  20
145.10823
  0
VERTEX
  5
208
  8
Layer_0
  10
327.3519
  20
147.64803
  0
VERTEX
  5
209
  8
Layer_0
  10
327.07797
  20
146.46785
  0
VERTEX
  5
20a
  8
Layer_0
  10
326.6405
  20
144.84677
  0
VERTEX
  5
20b
  8
Layer_0
  10
326.11639
  20
143.25287
  0
VERTEX
  5
20c
  8
Layer_0
  10
325.50693
  20
141.68961
  0
VERTEX
  5
20d
  8
Layer_0
  10
324.81332
  20
140.16048
  0
VERTEX
  5
20e
  8
Layer_0
  10
324.41699
  20
139.38315
  0
VERTEX
  5
20f
  8
Layer_0
  10
323.99026
  20
138.62326
  0
VERTEX
  5
210
  8
Layer_0
  10
323.53381
  20
137.88167
  0
VERTEX
  5
211
  8
Layer_0
  10
323.04822
  20
137.15923
  0
VERTEX
  5
212
  8
Layer_0
  10
322.53409
  20
136.4568
  0
VERTEX
  5
213
  8
Layer_0
  10
321.992
  20
135.77528
  0
VERTEX
  5
214
  8
Layer_0
  10
321.42261
  20
135.11551
  0
VERTEX
  5
215
  8
Layer_0
  10
320.82651
  20
134.47835
  0
VERTEX
  5
216
  8
Layer_0
  10
320.27182
  20
133.9406
  0
VERTEX
  5
217
  8
Layer_0
  10
319.69867
  20
133.42537
  0
VERTEX
  5
218
  8
Layer_0
  10
319.10788
  20
132.93304
  0
VERTEX
  5
219
  8
Layer_0
  10
318.50012
  20
132.46402
  0
VERTEX
  5
21a
  8
Layer_0
  10
317.8761
  20
132.01865
  0
VERTEX
  5
21b
  8
Layer_0
  10
317.23654
  20
131.59732
  0
VERTEX
  5
21c
  8
Layer_0
  10
316.58215
  20
131.20041
  0
VERTEX
  5
21d
  8
Layer_0
  10
315.91364
  20
130.82831
  0
VERTEX
  5
21e
  8
Layer_0
  10
315.23172
  20
130.48138
  0
VERTEX
  5
21f
  8
Layer_0
  10
314.53711
  20
130.16003
  0
VERTEX
  5
220
  8
Layer_0
  10
313.83047
  20
129.86462
  0
VERTEX
  5
221
  8
Layer_0
  10
313.11261
  20
129.5955
  0
VERTEX
  5
222
  8
Layer_0
  10
312.38416
  20
129.3531
  0
VERTEX
  5
223
  8
Layer_0
  10
311.64587
  20
129.13779
  0
VERTEX
  5
224
  8
Layer_0
  10
310.8985
  20
128.94992
  0
VERTEX
  5
225
  8
Layer_0
  10
310.14267
  20
128.78987
  0
VERTEX
  5
226
  8
Layer_0
  10
308.67899
  20
128.54659
  0
VERTEX
  5
227
  8
Layer_0
  10
307.20743
  20
128.388
  0
VERTEX
  5
228
  8
Layer_0
  10
305.73157
  20
128.314
  0
VERTEX
  5
229
  8
Layer_0
  10
304.2551
  20
128.32448
  0
VERTEX
  5
22a
  8
Layer_0
  10
302.78162
  20
128.41928
  0
VERTEX
  5
22b
  8
Layer_0
  10
301.31482
  20
128.59827
  0
VERTEX
  5
22c
  8
Layer_0
  10
299.85828
  20
128.86133
  0
VERTEX
  5
22d
  8
Layer_0
  10
298.41562
  20
129.20833
  0
VERTEX
  5
22e
  8
Layer_0
  10
297.29248
  20
129.54749
  0
VERTEX
  5
22f
  8
Layer_0
  10
296.18903
  20
129.93987
  0
VERTEX
  5
230
  8
Layer_0
  10
295.10706
  20
130.38454
  0
VERTEX
  5
231
  8
Layer_0
  10
294.0484
  20
130.88058
  0
VERTEX
  5
232
  8
Layer_0
  10
293.01489
  20
131.42712
  0
VERTEX
  5
233
  8
Layer_0
  10
292.00836
  20
132.02321
  0
VERTEX
  5
234
  8
Layer_0
  10
291.03067
  20
132.66795
  0
VERTEX
  5
235
  8
Layer_0
  10
290.08359
  20
133.36043
  0
VERTEX
  5
236
  8
Layer_0
  10
289.24524
  20
134.0708
  0
VERTEX
  5
237
  8
Layer_0
  10
288.44739
  20
134.82301
  0
VERTEX
  5
238
  8
Layer_0
  10
287.6915
  20
135.61528
  0
VERTEX
  5
239
  8
Layer_0
  10
286.97903
  20
136.44582
  0
VERTEX
  5
23a
  8
Layer_0
  10
286.31143
  20
137.31284
  0
VERTEX
  5
23b
  8
Layer_0
  10
285.69016
  20
138.21452
  0
VERTEX
  5
23c
  8
Layer_0
  10
285.11667
  20
139.14911
  0
VERTEX
  5
23d
  8
Layer_0
  10
284.59238
  20
140.11482
  0
VERTEX
  5
23e
  8
Layer_0
  10
284.16547
  20
140.99606
  0
VERTEX
  5
23f
  8
Layer_0
  10
283.76511
  20
141.88898
  0
VERTEX
  5
240
  8
Layer_0
  10
283.39154
  20
142.79294
  0
VERTEX
  5
241
  8
Layer_0
  10
283.04498
  20
143.70735
  0
VERTEX
  5
242
  8
Layer_0
  10
282.72559
  20
144.63162
  0
VERTEX
  5
243
  8
Layer_0
  10
282.43365
  20
145.56517
  0
VERTEX
  5
244
  8
Layer_0
  10
282.16937
  20
146.50737
  0
VERTEX
  5
245
  8
Layer_0
  10
281.93295
  20
147.4576
  0
VERTEX
  5
246
  8
Layer_0
  10
281.63617
  20
148.80925
  0
VERTEX
  5
247
  8
Layer_0
  10
281.37668
  20
150.16779
  0
VERTEX
  5
248
  8
Layer_0
  10
281.15463
  20
151.53241
  0
VERTEX
  5
249
  8
Layer_0
  10
280.97006
  20
152.90234
  0
VERTEX
  5
24a
  8
Layer_0
  10
280.82312
  20
154.27682
  0
VERTEX
  5
24b
  8
Layer_0
  10
280.71384
  20
155.65506
  0
VERTEX
  5
24c
  8
Layer_0
  10
280.64233
  20
157.0363
  0
VERTEX
  5
24d
  8
Layer_0
  10
280.60873
  20
158.41975
  0
VERTEX
  5
24e
  8
Layer_0
  10
280.60065
  20
160.54608
  0
VERTEX
  5
24f
  8
Layer_0
  10
280.69189
  20
162.66698
  0
VERTEX
  5
250
  8
Layer_0
  10
280.8819
  20
164.77902
  0
VERTEX
  5
251
  8
Layer_0
  10
281.1701
  20
166.87874
  0
VERTEX
  5
252
  8
Layer_0
  10
281.55591
  20
168.96274
  0
VERTEX
  5
253
  8
Layer_0
  10
282.03888
  20
171.02757
  0
VERTEX
  5
254
  8
Layer_0
  10
282.61835
  20
173.06981
  0
VERTEX
  5
255
  8
Layer_0
  10
283.29379
  20
175.08601
  0
VERTEX
  5
256
  8
Layer_0
  10
283.66296
  20
176.0256
  0
VERTEX
  5
257
  8
Layer_0
  10
284.07318
  20
176.94397
  0
VERTEX
  5
258
  8
Layer_0
  10
284.52347
  20
177.8399
  0
VERTEX
  5
259
  8
Layer_0
  10
285.0127
  20
178.7122
  0
VERTEX
  5
25a
  8
Layer_0
  10
285.53992
  20
179.55975
  0
VERTEX
  5
25b
  8
Layer_0
  10
286.10419
  20
180.38138
  0
VERTEX
  5
25c
  8
Layer_0
  10
286.70435
  20
181.17587
  0
VERTEX
  5
25d
  8
Layer_0
  10
287.33948
  20
181.94211
  0
VERTEX
  5
25e
  8
Layer_0
  10
288.00854
  20
182.67889
  0
VERTEX
  5
25f
  8
Layer_0
  10
288.71054
  20
183.38506
  0
VERTEX
  5
260
  8
Layer_0
  10
289.44443
  20
184.05943
  0
VERTEX
  5
261
  8
Layer_0
  10
290.20923
  20
184.70087
  0
VERTEX
  5
262
  8
Layer_0
  10
291.00388
  20
185.30817
  0
VERTEX
  5
263
  8
Layer_0
  10
291.82739
  20
185.88019
  0
VERTEX
  5
264
  8
Layer_0
  10
292.67877
  20
186.41574
  0
VERTEX
  5
265
  8
Layer_0
  10
293.55698
  20
186.91365
  0
VERTEX
  5
266
  8
Layer_0
  10
294.40387
  20
187.33447
  0
VERTEX
  5
267
  8
Layer_0
  10
295.26599
  20
187.72012
  0
VERTEX
  5
268
  8
Layer_0
  10
296.1424
  20
188.07025
  0
VERTEX
  5
269
  8
Layer_0
  10
297.03186
  20
188.38448
  0
VERTEX
  5
26a
  8
Layer_0
  10
297.93335
  20
188.66245
  0
VERTEX
  5
26b
  8
Layer_0
  10
298.84564
  20
188.90381
  0
VERTEX
  5
26c
  8
Layer_0
  10
299.76776
  20
189.10818
  0
VERTEX
  5
26d
  8
Layer_0
  10
300.69858
  20
189.27522
  0
VERTEX
  5
26e
  8
Layer_0
  10
301.90558
  20
189.45187
  0
VERTEX
  5
26f
  8
Layer_0
  10
303.11722
  20
189.5795
  0
VERTEX
  5
270
  8
Layer_0
  10
304.33203
  20
189.65811
  0
VERTEX
  5
271
  8
Layer_0
  10
305.54852
  20
189.68773
  0
VERTEX
  5
272
  8
Layer_0
  10
306.7652
  20
189.66827
  0
VERTEX
  5
273
  8
Layer_0
  10
307.98062
  20
189.59982
  0
VERTEX
  5
274
  8
Layer_0
  10
309.19327
  20
189.4823
  0
VERTEX
  5
275
  8
Layer_0
  10
310.4017
  20
189.31575
  0
VERTEX
  5
276
  8
Layer_0
  10
311.30505
  20
189.1465
  0
VERTEX
  5
277
  8
Layer_0
  10
312.19763
  20
188.93423
  0
VERTEX
  5
278
  8
Layer_0
  10
313.07794
  20
188.67947
  0
VERTEX
  5
279
  8
Layer_0
  10
313.94446
  20
188.38281
  0
VERTEX
  5
27a
  8
Layer_0
  10
314.79572
  20
188.0448
  0
VERTEX
  5
27b
  8
Layer_0
  10
315.63019
  20
187.66599
  0
VERTEX
  5
27c
  8
Layer_0
  10
316.44635
  20
187.24692
  0
VERTEX
  5
27d
  8
Layer_0
  10
317.24277
  20
186.78816
  0
VERTEX
  5
27e
  8
Layer_0
  10
318.00943
  20
186.28067
  0
VERTEX
  5
27f
  8
Layer_0
  10
318.74692
  20
185.7348
  0
VERTEX
  5
280
  8
Layer_0
  10
319.45386
  20
185.15189
  0
VERTEX
  5
281
  8
Layer_0
  10
320.12891
  20
184.53322
  0
VERTEX
  5
282
  8
Layer_0
  10
320.77069
  20
183.88013
  0
VERTEX
  5
283
  8
Layer_0
  10
321.37787
  20
183.19391
  0
VERTEX
  5
284
  8
Layer_0
  10
321.9491
  20
182.47589
  0
VERTEX
  5
285
  8
Layer_0
  10
322.483
  20
181.72737
  0
VERTEX
  5
286
  8
Layer_0
  10
323.37244
  20
180.32251
  0
VERTEX
  5
287
  8
Layer_0
  10
324.17532
  20
178.86816
  0
VERTEX
  5
288
  8
Layer_0
  10
324.88962
  20
177.36832
  0
VERTEX
  5
289
  8
Layer_0
  10
325.51328
  20
175.82698
  0
VERTEX
  5
28a
  8
Layer_0
  10
325.87622
  20
174.83032
  0
VERTEX
  5
28b
  8
Layer_0
  10
326.21152
  20
173.82405
  0
VERTEX
  5
28c
  8
Layer_0
  10
336.11166
  20
176.15657
  0
VERTEX
  5
28d
  8
Layer_0
  10
335.7854
  20
177.24324
  0
VERTEX
  5
28e
  8
Layer_0
  10
335.42377
  20
178.31772
  0
VERTEX
  5
28f
  8
Layer_0
  10
335.02725
  20
179.37912
  0
VERTEX
  5
290
  8
Layer_0
  10
334.59613
  20
180.42664
  0
VERTEX
  5
291
  8
Layer_0
  10
334.13077
  20
181.45941
  0
VERTEX
  5
292
  8
Layer_0
  10
333.63153
  20
182.47659
  0
VERTEX
  5
293
  8
Layer_0
  10
333.09885
  20
183.47733
  0
VERTEX
  5
294
  8
Layer_0
  10
332.53305
  20
184.46077
  0
VERTEX
  5
295
  8
Layer_0
  10
331.83759
  20
185.56212
  0
VERTEX
  5
296
  8
Layer_0
  10
331.09439
  20
186.6257
  0
VERTEX
  5
297
  8
Layer_0
  10
330.30508
  20
187.65027
  0
VERTEX
  5
298
  8
Layer_0
  10
329.47131
  20
188.63452
  0
VERTEX
  5
299
  8
Layer_0
  10
328.59473
  20
189.57721
  0
VERTEX
  5
29a
  8
Layer_0
  10
327.677
  20
190.47705
  0
VERTEX
  5
29b
  8
Layer_0
  10
326.71979
  20
191.33276
  0
VERTEX
  5
29c
  8
Layer_0
  10
325.72461
  20
192.1431
  0
VERTEX
  5
29d
  8
Layer_0
  10
324.69324
  20
192.90674
  0
VERTEX
  5
29e
  8
Layer_0
  10
323.62723
  20
193.62244
  0
VERTEX
  5
29f
  8
Layer_0
  10
322.52826
  20
194.28893
  0
VERTEX
  5
2a0
  8
Layer_0
  10
321.39795
  20
194.90492
  0
VERTEX
  5
2a1
  8
Layer_0
  10
320.23798
  20
195.46913
  0
VERTEX
  5
2a2
  8
Layer_0
  10
319.04993
  20
195.98032
  0
VERTEX
  5
2a3
  8
Layer_0
  10
317.83548
  20
196.43718
  0
VERTEX
  5
2a4
  8
Layer_0
  10
316.59628
  20
196.83846
  0
VERTEX
  5
2a5
  8
Layer_0
  10
315.48422
  20
197.14622
  0
VERTEX
  5
2a6
  8
Layer_0
  10
314.36362
  20
197.41736
  0
VERTEX
  5
2a7
  8
Layer_0
  10
313.23538
  20
197.65172
  0
VERTEX
  5
2a8
  8
Layer_0
  10
312.1004
  20
197.84917
  0
VERTEX
  5
2a9
  8
Layer_0
  10
310.95963
  20
198.00955
  0
VERTEX
  5
2aa
  8
Layer_0
  10
309.8139
  20
198.13274
  0
VERTEX
  5
2ab
  8
Layer_0
  10
308.66415
  20
198.21857
  0
VERTEX
  5
2ac
  8
Layer_0
  10
307.51132
  20
198.26692
  0
VERTEX
  5
2ad
  8
Layer_0
  10
305.96924
  20
198.29556
  0
VERTEX
  5
2ae
  8
Layer_0
  10
304.42896
  20
198.26459
  0
VERTEX
  5
2af
  8
Layer_0
  10
302.89215
  20
198.17422
  0
VERTEX
  5
2b0
  8
Layer_0
  10
301.36053
  20
198.02463
  0
VERTEX
  5
2b1
  8
Layer_0
  10
299.83585
  20
197.81604
  0
VERTEX
  5
2b2
  8
Layer_0
  10
298.31976
  20
197.54863
  0
VERTEX
  5
2b3
  8
Layer_0
  10
296.81406
  20
197.22263
  0
VERTEX
  5
2b4
  8
Layer_0
  10
295.3204
  20
196.83821
  0
VERTEX
  5
2b5
  8
Layer_0
  10
293.7641
  20
196.36496
  0
VERTEX
  5
2b6
  8
Layer_0
  10
292.2338
  20
195.82123
  0
VERTEX
  5
2b7
  8
Layer_0
  10
290.73178
  20
195.20818
  0
VERTEX
  5
2b8
  8
Layer_0
  10
289.26035
  20
194.52695
  0
VERTEX
  5
2b9
  8
Layer_0
  10
287.82184
  20
193.77869
  0
VERTEX
  5
2ba
  8
Layer_0
  10
286.41858
  20
192.96454
  0
VERTEX
  5
2bb
  8
Layer_0
  10
285.05292
  20
192.08563
  0
VERTEX
  5
2bc
  8
Layer_0
  10
283.72714
  20
191.14314
  0
VERTEX
  5
2bd
  8
Layer_0
  10
282.58063
  20
190.22086
  0
VERTEX
  5
2be
  8
Layer_0
  10
281.48096
  20
189.24686
  0
VERTEX
  5
2bf
  8
Layer_0
  10
280.42987
  20
188.22299
  0
VERTEX
  5
2c0
  8
Layer_0
  10
279.42896
  20
187.15112
  0
VERTEX
  5
2c1
  8
Layer_0
  10
278.47992
  20
186.03308
  0
VERTEX
  5
2c2
  8
Layer_0
  10
277.58435
  20
184.87074
  0
VERTEX
  5
2c3
  8
Layer_0
  10
276.74396
  20
183.66592
  0
VERTEX
  5
2c4
  8
Layer_0
  10
275.9603
  20
182.42049
  0
VERTEX
  5
2c5
  8
Layer_0
  10
275.25525
  20
181.18811
  0
VERTEX
  5
2c6
  8
Layer_0
  10
274.59711
  20
179.93167
  0
VERTEX
  5
2c7
  8
Layer_0
  10
273.98654
  20
178.65256
  0
VERTEX
  5
2c8
  8
Layer_0
  10
273.42407
  20
177.35213
  0
VERTEX
  5
2c9
  8
Layer_0
  10
272.91025
  20
176.03172
  0
VERTEX
  5
2ca
  8
Layer_0
  10
272.44559
  20
174.69269
  0
VERTEX
  5
2cb
  8
Layer_0
  10
272.0307
  20
173.3364
  0
VERTEX
  5
2cc
  8
Layer_0
  10
271.66611
  20
171.96419
  0
VERTEX
  5
2cd
  8
Layer_0
  10
271.35669
  20
170.61887
  0
VERTEX
  5
2ce
  8
Layer_0
  10
271.08484
  20
169.26627
  0
VERTEX
  5
2cf
  8
Layer_0
  10
270.85065
  20
167.90717
  0
VERTEX
  5
2d0
  8
Layer_0
  10
270.6543
  20
166.54236
  0
VERTEX
  5
2d1
  8
Layer_0
  10
270.49585
  20
165.17264
  0
VERTEX
  5
2d2
  8
Layer_0
  10
270.37537
  20
163.79877
  0
VERTEX
  5
2d3
  8
Layer_0
  10
270.29303
  20
162.42157
  0
VERTEX
  5
2d4
  8
Layer_0
  10
270.24887
  20
161.04182
  0
VERTEX
  5
2d5
  8
Layer_0
  10
270.2262
  20
159.0462
  0
VERTEX
  5
2d6
  8
Layer_0
  10
270.27765
  20
157.05319
  0
VERTEX
  5
2d7
  8
Layer_0
  10
270.40302
  20
155.06482
  0
VERTEX
  5
2d8
  8
Layer_0
  10
270.60199
  20
153.08316
  0
VERTEX
  5
2d9
  8
Layer_0
  10
270.87439
  20
151.11024
  0
VERTEX
  5
2da
  8
Layer_0
  10
271.22
  20
149.14813
  0
VERTEX
  5
2db
  8
Layer_0
  10
271.63852
  20
147.19885
  0
VERTEX
  5
2dc
  8
Layer_0
  10
272.12973
  20
145.26448
  0
VERTEX
  5
2dd
  8
Layer_0
  10
272.4837
  20
144.03839
  0
VERTEX
  5
2de
  8
Layer_0
  10
272.87119
  20
142.82323
  0
VERTEX
  5
2df
  8
Layer_0
  10
273.29187
  20
141.61966
  0
VERTEX
  5
2e0
  8
Layer_0
  10
273.74545
  20
140.42839
  0
VERTEX
  5
2e1
  8
Layer_0
  10
274.23172
  20
139.25006
  0
VERTEX
  5
2e2
  8
Layer_0
  10
274.75043
  20
138.08539
  0
VERTEX
  5
2e3
  8
Layer_0
  10
275.30121
  20
136.93503
  0
VERTEX
  5
2e4
  8
Layer_0
  10
275.88388
  20
135.79964
  0
VERTEX
  5
2e5
  8
Layer_0
  10
276.53271
  20
134.64584
  0
VERTEX
  5
2e6
  8
Layer_0
  10
277.22903
  20
133.52222
  0
VERTEX
  5
2e7
  8
Layer_0
  10
277.97183
  20
132.43015
  0
VERTEX
  5
2e8
  8
Layer_0
  10
278.75995
  20
131.37108
  0
VERTEX
  5
2e9
  8
Layer_0
  10
279.59232
  20
130.34641
  0
VERTEX
  5
2ea
  8
Layer_0
  10
280.4678
  20
129.35756
  0
VERTEX
  5
2eb
  8
Layer_0
  10
281.38538
  20
128.40594
  0
VERTEX
  5
2ec
  8
Layer_0
  10
282.34384
  20
127.493
  0
VERTEX
  5
2ed
  8
Layer_0
  10
283.45349
  20
126.53621
  0
VERTEX
  5
2ee
  8
Layer_0
  10
284.60989
  20
125.64151
  0
VERTEX
  5
2ef
  8
Layer_0
  10
285.81036
  20
124.81042
  0
VERTEX
  5
2f0
  8
Layer_0
  10
287.05225
  20
124.04451
  0
VERTEX
  5
2f1
  8
Layer_0
  10
288.33292
  20
123.34534
  0
VERTEX
  5
2f2
  8
Layer_0
  10
289.64966
  20
122.71443
  0
VERTEX
  5
2f3
  8
Layer_0
  10
290.99982
  20
122.15336
  0
VERTEX
  5
2f4
  8
Layer_0
  10
292.38071
  20
121.66365
  0
VERTEX
  5
2f5
  8
Layer_0
  10
293.32376
  20
121.3708
  0
VERTEX
  5
2f6
  8
Layer_0
  10
294.27368
  20
121.1028
  0
VERTEX
  5
2f7
  8
Layer_0
  10
295.22989
  20
120.85973
  0
VERTEX
  5
2f8
  8
Layer_0
  10
296.19196
  20
120.64172
  0
VERTEX
  5
2f9
  8
Layer_0
  10
297.15942
  20
120.44888
  0
VERTEX
  5
2fa
  8
Layer_0
  10
298.13171
  20
120.28128
  0
VERTEX
  5
2fb
  8
Layer_0
  10
299.1084
  20
120.13905
  0
VERTEX
  5
2fc
  8
Layer_0
  10
300.08896
  20
120.02229
  0
VERTEX
  5
2fd
  8
Layer_0
  10
301.91559
  20
119.85476
  0
VERTEX
  5
2fe
  8
Layer_0
  10
303.7464
  20
119.75102
  0
VERTEX
  5
2ff
  8
Layer_0
  10
305.57971
  20
119.71114
  0
VERTEX
  5
300
  8
Layer_0
  10
307.41391
  20
119.73518
  0
SEQEND
  0
POLYLINE
  5
302
  8
Layer_0
  62
0
  70
1
  66
1
  10
0
  20
0
  30
0
  0
VERTEX
  5
302
  8
Layer_0
  10
502.02325
  20
49.267578
  0
VERTEX
  5
303
  8
Layer_0
  10
503.36893
  20
49.287605
  0
VERTEX
  5
304
  8
Layer_0
  10
504.71295
  20
49.342545
  0
VERTEX
  5
305
  8
Layer_0
  10
506.05463
  20
49.432327
  0
VERTEX
  5
306
  8
Layer_0
  10
507.39331
  20
49.556881
  0
VERTEX
  5
307
  8
Layer_0
  10
508.7283
  20
49.716133
  0
VERTEX
  5
308
  8
Layer_0
  10
510.05893
  20
49.910011
  0
VERTEX
  5
309
  8
Layer_0
  10
511.38452
  20
50.138447
  0
VERTEX
  5
30a
  8
Layer_0
  10
512.70441
  20
50.401367
  0
VERTEX
  5
30b
  8
Layer_0
  10
514.42493
  20
50.825737
  0
VERTEX
  5
30c
  8
Layer_0
  10
516.11841
  20
51.343491
  0
VERTEX
  5
30d
  8
Layer_0
  10
517.78088
  20
51.953354
  0
VERTEX
  5
30e
  8
Layer_0
  10
519.40851
  20
52.654053
  0
VERTEX
  5
30f
  8
Layer_0
  10
520.32526
  20
53.110184
  0
VERTEX
  5
310
  8
Layer_0
  10
521.21985
  20
53.605362
  0
VERTEX
  5
311
  8
Layer_0
  10
522.09106
  20
54.138725
  0
VERTEX
  5
312
  8
Layer_0
  10
522.93774
  20
54.709427
  0
VERTEX
  5
313
  8
Layer_0
  10
523.75854
  20
55.31662
  0
VERTEX
  5
314
  8
Layer_0
  10
524.55249
  20
55.95945
  0
VERTEX
  5
315
  8
Layer_0
  10
525.31824
  20
56.637074
  0
VERTEX
  5
316
  8
Layer_0
  10
526.0545
  20
57.348633
  0
VERTEX
  5
317
  8
Layer_0
  10
527.12524
  20
58.477867
  0
VERTEX
  5
318
  8
Layer_0
  10
528.13678
  20
59.656734
  0
VERTEX
  5
319
  8
Layer_0
  10
529.08746
  20
60.882835
  0
VERTEX
  5
31a
  8
Layer_0
  10
529.97571
  20
62.153778
  0
VERTEX
  5
31b
  8
Layer_0
  10
530.79987
  20
63.467163
  0
VERTEX
  5
31c
  8
Layer_0
  10
531.55835
  20
64.82058
  0
VERTEX
  5
31d
  8
Layer_0
  10
532.24963
  20
66.211639
  0
VERTEX
  5
31e
  8
Layer_0
  10
532.87213
  20
67.637939
  0
VERTEX
  5
31f
  8
Layer_0
  10
533.53204
  20
69.300362
  0
VERTEX
  5
320
  8
Layer_0
  10
534.12622
  20
70.985237
  0
VERTEX
  5
321
  8
Layer_0
  10
534.65436
  20
72.690613
  0
VERTEX
  5
322
  8
Layer_0
  10
535.11584
  20
74.41452
  0
VERTEX
  5
323
  8
Layer_0
  10
535.51025
  20
76.155014
  0
VERTEX
  5
324
  8
Layer_0
  10
535.83704
  20
77.91011
  0
VERTEX
  5
325
  8
Layer_0
  10
536.0957
  20
79.677856
  0
VERTEX
  5
326
  8
Layer_0
  10
536.28595
  20
81.456299
  0
VERTEX
  5
327
  8
Layer_0
  10
536.44458
  20
83.433899
  0
VERTEX
  5
328
  8
Layer_0
  10
536.54138
  20
85.414032
  0
VERTEX
  5
329
  8
Layer_0
  10
536.57642
  20
87.395241
  0
VERTEX
  5
32a
  8
Layer_0
  10
536.54956
  20
89.376106
  0
VERTEX
  5
32b
  8
Layer_0
  10
536.46094
  20
91.355164
  0
VERTEX
  5
32c
  8
Layer_0
  10
536.31061
  20
93.330971
  0
VERTEX
  5
32d
  8
Layer_0
  10
536.09863
  20
95.302094
  0
VERTEX
  5
32e
  8
Layer_0
  10
535.82501
  20
97.26709
  0
VERTEX
  5
32f
  8
Layer_0
  10
535.59167
  20
98.605652
  0
VERTEX
  5
330
  8
Layer_0
  10
535.31622
  20
99.935165
  0
VERTEX
  5
331
  8
Layer_0
  10
534.99908
  20
101.25465
  0
VERTEX
  5
332
  8
Layer_0
  10
534.6405
  20
102.56314
  0
VERTEX
  5
333
  8
Layer_0
  10
534.24072
  20
103.85964
  0
VERTEX
  5
334
  8
Layer_0
  10
533.80011
  20
105.14319
  0
VERTEX
  5
335
  8
Layer_0
  10
533.31891
  20
106.4128
  0
VERTEX
  5
336
  8
Layer_0
  10
532.79742
  20
107.66748
  0
VERTEX
  5
337
  8
Layer_0
  10
532.11292
  20
109.13161
  0
VERTEX
  5
338
  8
Layer_0
  10
531.35364
  20
110.55457
  0
VERTEX
  5
339
  8
Layer_0
  10
530.52136
  20
111.93358
  0
VERTEX
  5
33a
  8
Layer_0
  10
529.61835
  20
113.26593
  0
VERTEX
  5
33b
  8
Layer_0
  10
528.6463
  20
114.54886
  0
VERTEX
  5
33c
  8
Layer_0
  10
527.60742
  20
115.77963
  0
VERTEX
  5
33d
  8
Layer_0
  10
526.50342
  20
116.95551
  0
VERTEX
  5
33e
  8
Layer_0
  10
525.33649
  20
118.07373
  0
VERTEX
  5
33f
  8
Layer_0
  10
524.20923
  20
119.04155
  0
VERTEX
  5
340
  8
Layer_0
  10
523.03021
  20
119.93922
  0
VERTEX
  5
341
  8
Layer_0
  10
521.80267
  20
120.76488
  0
VERTEX
  5
342
  8
Layer_0
  10
520.53003
  20
121.5167
  0
VERTEX
  5
343
  8
Layer_0
  10
519.2157
  20
122.19283
  0
VERTEX
  5
344
  8
Layer_0
  10
517.86279
  20
122.7914
  0
VERTEX
  5
345
  8
Layer_0
  10
516.47485
  20
123.31059
  0
VERTEX
  5
346
  8
Layer_0
  10
515.05524
  20
123.74854
  0
VERTEX
  5
347
  8
Layer_0
  10
513.45538
  20
124.15457
  0
VERTEX
  5
348
  8
Layer_0
  10
511.83887
  20
124.48325
  0
VERTEX
  5
349
  8
Layer_0
  10
510.20847
  20
124.73405
  0
VERTEX
  5
34a
  8
Layer_0
  10
508.56696
  20
124.90649
  0
VERTEX
  5
34b
  8
Layer_0
  10
506.40955
  20
125.06662
  0
VERTEX
  5
34c
  8
Layer_0
  10
504.24936
  20
125.17743
  0
VERTEX
  5
34d
  8
Layer_0
  10
502.08719
  20
125.23889
  0
VERTEX
  5
34e
  8
Layer_0
  10
499.92389
  20
125.25098
  0
VERTEX
  5
34f
  8
Layer_0
  10
473.74762
  20
125.25098
  0
VERTEX
  5
350
  8
Layer_0
  10
473.74762
  20
49.262451
  0
VERTEX
  5
351
  8
Layer_0
  10
501.16779
  20
49.262451
  0
VERTEX
  5
352
  8
Layer_0
  10
502.02325
  20
49.267578
  0
SEQEND
  0
POLYLINE
  5
354
  8
Layer_0
  62
0
  70
1
  66
1
  10
0
  20
0
  30
0
  0
VERTEX
  5
354
  8
Layer_0
  10
483.80353
  20
58.229736
  0
VERTEX
  5
355
  8
Layer_0
  10
483.80353
  20
116.28369
  0
VERTEX
  5
356
  8
Layer_0
  10
499.76837
  20
116.28369
  0
VERTEX
  5
357
  8
Layer_0
  10
501.90631
  20
116.27153
  0
VERTEX
  5
358
  8
Layer_0
  10
504.04193
  20
116.18538
  0
VERTEX
  5
359
  8
Layer_0
  10
506.17328
  20
116.02533
  0
VERTEX
  5
35a
  8
Layer_0
  10
508.2984
  20
115.7915
  0
VERTEX
  5
35b
  8
Layer_0
  10
509.43958
  20
115.6208
  0
VERTEX
  5
35c
  8
Layer_0
  10
510.56848
  20
115.38632
  0
VERTEX
  5
35d
  8
Layer_0
  10
511.6824
  20
115.08868
  0
VERTEX
  5
35e
  8
Layer_0
  10
512.77863
  20
114.72852
  0
VERTEX
  5
35f
  8
Layer_0
  10
513.57874
  20
114.38701
  0
VERTEX
  5
360
  8
Layer_0
  10
514.35889
  20
114.00604
  0
VERTEX
  5
361
  8
Layer_0
  10
515.11768
  20
113.58652
  0
VERTEX
  5
362
  8
Layer_0
  10
515.85382
  20
113.12936
  0
VERTEX
  5
363
  8
Layer_0
  10
516.5658
  20
112.6355
  0
VERTEX
  5
364
  8
Layer_0
  10
517.25238
  20
112.10585
  0
VERTEX
  5
365
  8
Layer_0
  10
517.91199
  20
111.54134
  0
VERTEX
  5
366
  8
Layer_0
  10
518.54327
  20
110.94287
  0
VERTEX
  5
367
  8
Layer_0
  10
519.32544
  20
110.12864
  0
VERTEX
  5
368
  8
Layer_0
  10
520.0675
  20
109.2802
  0
VERTEX
  5
369
  8
Layer_0
  10
520.76843
  20
108.39905
  0
VERTEX
  5
36a
  8
Layer_0
  10
521.42725
  20
107.48669
  0
VERTEX
  5
36b
  8
Layer_0
  10
522.04285
  20
106.54465
  0
VERTEX
  5
36c
  8
Layer_0
  10
522.61414
  20
105.57441
  0
VERTEX
  5
36d
  8
Layer_0
  10
523.14026
  20
104.5775
  0
VERTEX
  5
36e
  8
Layer_0
  10
523.61993
  20
103.55542
  0
VERTEX
  5
36f
  8
Layer_0
  10
524.21234
  20
102.00772
  0
VERTEX
  5
370
  8
Layer_0
  10
524.71631
  20
100.43037
  0
VERTEX
  5
371
  8
Layer_0
  10
525.13062
  20
98.827179
  0
VERTEX
  5
372
  8
Layer_0
  10
525.45441
  20
97.201904
  0
VERTEX
  5
373
  8
Layer_0
  10
525.63794
  20
96.038712
  0
VERTEX
  5
374
  8
Layer_0
  10
525.7959
  20
94.872185
  0
VERTEX
  5
375
  8
Layer_0
  10
525.92822
  20
93.702759
  0
VERTEX
  5
376
  8
Layer_0
  10
526.03479
  20
92.530861
  0
VERTEX
  5
377
  8
Layer_0
  10
526.11566
  20
91.356903
  0
VERTEX
  5
378
  8
Layer_0
  10
526.17065
  20
90.18132
  0
VERTEX
  5
379
  8
Layer_0
  10
526.19995
  20
89.004509
  0
VERTEX
  5
37a
  8
Layer_0
  10
526.20343
  20
87.826904
  0
VERTEX
  5
37b
  8
Layer_0
  10
526.19971
  20
86.601822
  0
VERTEX
  5
37c
  8
Layer_0
  10
526.16919
  20
85.377548
  0
VERTEX
  5
37d
  8
Layer_0
  10
526.11182
  20
84.154541
  0
VERTEX
  5
37e
  8
Layer_0
  10
526.02771
  20
82.93322
  0
VERTEX
  5
37f
  8
Layer_0
  10
525.91681
  20
81.714035
  0
VERTEX
  5
380
  8
Layer_0
  10
525.77917
  20
80.497437
  0
VERTEX
  5
381
  8
Layer_0
  10
525.61487
  20
79.283859
  0
VERTEX
  5
382
  8
Layer_0
  10
525.42389
  20
78.07373
  0
VERTEX
  5
383
  8
Layer_0
  10
525.18713
  20
76.808929
  0
VERTEX
  5
384
  8
Layer_0
  10
524.90051
  20
75.556084
  0
VERTEX
  5
385
  8
Layer_0
  10
524.56445
  20
74.316635
  0
VERTEX
  5
386
  8
Layer_0
  10
524.17938
  20
73.092041
  0
VERTEX
  5
387
  8
Layer_0
  10
523.74585
  20
71.883759
  0
VERTEX
  5
388
  8
Layer_0
  10
523.26428
  20
70.693253
  0
VERTEX
  5
389
  8
Layer_0
  10
522.73523
  20
69.521957
  0
VERTEX
  5
38a
  8
Layer_0
  10
522.15924
  20
68.371338
  0
VERTEX
  5
38b
  8
Layer_0
  10
521.76929
  20
67.667603
  0
VERTEX
  5
38c
  8
Layer_0
  10
521.35217
  20
66.980713
  0
VERTEX
  5
38d
  8
Layer_0
  10
520.90851
  20
66.311432
  0
VERTEX
  5
38e
  8
Layer_0
  10
520.43878
  20
65.660507
  0
VERTEX
  5
38f
  8
Layer_0
  10
519.94373
  20
65.028702
  0
VERTEX
  5
390
  8
Layer_0
  10
519.42377
  20
64.416779
  0
VERTEX
  5
391
  8
Layer_0
  10
518.87952
  20
63.825497
  0
VERTEX
  5
392
  8
Layer_0
  10
518.31158
  20
63.255615
  0
VERTEX
  5
393
  8
Layer_0
  10
517.7572
  20
62.776424
  0
VERTEX
  5
394
  8
Layer_0
  10
517.18262
  20
62.32362
  0
VERTEX
  5
395
  8
Layer_0
  10
516.58868
  20
61.8978
  0
VERTEX
  5
396
  8
Layer_0
  10
515.97632
  20
61.499561
  0
VERTEX
  5
397
  8
Layer_0
  10
515.3465
  20
61.129498
  0
VERTEX
  5
398
  8
Layer_0
  10
514.7002
  20
60.788208
  0
VERTEX
  5
399
  8
Layer_0
  10
514.03845
  20
60.476292
  0
VERTEX
  5
39a
  8
Layer_0
  10
513.36212
  20
60.194336
  0
VERTEX
  5
39b
  8
Layer_0
  10
512.64807
  20
59.919846
  0
VERTEX
  5
39c
  8
Layer_0
  10
511.92593
  20
59.669125
  0
VERTEX
  5
39d
  8
Layer_0
  10
511.19635
  20
59.442329
  0
VERTEX
  5
39e
  8
Layer_0
  10
510.45993
  20
59.239609
  0
VERTEX
  5
39f
  8
Layer_0
  10
509.71729
  20
59.061123
  0
VERTEX
  5
3a0
  8
Layer_0
  10
508.96899
  20
58.907024
  0
VERTEX
  5
3a1
  8
Layer_0
  10
508.21564
  20
58.777466
  0
VERTEX
  5
3a2
  8
Layer_0
  10
507.45782
  20
58.672607
  0
VERTEX
  5
3a3
  8
Layer_0
  10
505.6066
  20
58.468269
  0
VERTEX
  5
3a4
  8
Layer_0
  10
503.75006
  20
58.326283
  0
VERTEX
  5
3a5
  8
Layer_0
  10
501.88983
  20
58.246742
  0
VERTEX
  5
3a6
  8
Layer_0
  10
500.0274
  20
58.229736
  0
VERTEX
  5
3a7
  8
Layer_0
  10
483.80353
  20
58.229736
  0
SEQEND
  0
POLYLINE
  5
3a9
  8
Layer_0
  62
0
  70
1
  66
1
  10
0
  20
0
  30
0
  0
VERTEX
  5
3a9
  8
Layer_0
  10
403
  20
488
  0
VERTEX
  5
3aa
  8
Layer_0
  10
203
  20
488
  0
VERTEX
  5
3ab
  8
Layer_0
  10
203
  20
729
  0
VERTEX
  5
3ac
  8
Layer_0
  10
403
  20
729
  0
VERTEX
  5
3ad
  8
Layer_0
  10
403
  20
488
  0
SEQEND
  0
POLYLINE
  5
3af
  8
Layer_0
  62
0
  70
1
  66
1
  10
0
  20
0
  30
0
  0
VERTEX
  5
3af
  8
Layer_0
  10
403
  20
732
  0
VERTEX
  5
3b0
  8
Layer_0
  10
203
  20
732
  0
VERTEX
  5
3b1
  8
Layer_0
  10
203
  20
973
  0
VERTEX
  5
3b2
  8
Layer_0
  10
403
  20
973
  0
VERTEX
  5
3b3
  8
Layer_0
  10
403
  20
732
  0
SEQEND
  0
POLYLINE
  5
3b5
  8
Layer_0
  62
0
  70
1
  66
1
  10
0
  20
0
  30
0
  0
VERTEX
  5
3b5
  8
Layer_0
  10
200
  20
221
  0
VERTEX
  5
3b6
  8
Layer_0
  10
0
  20
221
  0
VERTEX
  5
3b7
  8
Layer_0
  10
0
  20
471
  0
VERTEX
  5
3b8
  8
Layer_0
  10
200
  20
471
  0
VERTEX
  5
3b9
  8
Layer_0
  10
200
  20
221
  0
SEQEND
  0
POLYLINE
  5
3bb
  8
Layer_0
  62
0
  70
1
  66
1
  10
0
  20
0
  30
0
  0
VERTEX
  5
3bb
  8
Layer_0
  10
102.24643
  20
292.01059
  0
VERTEX
  5
3bc
  8
Layer_0
  10
103.42859
  20
292.0246
  0
VERTEX
  5
3bd
  8
Layer_0
  10
104.60973
  20
292.06442
  0
VERTEX
  5
3be
  8
Layer_0
  10
105.78945
  20
292.13004
  0
VERTEX
  5
3bf
  8
Layer_0
  10
106.96731
  20
292.22144
  0
VERTEX
  5
3c0
  8
Layer_0
  10
108.14288
  20
292.33856
  0
VERTEX
  5
3c1
  8
Layer_0
  10
109.31576
  20
292.48132
  0
VERTEX
  5
3c2
  8
Layer_0
  10
110.4855
  20
292.64978
  0
VERTEX
  5
3c3
  8
Layer_0
  10
111.6517
  20
292.84384
  0
VERTEX
  5
3c4
  8
Layer_0
  10
112.6312
  20
293.03668
  0
VERTEX
  5
3c5
  8
Layer_0
  10
113.60225
  20
293.2641
  0
VERTEX
  5
3c6
  8
Layer_0
  10
114.56398
  20
293.52585
  0
VERTEX
  5
3c7
  8
Layer_0
  10
115.51549
  20
293.82159
  0
VERTEX
  5
3c8
  8
Layer_0
  10
116.45584
  20
294.15106
  0
VERTEX
  5
3c9
  8
Layer_0
  10
117.38416
  20
294.51392
  0
VERTEX
  5
3ca
  8
Layer_0
  10
118.29951
  20
294.90991
  0
VERTEX
  5
3cb
  8
Layer_0
  10
119.20102
  20
295.33871
  0
VERTEX
  5
3cc
  8
Layer_0
  10
120.22017
  20
295.89142
  0
VERTEX
  5
3cd
  8
Layer_0
  10
121.19631
  20
296.50964
  0
VERTEX
  5
3ce
  8
Layer_0
  10
122.12651
  20
297.1907
  0
VERTEX
  5
3cf
  8
Layer_0
  10
123.00781
  20
297.93207
  0
VERTEX
  5
3d0
  8
Layer_0
  10
123.83728
  20
298.73096
  0
VERTEX
  5
3d1
  8
Layer_0
  10
124.61195
  20
299.58478
  0
VERTEX
  5
3d2
  8
Layer_0
  10
125.3289
  20
300.49088
  0
VERTEX
  5
3d3
  8
Layer_0
  10
125.9852
  20
301.44662
  0
VERTEX
  5
3d4
  8
Layer_0
  10
126.59451
  20
302.41458
  0
VERTEX
  5
3d5
  8
Layer_0
  10
127.15147
  20
303.40759
  0
VERTEX
  5
3d6
  8
Layer_0
  10
127.65569
  20
304.42358
  0
VERTEX
  5
3d7
  8
Layer_0
  10
128.10678
  20
305.46039
  0
VERTEX
  5
3d8
  8
Layer_0
  10
128.50435
  20
306.51596
  0
VERTEX
  5
3d9
  8
Layer_0
  10
128.84798
  20
307.5882
  0
VERTEX
  5
3da
  8
Layer_0
  10
129.1373
  20
308.67499
  0
VERTEX
  5
3db
  8
Layer_0
  10
129.3719
  20
309.7742
  0
VERTEX
  5
3dc
  8
Layer_0
  10
129.55141
  20
310.88376
  0
VERTEX
  5
3dd
  8
Layer_0
  10
129.67542
  20
312.00153
  0
VERTEX
  5
3de
  8
Layer_0
  10
129.74353
  20
313.12543
  0
VERTEX
  5
3df
  8
Layer_0
  10
129.75534
  20
314.25333
  0
VERTEX
  5
3e0
  8
Layer_0
  10
129.71045
  20
315.38315
  0
VERTEX
  5
3e1
  8
Layer_0
  10
129.60851
  20
316.51276
  0
VERTEX
  5
3e2
  8
Layer_0
  10
129.44908
  20
317.64011
  0
VERTEX
  5
3e3
  8
Layer_0
  10
129.23178
  20
318.76303
  0
VERTEX
  5
3e4
  8
Layer_0
  10
129.0023
  20
319.65051
  0
VERTEX
  5
3e5
  8
Layer_0
  10
128.72884
  20
320.52094
  0
VERTEX
  5
3e6
  8
Layer_0
  10
128.41245
  20
321.37292
  0
VERTEX
  5
3e7
  8
Layer_0
  10
128.05418
  20
322.20496
  0
VERTEX
  5
3e8
  8
Layer_0
  10
127.65509
  20
323.01569
  0
VERTEX
  5
3e9
  8
Layer_0
  10
127.2162
  20
323.80371
  0
VERTEX
  5
3ea
  8
Layer_0
  10
126.73856
  20
324.56757
  0
VERTEX
  5
3eb
  8
Layer_0
  10
126.22322
  20
325.30588
  0
VERTEX
  5
3ec
  8
Layer_0
  10
125.67123
  20
326.01718
  0
VERTEX
  5
3ed
  8
Layer_0
  10
125.08363
  20
326.70007
  0
VERTEX
  5
3ee
  8
Layer_0
  10
124.46146
  20
327.35315
  0
VERTEX
  5
3ef
  8
Layer_0
  10
123.80577
  20
327.97501
  0
VERTEX
  5
3f0
  8
Layer_0
  10
123.11761
  20
328.56418
  0
VERTEX
  5
3f1
  8
Layer_0
  10
122.39803
  20
329.11923
  0
VERTEX
  5
3f2
  8
Layer_0
  10
121.64805
  20
329.63879
  0
VERTEX
  5
3f3
  8
Layer_0
  10
120.86874
  20
330.12143
  0
VERTEX
  5
3f4
  8
Layer_0
  10
119.56963
  20
330.82654
  0
VERTEX
  5
3f5
  8
Layer_0
  10
118.23029
  20
331.44846
  0
VERTEX
  5
3f6
  8
Layer_0
  10
116.85471
  20
331.98547
  0
VERTEX
  5
3f7
  8
Layer_0
  10
115.44687
  20
332.43588
  0
VERTEX
  5
3f8
  8
Layer_0
  10
116.10361
  20
332.7728
  0
VERTEX
  5
3f9
  8
Layer_0
  10
116.85257
  20
333.18005
  0
VERTEX
  5
3fa
  8
Layer_0
  10
117.5826
  20
333.6181
  0
VERTEX
  5
3fb
  8
Layer_0
  10
118.29276
  20
334.08627
  0
VERTEX
  5
3fc
  8
Layer_0
  10
118.98216
  20
334.58389
  0
VERTEX
  5
3fd
  8
Layer_0
  10
119.64989
  20
335.11026
  0
VERTEX
  5
3fe
  8
Layer_0
  10
120.295
  20
335.66467
  0
VERTEX
  5
3ff
  8
Layer_0
  10
120.9166
  20
336.24643
  0
VERTEX
  5
400
  8
Layer_0
  10
121.51376
  20
336.85483
  0
VERTEX
  5
401
  8
Layer_0
  10
122.28738
  20
337.76166
  0
VERTEX
  5
402
  8
Layer_0
  10
122.99171
  20
338.71097
  0
VERTEX
  5
403
  8
Layer_0
  10
123.62596
  20
339.69897
  0
VERTEX
  5
404
  8
Layer_0
  10
124.18932
  20
340.72183
  0
VERTEX
  5
405
  8
Layer_0
  10
124.681
  20
341.77563
  0
VERTEX
  5
406
  8
Layer_0
  10
125.1002
  20
342.85651
  0
VERTEX
  5
407
  8
Layer_0
  10
125.44613
  20
343.96066
  0
VERTEX
  5
408
  8
Layer_0
  10
125.71797
  20
345.08417
  0
VERTEX
  5
409
  8
Layer_0
  10
125.91492
  20
346.22321
  0
VERTEX
  5
40a
  8
Layer_0
  10
126.03619
  20
347.3739
  0
VERTEX
  5
40b
  8
Layer_0
  10
126.08099
  20
348.53235
  0
VERTEX
  5
40c
  8
Layer_0
  10
126.04849
  20
349.69476
  0
VERTEX
  5
40d
  8
Layer_0
  10
125.93793
  20
350.85724
  0
VERTEX
  5
40e
  8
Layer_0
  10
125.74847
  20
352.01593
  0
VERTEX
  5
40f
  8
Layer_0
  10
125.47934
  20
353.16696
  0
VERTEX
  5
410
  8
Layer_0
  10
125.12973
  20
354.30649
  0
VERTEX
  5
411
  8
Layer_0
  10
124.71388
  20
355.43201
  0
VERTEX
  5
412
  8
Layer_0
  10
124.23182
  20
356.52722
  0
VERTEX
  5
413
  8
Layer_0
  10
123.68533
  20
357.58923
  0
VERTEX
  5
414
  8
Layer_0
  10
123.07614
  20
358.61536
  0
VERTEX
  5
415
  8
Layer_0
  10
122.40605
  20
359.60278
  0
VERTEX
  5
416
  8
Layer_0
  10
121.67681
  20
360.54868
  0
VERTEX
  5
417
  8
Layer_0
  10
120.89019
  20
361.45035
  0
VERTEX
  5
418
  8
Layer_0
  10
120.04794
  20
362.30502
  0
VERTEX
  5
419
  8
Layer_0
  10
119.24615
  20
363.00018
  0
VERTEX
  5
41a
  8
Layer_0
  10
118.40875
  20
363.64795
  0
VERTEX
  5
41b
  8
Layer_0
  10
117.53789
  20
364.24713
  0
VERTEX
  5
41c
  8
Layer_0
  10
116.6357
  20
364.79651
  0
VERTEX
  5
41d
  8
Layer_0
  10
115.70435
  20
365.2948
  0
VERTEX
  5
41e
  8
Layer_0
  10
114.74596
  20
365.74081
  0
VERTEX
  5
41f
  8
Layer_0
  10
113.76269
  20
366.1333
  0
VERTEX
  5
420
  8
Layer_0
  10
112.75668
  20
366.47104
  0
VERTEX
  5
421
  8
Layer_0
  10
111.09193
  20
366.92963
  0
VERTEX
  5
422
  8
Layer_0
  10
109.40643
  20
367.29919
  0
VERTEX
  5
423
  8
Layer_0
  10
107.70372
  20
367.57907
  0
VERTEX
  5
424
  8
Layer_0
  10
105.9874
  20
367.76865
  0
VERTEX
  5
425
  8
Layer_0
  10
104.71313
  20
367.86957
  0
VERTEX
  5
426
  8
Layer_0
  10
103.43705
  20
367.94077
  0
VERTEX
  5
427
  8
Layer_0
  10
102.15965
  20
367.98227
  0
VERTEX
  5
428
  8
Layer_0
  10
100.88144
  20
367.99399
  0
VERTEX
  5
429
  8
Layer_0
  10
72.372894
  20
367.99399
  0
VERTEX
  5
42a
  8
Layer_0
  10
72.372894
  20
292.00546
  0
VERTEX
  5
42b
  8
Layer_0
  10
101.34799
  20
292.00546
  0
VERTEX
  5
42c
  8
Layer_0
  10
102.24643
  20
292.01059
  0
SEQEND
  0
POLYLINE
  5
42e
  8
Layer_0
  62
0
  70
1
  66
1
  10
0
  20
0
  30
0
  0
VERTEX
  5
42e
  8
Layer_0
  10
82.428802
  20
336.0643
  0
VERTEX
  5
42f
  8
Layer_0
  10
82.428802
  20
359.0267
  0
VERTEX
  5
430
  8
Layer_0
  10
97.616058
  20
359.0267
  0
VERTEX
  5
431
  8
Layer_0
  10
99.708603
  20
359.0192
  0
VERTEX
  5
432
  8
Layer_0
  10
101.79944
  20
358.94745
  0
VERTEX
  5
433
  8
Layer_0
  10
103.88707
  20
358.81158
  0
VERTEX
  5
434
  8
Layer_0
  10
105.97006
  20
358.61166
  0
VERTEX
  5
435
  8
Layer_0
  10
106.89021
  20
358.4895
  0
VERTEX
  5
436
  8
Layer_0
  10
107.80161
  20
358.3172
  0
VERTEX
  5
437
  8
Layer_0
  10
108.70221
  20
358.09525
  0
VERTEX
  5
438
  8
Layer_0
  10
109.58994
  20
357.82407
  0
VERTEX
  5
439
  8
Layer_0
  10
110.46382
  20
357.46756
  0
VERTEX
  5
43a
  8
Layer_0
  10
111.29089
  20
357.02792
  0
VERTEX
  5
43b
  8
Layer_0
  10
112.06588
  20
356.50995
  0
VERTEX
  5
43c
  8
Layer_0
  10
112.78351
  20
355.91852
  0
VERTEX
  5
43d
  8
Layer_0
  10
113.43849
  20
355.25839
  0
VERTEX
  5
43e
  8
Layer_0
  10
114.02557
  20
354.53439
  0
VERTEX
  5
43f
  8
Layer_0
  10
114.53949
  20
353.75131
  0
VERTEX
  5
440
  8
Layer_0
  10
114.97495
  20
352.91391
  0
VERTEX
  5
441
  8
Layer_0
  10
115.28362
  20
352.19766
  0
VERTEX
  5
442
  8
Layer_0
  10
115.54743
  20
351.466
  0
VERTEX
  5
443
  8
Layer_0
  10
115.76596
  20
350.72101
  0
VERTEX
  5
444
  8
Layer_0
  10
115.9388
  20
349.96484
  0
VERTEX
  5
445
  8
Layer_0
  10
116.06554
  20
349.19958
  0
VERTEX
  5
446
  8
Layer_0
  10
116.14574
  20
348.42737
  0
VERTEX
  5
447
  8
Layer_0
  10
116.17899
  20
347.6503
  0
VERTEX
  5
448
  8
Layer_0
  10
116.16489
  20
346.87045
  0
VERTEX
  5
449
  8
Layer_0
  10
116.14137
  20
346.25757
  0
VERTEX
  5
44a
  8
Layer_0
  10
116.08519
  20
345.6481
  0
VERTEX
  5
44b
  8
Layer_0
  10
115.99668
  20
345.04337
  0
VERTEX
  5
44c
  8
Layer_0
  10
115.87611
  20
344.44464
  0
VERTEX
  5
44d
  8
Layer_0
  10
115.72379
  20
343.85321
  0
VERTEX
  5
44e
  8
Layer_0
  10
115.53999
  20
343.27032
  0
VERTEX
  5
44f
  8
Layer_0
  10
115.32503
  20
342.69727
  0
VERTEX
  5
450
  8
Layer_0
  10
115.07919
  20
342.13535
  0
VERTEX
  5
451
  8
Layer_0
  10
114.69741
  20
341.44095
  0
VERTEX
  5
452
  8
Layer_0
  10
114.26102
  20
340.78448
  0
VERTEX
  5
453
  8
Layer_0
  10
113.77299
  20
340.16885
  0
VERTEX
  5
454
  8
Layer_0
  10
113.23627
  20
339.59698
  0
VERTEX
  5
455
  8
Layer_0
  10
112.65383
  20
339.07178
  0
VERTEX
  5
456
  8
Layer_0
  10
112.02862
  20
338.59613
  0
VERTEX
  5
457
  8
Layer_0
  10
111.36359
  20
338.17291
  0
VERTEX
  5
458
  8
Layer_0
  10
110.66171
  20
337.80502
  0
VERTEX
  5
459
  8
Layer_0
  10
110.07617
  20
337.5376
  0
VERTEX
  5
45a
  8
Layer_0
  10
109.4804
  20
337.2962
  0
VERTEX
  5
45b
  8
Layer_0
  10
108.87527
  20
337.08115
  0
VERTEX
  5
45c
  8
Layer_0
  10
108.26168
  20
336.89258
  0
VERTEX
  5
45d
  8
Layer_0
  10
107.64049
  20
336.73077
  0
VERTEX
  5
45e
  8
Layer_0
  10
107.01257
  20
336.59601
  0
VERTEX
  5
45f
  8
Layer_0
  10
106.37881
  20
336.48853
  0
VERTEX
  5
460
  8
Layer_0
  10
105.74008
  20
336.40854
  0
VERTEX
  5
461
  8
Layer_0
  10
104.02463
  20
336.24341
  0
VERTEX
  5
462
  8
Layer_0
  10
102.30531
  20
336.13098
  0
VERTEX
  5
463
  8
Layer_0
  10
100.58336
  20
336.07123
  0
VERTEX
  5
464
  8
Layer_0
  10
98.859955
  20
336.0643
  0
VERTEX
  5
465
  8
Layer_0
  10
82.428802
  20
336.0643
  0
SEQEND
  0
POLYLINE
  5
467
  8
Layer_0
  62
0
  70
1
  66
1
  10
0
  20
0
  30
0
  0
VERTEX
  5
467
  8
Layer_0
  10
82.428802
  20
300.97275
  0
VERTEX
  5
468
  8
Layer_0
  10
82.428802
  20
327.09702
  0
VERTEX
  5
469
  8
Layer_0
  10
100.00034
  20
327.09702
  0
VERTEX
  5
46a
  8
Layer_0
  10
101.94246
  20
327.08228
  0
VERTEX
  5
46b
  8
Layer_0
  10
103.88197
  20
326.99457
  0
VERTEX
  5
46c
  8
Layer_0
  10
105.81683
  20
326.83408
  0
VERTEX
  5
46d
  8
Layer_0
  10
107.74496
  20
326.60092
  0
VERTEX
  5
46e
  8
Layer_0
  10
108.8466
  20
326.41696
  0
VERTEX
  5
46f
  8
Layer_0
  10
109.9345
  20
326.16843
  0
VERTEX
  5
470
  8
Layer_0
  10
111.00582
  20
325.85605
  0
VERTEX
  5
471
  8
Layer_0
  10
112.05771
  20
325.48056
  0
VERTEX
  5
472
  8
Layer_0
  10
112.7193
  20
325.18811
  0
VERTEX
  5
473
  8
Layer_0
  10
113.35683
  20
324.85724
  0
VERTEX
  5
474
  8
Layer_0
  10
113.96901
  20
324.48947
  0
VERTEX
  5
475
  8
Layer_0
  10
114.55453
  20
324.0864
  0
VERTEX
  5
476
  8
Layer_0
  10
115.11209
  20
323.64954
  0
VERTEX
  5
477
  8
Layer_0
  10
115.64039
  20
323.18054
  0
VERTEX
  5
478
  8
Layer_0
  10
116.13813
  20
322.68091
  0
VERTEX
  5
479
  8
Layer_0
  10
116.60401
  20
322.15228
  0
VERTEX
  5
47a
  8
Layer_0
  10
117.03673
  20
321.59616
  0
VERTEX
  5
47b
  8
Layer_0
  10
117.435
  20
321.01413
  0
VERTEX
  5
47c
  8
Layer_0
  10
117.7975
  20
320.40778
  0
VERTEX
  5
47d
  8
Layer_0
  10
118.12296
  20
319.77866
  0
VERTEX
  5
47e
  8
Layer_0
  10
118.41005
  20
319.12833
  0
VERTEX
  5
47f
  8
Layer_0
  10
118.65749
  20
318.45844
  0
VERTEX
  5
480
  8
Layer_0
  10
118.86396
  20
317.77045
  0
VERTEX
  5
481
  8
Layer_0
  10
119.02817
  20
317.06601
  0
VERTEX
  5
482
  8
Layer_0
  10
119.18494
  20
316.16318
  0
VERTEX
  5
483
  8
Layer_0
  10
119.2867
  20
315.25507
  0
VERTEX
  5
484
  8
Layer_0
  10
119.33353
  20
314.34412
  0
VERTEX
  5
485
  8
Layer_0
  10
119.32554
  20
313.4328
  0
VERTEX
  5
486
  8
Layer_0
  10
119.2628
  20
312.52362
  0
VERTEX
  5
487
  8
Layer_0
  10
119.14543
  20
311.61902
  0
VERTEX
  5
488
  8
Layer_0
  10
118.97352
  20
310.72153
  0
VERTEX
  5
489
  8
Layer_0
  10
118.74716
  20
309.83359
  0
VERTEX
  5
48a
  8
Layer_0
  10
118.4726
  20
309.02805
  0
VERTEX
  5
48b
  8
Layer_0
  10
118.14317
  20
308.2468
  0
VERTEX
  5
48c
  8
Layer_0
  10
117.76057
  20
307.49249
  0
VERTEX
  5
48d
  8
Layer_0
  10
117.32652
  20
306.76776
  0
VERTEX
  5
48e
  8
Layer_0
  10
116.84271
  20
306.07523
  0
VERTEX
  5
48f
  8
Layer_0
  10
116.31088
  20
305.41757
  0
VERTEX
  5
490
  8
Layer_0
  10
115.73273
  20
304.79742
  0
VERTEX
  5
491
  8
Layer_0
  10
115.10995
  20
304.21738
  0
VERTEX
  5
492
  8
Layer_0
  10
114.24784
  20
303.58179
  0
VERTEX
  5
493
  8
Layer_0
  10
113.33478
  20
303.02585
  0
VERTEX
  5
494
  8
Layer_0
  10
112.37626
  20
302.55255
  0
VERTEX
  5
495
  8
Layer_0
  10
111.37778
  20
302.16489
  0
VERTEX
  5
496
  8
Layer_0
  10
110.61015
  20
301.91602
  0
VERTEX
  5
497
  8
Layer_0
  10
109.8342
  20
301.69781
  0
VERTEX
  5
498
  8
Layer_0
  10
109.05086
  20
301.51047
  0
VERTEX
  5
499
  8
Layer_0
  10
108.26106
  20
301.35413
  0
VERTEX
  5
49a
  8
Layer_0
  10
107.46573
  20
301.229
  0
VERTEX
  5
49b
  8
Layer_0
  10
106.66578
  20
301.13519
  0
VERTEX
  5
49c
  8
Layer_0
  10
105.86215
  20
301.07294
  0
VERTEX
  5
49d
  8
Layer_0
  10
105.05576
  20
301.04233
  0
VERTEX
  5
49e
  8
Layer_0
  10
103.20226
  20
300.98779
  0
VERTEX
  5
49f
  8
Layer_0
  10
101.34799
  20
300.97275
  0
VERTEX
  5
4a0
  8
Layer_0
  10
82.428802
  20
300.97275
  0
SEQEND
  0
POLYLINE
  5
4a2
  8
Layer_0
  62
0
  70
1
  66
1
  10
0
  20
0
  30
0
  0
VERTEX
  5
4a2
  8
Layer_0
  10
200
  20
474
  0
VERTEX
  5
4a3
  8
Layer_0
  10
0
  20
474
  0
VERTEX
  5
4a4
  8
Layer_0
  10
0
  20
724
  0
VERTEX
  5
4a5
  8
Layer_0
  10
200
  20
724
  0
VERTEX
  5
4a6
  8
Layer_0
  10
200
  20
474
  0
SEQEND
  0
POLYLINE
  5
4a8
  8
Layer_0
  62
0
  70
1
  66
1
  10
0
  20
0
  30
0
  0
VERTEX
  5
4a8
  8
Layer_0
  10
101.18233
  20
561.01056
  0
VERTEX
  5
4a9
  8
Layer_0
  10
102.36449
  20
561.02448
  0
VERTEX
  5
4aa
  8
Layer_0
  10
103.54563
  20
561.06433
  0
VERTEX
  5
4ab
  8
Layer_0
  10
104.72535
  20
561.12994
  0
VERTEX
  5
4ac
  8
Layer_0
  10
105.90321
  20
561.22137
  0
VERTEX
  5
4ad
  8
Layer_0
  10
107.07878
  20
561.3385
  0
VERTEX
  5
4ae
  8
Layer_0
  10
108.25166
  20
561.48132
  0
VERTEX
  5
4af
  8
Layer_0
  10
109.4214
  20
561.64978
  0
VERTEX
  5
4b0
  8
Layer_0
  10
110.5876
  20
561.84381
  0
VERTEX
  5
4b1
  8
Layer_0
  10
111.56709
  20
562.03662
  0
VERTEX
  5
4b2
  8
Layer_0
  10
112.53815
  20
562.26404
  0
VERTEX
  5
4b3
  8
Layer_0
  10
113.49988
  20
562.52576
  0
VERTEX
  5
4b4
  8
Layer_0
  10
114.45139
  20
562.82153
  0
VERTEX
  5
4b5
  8
Layer_0
  10
115.39174
  20
563.15106
  0
VERTEX
  5
4b6
  8
Layer_0
  10
116.32005
  20
563.51392
  0
VERTEX
  5
4b7
  8
Layer_0
  10
117.23541
  20
563.90991
  0
VERTEX
  5
4b8
  8
Layer_0
  10
118.13692
  20
564.33868
  0
VERTEX
  5
4b9
  8
Layer_0
  10
119.15607
  20
564.89136
  0
VERTEX
  5
4ba
  8
Layer_0
  10
120.13221
  20
565.50958
  0
VERTEX
  5
4bb
  8
Layer_0
  10
121.06241
  20
566.19067
  0
VERTEX
  5
4bc
  8
Layer_0
  10
121.94371
  20
566.93201
  0
VERTEX
  5
4bd
  8
Layer_0
  10
122.77318
  20
567.7309
  0
VERTEX
  5
4be
  8
Layer_0
  10
123.54785
  20
568.58472
  0
VERTEX
  5
4bf
  8
Layer_0
  10
124.2648
  20
569.49084
  0
VERTEX
  5
4c0
  8
Layer_0
  10
124.9211
  20
570.44659
  0
VERTEX
  5
4c1
  8
Layer_0
  10
125.53041
  20
571.41455
  0
VERTEX
  5
4c2
  8
Layer_0
  10
126.08737
  20
572.40759
  0
VERTEX
  5
4c3
  8
Layer_0
  10
126.59159
  20
573.42358
  0
VERTEX
  5
4c4
  8
Layer_0
  10
127.04268
  20
574.46039
  0
VERTEX
  5
4c5
  8
Layer_0
  10
127.44024
  20
575.51599
  0
VERTEX
  5
4c6
  8
Layer_0
  10
127.78388
  20
576.5882
  0
VERTEX
  5
4c7
  8
Layer_0
  10
128.07321
  20
577.67499
  0
VERTEX
  5
4c8
  8
Layer_0
  10
128.30782
  20
578.77417
  0
VERTEX
  5
4c9
  8
Layer_0
  10
128.48732
  20
579.88367
  0
VERTEX
  5
4ca
  8
Layer_0
  10
128.61133
  20
581.00146
  0
VERTEX
  5
4cb
  8
Layer_0
  10
128.67943
  20
582.12543
  0
VERTEX
  5
4cc
  8
Layer_0
  10
128.69124
  20
583.2533
  0
VERTEX
  5
4cd
  8
Layer_0
  10
128.64636
  20
584.38318
  0
VERTEX
  5
4ce
  8
Layer_0
  10
128.5444
  20
585.51276
  0
VERTEX
  5
4cf
  8
Layer_0
  10
128.38496
  20
586.64014
  0
VERTEX
  5
4d0
  8
Layer_0
  10
128.16768
  20
587.763
  0
VERTEX
  5
4d1
  8
Layer_0
  10
127.93819
  20
588.65051
  0
VERTEX
  5
4d2
  8
Layer_0
  10
127.66473
  20
589.52087
  0
VERTEX
  5
4d3
  8
Layer_0
  10
127.34836
  20
590.3728
  0
VERTEX
  5
4d4
  8
Layer_0
  10
126.99009
  20
591.2049
  0
VERTEX
  5
4d5
  8
Layer_0
  10
126.59099
  20
592.01569
  0
VERTEX
  5
4d6
  8
Layer_0
  10
126.1521
  20
592.80371
  0
VERTEX
  5
4d7
  8
Layer_0
  10
125.67445
  20
593.56757
  0
VERTEX
  5
4d8
  8
Layer_0
  10
125.15912
  20
594.30591
  0
VERTEX
  5
4d9
  8
Layer_0
  10
124.60712
  20
595.01721
  0
VERTEX
  5
4da
  8
Layer_0
  10
124.01952
  20
595.70007
  0
VERTEX
  5
4db
  8
Layer_0
  10
123.39735
  20
596.35315
  0
VERTEX
  5
4dc
  8
Layer_0
  10
122.74167
  20
596.97498
  0
VERTEX
  5
4dd
  8
Layer_0
  10
122.05351
  20
597.56415
  0
VERTEX
  5
4de
  8
Layer_0
  10
121.33392
  20
598.11926
  0
VERTEX
  5
4df
  8
Layer_0
  10
120.58395
  20
598.63879
  0
VERTEX
  5
4e0
  8
Layer_0
  10
119.80464
  20
599.1214
  0
VERTEX
  5
4e1
  8
Layer_0
  10
118.50553
  20
599.82648
  0
VERTEX
  5
4e2
  8
Layer_0
  10
117.16619
  20
600.44836
  0
VERTEX
  5
4e3
  8
Layer_0
  10
115.7906
  20
600.98541
  0
VERTEX
  5
4e4
  8
Layer_0
  10
114.38277
  20
601.43585
  0
VERTEX
  5
4e5
  8
Layer_0
  10
115.03951
  20
601.77277
  0
VERTEX
  5
4e6
  8
Layer_0
  10
115.78847
  20
602.17999
  0
VERTEX
  5
4e7
  8
Layer_0
  10
116.51849
  20
602.61804
  0
VERTEX
  5
4e8
  8
Layer_0
  10
117.22865
  20
603.08618
  0
VERTEX
  5
4e9
  8
Layer_0
  10
117.91806
  20
603.58386
  0
VERTEX
  5
4ea
  8
Layer_0
  10
118.58578
  20
604.11023
  0
VERTEX
  5
4eb
  8
Layer_0
  10
119.2309
  20
604.66461
  0
VERTEX
  5
4ec
  8
Layer_0
  10
119.85249
  20
605.24634
  0
VERTEX
  5
4ed
  8
Layer_0
  10
120.44966
  20
605.8548
  0
VERTEX
  5
4ee
  8
Layer_0
  10
121.22327
  20
606.7616
  0
VERTEX
  5
4ef
  8
Layer_0
  10
121.9276
  20
607.71094
  0
VERTEX
  5
4f0
  8
Layer_0
  10
122.56186
  20
608.69897
  0
VERTEX
  5
4f1
  8
Layer_0
  10
123.12522
  20
609.7218
  0
VERTEX
  5
4f2
  8
Layer_0
  10
123.6169
  20
610.77563
  0
VERTEX
  5
4f3
  8
Layer_0
  10
124.0361
  20
611.85657
  0
VERTEX
  5
4f4
  8
Layer_0
  10
124.38203
  20
612.96063
  0
VERTEX
  5
4f5
  8
Layer_0
  10
124.65387
  20
614.08411
  0
VERTEX
  5
4f6
  8
Layer_0
  10
124.85081
  20
615.22314
  0
VERTEX
  5
4f7
  8
Layer_0
  10
124.97209
  20
616.37384
  0
VERTEX
  5
4f8
  8
Layer_0
  10
125.01688
  20
617.53229
  0
VERTEX
  5
4f9
  8
Layer_0
  10
124.98439
  20
618.6947
  0
VERTEX
  5
4fa
  8
Layer_0
  10
124.87383
  20
619.85718
  0
VERTEX
  5
4fb
  8
Layer_0
  10
124.68437
  20
621.01587
  0
VERTEX
  5
4fc
  8
Layer_0
  10
124.41524
  20
622.16687
  0
VERTEX
  5
4fd
  8
Layer_0
  10
124.06563
  20
623.30646
  0
VERTEX
  5
4fe
  8
Layer_0
  10
123.64978
  20
624.43201
  0
VERTEX
  5
4ff
  8
Layer_0
  10
123.16772
  20
625.52716
  0
VERTEX
  5
500
  8
Layer_0
  10
122.62122
  20
626.58923
  0
VERTEX
  5
501
  8
Layer_0
  10
122.01204
  20
627.6153
  0
VERTEX
  5
502
  8
Layer_0
  10
121.34195
  20
628.60266
  0
VERTEX
  5
503
  8
Layer_0
  10
120.61271
  20
629.54858
  0
VERTEX
  5
504
  8
Layer_0
  10
119.82609
  20
630.45032
  0
VERTEX
  5
505
  8
Layer_0
  10
118.98384
  20
631.30499
  0
VERTEX
  5
506
  8
Layer_0
  10
118.18205
  20
632.00012
  0
VERTEX
  5
507
  8
Layer_0
  10
117.34465
  20
632.64795
  0
VERTEX
  5
508
  8
Layer_0
  10
116.47379
  20
633.24713
  0
VERTEX
  5
509
  8
Layer_0
  10
115.5716
  20
633.79651
  0
VERTEX
  5
50a
  8
Layer_0
  10
114.64024
  20
634.2948
  0
VERTEX
  5
50b
  8
Layer_0
  10
113.68185
  20
634.74084
  0
VERTEX
  5
50c
  8
Layer_0
  10
112.69859
  20
635.1333
  0
VERTEX
  5
50d
  8
Layer_0
  10
111.69258
  20
635.47101
  0
VERTEX
  5
50e
  8
Layer_0
  10
110.02783
  20
635.92963
  0
VERTEX
  5
50f
  8
Layer_0
  10
108.34232
  20
636.29919
  0
VERTEX
  5
510
  8
Layer_0
  10
106.63962
  20
636.5791
  0
VERTEX
  5
511
  8
Layer_0
  10
104.92329
  20
636.76862
  0
VERTEX
  5
512
  8
Layer_0
  10
103.64903
  20
636.86957
  0
VERTEX
  5
513
  8
Layer_0
  10
102.37295
  20
636.9408
  0
VERTEX
  5
514
  8
Layer_0
  10
101.09555
  20
636.98224
  0
VERTEX
  5
515
  8
Layer_0
  10
99.817337
  20
636.99396
  0
VERTEX
  5
516
  8
Layer_0
  10
71.308792
  20
636.99396
  0
VERTEX
  5
517
  8
Layer_0
  10
71.308792
  20
561.00543
  0
VERTEX
  5
518
  8
Layer_0
  10
100.28389
  20
561.00543
  0
VERTEX
  5
519
  8
Layer_0
  10
101.18233
  20
561.01056
  0
SEQEND
  0
POLYLINE
  5
51b
  8
Layer_0
  62
0
  70
1
  66
1
  10
0
  20
0
  30
0
  0
VERTEX
  5
51b
  8
Layer_0
  10
81.3647
  20
605.06427
  0
VERTEX
  5
51c
  8
Layer_0
  10
81.3647
  20
628.02667
  0
VERTEX
  5
51d
  8
Layer_0
  10
96.551956
  20
628.02667
  0
VERTEX
  5
51e
  8
Layer_0
  10
98.644501
  20
628.01917
  0
VERTEX
  5
51f
  8
Layer_0
  10
100.73534
  20
627.94745
  0
VERTEX
  5
520
  8
Layer_0
  10
102.82297
  20
627.81158
  0
VERTEX
  5
521
  8
Layer_0
  10
104.90596
  20
627.61163
  0
VERTEX
  5
522
  8
Layer_0
  10
105.8261
  20
627.48944
  0
VERTEX
  5
523
  8
Layer_0
  10
106.7375
  20
627.31714
  0
VERTEX
  5
524
  8
Layer_0
  10
107.63811
  20
627.09521
  0
VERTEX
  5
525
  8
Layer_0
  10
108.52583
  20
626.82404
  0
VERTEX
  5
526
  8
Layer_0
  10
109.39972
  20
626.46753
  0
VERTEX
  5
527
  8
Layer_0
  10
110.22679
  20
626.02783
  0
VERTEX
  5
528
  8
Layer_0
  10
111.00178
  20
625.50989
  0
VERTEX
  5
529
  8
Layer_0
  10
111.71941
  20
624.91846
  0
VERTEX
  5
52a
  8
Layer_0
  10
112.37439
  20
624.2583
  0
VERTEX
  5
52b
  8
Layer_0
  10
112.96147
  20
623.5343
  0
VERTEX
  5
52c
  8
Layer_0
  10
113.47539
  20
622.75122
  0
VERTEX
  5
52d
  8
Layer_0
  10
113.91084
  20
621.91388
  0
VERTEX
  5
52e
  8
Layer_0
  10
114.21951
  20
621.19763
  0
VERTEX
  5
52f
  8
Layer_0
  10
114.48333
  20
620.46594
  0
VERTEX
  5
530
  8
Layer_0
  10
114.70186
  20
619.72101
  0
VERTEX
  5
531
  8
Layer_0
  10
114.8747
  20
618.96484
  0
VERTEX
  5
532
  8
Layer_0
  10
115.00143
  20
618.19958
  0
VERTEX
  5
533
  8
Layer_0
  10
115.08163
  20
617.42731
  0
VERTEX
  5
534
  8
Layer_0
  10
115.11489
  20
616.65021
  0
VERTEX
  5
535
  8
Layer_0
  10
115.10078
  20
615.87042
  0
VERTEX
  5
536
  8
Layer_0
  10
115.07726
  20
615.25751
  0
VERTEX
  5
537
  8
Layer_0
  10
115.02109
  20
614.64807
  0
VERTEX
  5
538
  8
Layer_0
  10
114.93258
  20
614.04333
  0
VERTEX
  5
539
  8
Layer_0
  10
114.81201
  20
613.44458
  0
VERTEX
  5
53a
  8
Layer_0
  10
114.65968
  20
612.85315
  0
VERTEX
  5
53b
  8
Layer_0
  10
114.47589
  20
612.27032
  0
VERTEX
  5
53c
  8
Layer_0
  10
114.26093
  20
611.69727
  0
VERTEX
  5
53d
  8
Layer_0
  10
114.01509
  20
611.13531
  0
VERTEX
  5
53e
  8
Layer_0
  10
113.63331
  20
610.44092
  0
VERTEX
  5
53f
  8
Layer_0
  10
113.19692
  20
609.78442
  0
VERTEX
  5
540
  8
Layer_0
  10
112.70889
  20
609.16882
  0
VERTEX
  5
541
  8
Layer_0
  10
112.17217
  20
608.59692
  0
VERTEX
  5
542
  8
Layer_0
  10
111.58973
  20
608.07178
  0
VERTEX
  5
543
  8
Layer_0
  10
110.96452
  20
607.59607
  0
VERTEX
  5
544
  8
Layer_0
  10
110.29949
  20
607.17285
  0
VERTEX
  5
545
  8
Layer_0
  10
109.59761
  20
606.80499
  0
VERTEX
  5
546
  8
Layer_0
  10
109.01207
  20
606.5376
  0
VERTEX
  5
547
  8
Layer_0
  10
108.4163
  20
606.2962
  0
VERTEX
  5
548
  8
Layer_0
  10
107.81117
  20
606.08118
  0
VERTEX
  5
549
  8
Layer_0
  10
107.19758
  20
605.89258
  0
VERTEX
  5
54a
  8
Layer_0
  10
106.57639
  20
605.73071
  0
VERTEX
  5
54b
  8
Layer_0
  10
105.94847
  20
605.59601
  0
VERTEX
  5
54c
  8
Layer_0
  10
105.31471
  20
605.48853
  0
VERTEX
  5
54d
  8
Layer_0
  10
104.67598
  20
605.40851
  0
VERTEX
  5
54e
  8
Layer_0
  10
102.96053
  20
605.24341
  0
VERTEX
  5
54f
  8
Layer_0
  10
101.24121
  20
605.13092
  0
VERTEX
  5
550
  8
Layer_0
  10
99.519257
  20
605.07117
  0
VERTEX
  5
551
  8
Layer_0
  10
97.795853
  20
605.06427
  0
VERTEX
  5
552
  8
Layer_0
  10
81.3647
  20
605.06427
  0
SEQEND
  0
POLYLINE
  5
554
  8
Layer_0
  62
0
  70
1
  66
1
  10
0
  20
0
  30
0
  0
VERTEX
  5
554
  8
Layer_0
  10
81.3647
  20
569.97272
  0
VERTEX
  5
555
  8
Layer_0
  10
81.3647
  20
596.09698
  0
VERTEX
  5
556
  8
Layer_0
  10
98.936234
  20
596.09698
  0
VERTEX
  5
557
  8
Layer_0
  10
100.87836
  20
596.08221
  0
VERTEX
  5
558
  8
Layer_0
  10
102.81787
  20
595.99451
  0
VERTEX
  5
559
  8
Layer_0
  10
104.75273
  20
595.83405
  0
VERTEX
  5
55a
  8
Layer_0
  10
106.68086
  20
595.60089
  0
VERTEX
  5
55b
  8
Layer_0
  10
107.7825
  20
595.41699
  0
VERTEX
  5
55c
  8
Layer_0
  10
108.8704
  20
595.1684
  0
VERTEX
  5
55d
  8
Layer_0
  10
109.94172
  20
594.85602
  0
VERTEX
  5
55e
  8
Layer_0
  10
110.99361
  20
594.48053
  0
VERTEX
  5
55f
  8
Layer_0
  10
111.6552
  20
594.18811
  0
VERTEX
  5
560
  8
Layer_0
  10
112.29273
  20
593.85724
  0
VERTEX
  5
561
  8
Layer_0
  10
112.90491
  20
593.4895
  0
VERTEX
  5
562
  8
Layer_0
  10
113.49043
  20
593.08643
  0
VERTEX
  5
563
  8
Layer_0
  10
114.04799
  20
592.6496
  0
VERTEX
  5
564
  8
Layer_0
  10
114.57629
  20
592.1806
  0
VERTEX
  5
565
  8
Layer_0
  10
115.07403
  20
591.68091
  0
VERTEX
  5
566
  8
Layer_0
  10
115.53991
  20
591.15228
  0
VERTEX
  5
567
  8
Layer_0
  10
115.97263
  20
590.59619
  0
VERTEX
  5
568
  8
Layer_0
  10
116.3709
  20
590.0141
  0
VERTEX
  5
569
  8
Layer_0
  10
116.7334
  20
589.40778
  0
VERTEX
  5
56a
  8
Layer_0
  10
117.05885
  20
588.77863
  0
VERTEX
  5
56b
  8
Layer_0
  10
117.34595
  20
588.1283
  0
VERTEX
  5
56c
  8
Layer_0
  10
117.59338
  20
587.45837
  0
VERTEX
  5
56d
  8
Layer_0
  10
117.79986
  20
586.77039
  0
VERTEX
  5
56e
  8
Layer_0
  10
117.96407
  20
586.06598
  0
VERTEX
  5
56f
  8
Layer_0
  10
118.12084
  20
585.16321
  0
VERTEX
  5
570
  8
Layer_0
  10
118.2226
  20
584.255
  0
VERTEX
  5
571
  8
Layer_0
  10
118.26942
  20
583.34406
  0
VERTEX
  5
572
  8
Layer_0
  10
118.26144
  20
582.43274
  0
VERTEX
  5
573
  8
Layer_0
  10
118.1987
  20
581.52356
  0
VERTEX
  5
574
  8
Layer_0
  10
118.08133
  20
580.61902
  0
VERTEX
  5
575
  8
Layer_0
  10
117.90942
  20
579.72144
  0
VERTEX
  5
576
  8
Layer_0
  10
117.68306
  20
578.83356
  0
VERTEX
  5
577
  8
Layer_0
  10
117.4085
  20
578.02802
  0
VERTEX
  5
578
  8
Layer_0
  10
117.07907
  20
577.24677
  0
VERTEX
  5
579
  8
Layer_0
  10
116.69647
  20
576.49243
  0
VERTEX
  5
57a
  8
Layer_0
  10
116.26241
  20
575.7677
  0
VERTEX
  5
57b
  8
Layer_0
  10
115.77861
  20
575.0752
  0
VERTEX
  5
57c
  8
Layer_0
  10
115.24678
  20
574.41754
  0
VERTEX
  5
57d
  8
Layer_0
  10
114.66862
  20
573.79736
  0
VERTEX
  5
57e
  8
Layer_0
  10
114.04585
  20
573.21735
  0
VERTEX
  5
57f
  8
Layer_0
  10
113.18374
  20
572.58179
  0
VERTEX
  5
580
  8
Layer_0
  10
112.27068
  20
572.02576
  0
VERTEX
  5
581
  8
Layer_0
  10
111.31216
  20
571.55249
  0
VERTEX
  5
582
  8
Layer_0
  10
110.31367
  20
571.16486
  0
VERTEX
  5
583
  8
Layer_0
  10
109.54604
  20
570.91602
  0
VERTEX
  5
584
  8
Layer_0
  10
108.7701
  20
570.69775
  0
VERTEX
  5
585
  8
Layer_0
  10
107.98676
  20
570.51038
  0
VERTEX
  5
586
  8
Layer_0
  10
107.19696
  20
570.35406
  0
VERTEX
  5
587
  8
Layer_0
  10
106.40163
  20
570.22894
  0
VERTEX
  5
588
  8
Layer_0
  10
105.60168
  20
570.13513
  0
VERTEX
  5
589
  8
Layer_0
  10
104.79805
  20
570.07288
  0
VERTEX
  5
58a
  8
Layer_0
  10
103.99165
  20
570.0423
  0
VERTEX
  5
58b
  8
Layer_0
  10
102.13815
  20
569.98779
  0
VERTEX
  5
58c
  8
Layer_0
  10
100.28389
  20
569.97272
  0
VERTEX
  5
58d
  8
Layer_0
  10
81.3647
  20
569.97272
  0
SEQEND
  0
POLYLINE
  5
58f
  8
Layer_0
  62
0
  70
1
  66
1
  10
0
  20
0
  30
0
  0
VERTEX
  5
58f
  8
Layer_0
  10
306.59689
  20
569.23218
  0
VERTEX
  5
590
  8
Layer_0
  10
307.63742
  20
569.2782
  0
VERTEX
  5
591
  8
Layer_0
  10
308.67551
  20
569.35486
  0
VERTEX
  5
592
  8
Layer_0
  10
309.71045
  20
569.46198
  0
VERTEX
  5
593
  8
Layer_0
  10
310.74152
  20
569.59949
  0
VERTEX
  5
594
  8
Layer_0
  10
311.76813
  20
569.76733
  0
VERTEX
  5
595
  8
Layer_0
  10
312.78955
  20
569.96545
  0
VERTEX
  5
596
  8
Layer_0
  10
313.80511
  20
570.19373
  0
VERTEX
  5
597
  8
Layer_0
  10
314.81418
  20
570.4519
  0
VERTEX
  5
598
  8
Layer_0
  10
316.08368
  20
570.8291
  0
VERTEX
  5
599
  8
Layer_0
  10
317.33005
  20
571.26221
  0
VERTEX
  5
59a
  8
Layer_0
  10
318.55164
  20
571.75
  0
VERTEX
  5
59b
  8
Layer_0
  10
319.74689
  20
572.29138
  0
VERTEX
  5
59c
  8
Layer_0
  10
320.91406
  20
572.88507
  0
VERTEX
  5
59d
  8
Layer_0
  10
322.05151
  20
573.52991
  0
VERTEX
  5
59e
  8
Layer_0
  10
323.15771
  20
574.22467
  0
VERTEX
  5
59f
  8
Layer_0
  10
324.23096
  20
574.96826
  0
VERTEX
  5
5a0
  8
Layer_0
  10
325.26959
  20
575.7594
  0
VERTEX
  5
5a1
  8
Layer_0
  10
326.272
  20
576.59698
  0
VERTEX
  5
5a2
  8
Layer_0
  10
327.23657
  20
577.47974
  0
VERTEX
  5
5a3
  8
Layer_0
  10
328.16171
  20
578.40649
  0
VERTEX
  5
5a4
  8
Layer_0
  10
329.04568
  20
579.3761
  0
VERTEX
  5
5a5
  8
Layer_0
  10
329.8869
  20
580.38733
  0
VERTEX
  5
5a6
  8
Layer_0
  10
330.68375
  20
581.43909
  0
VERTEX
  5
5a7
  8
Layer_0
  10
331.43454
  20
582.53003
  0
VERTEX
  5
5a8
  8
Layer_0
  10
332.00598
  20
583.43359
  0
VERTEX
  5
5a9
  8
Layer_0
  10
332.55023
  20
584.35291
  0
VERTEX
  5
5aa
  8
Layer_0
  10
333.06696
  20
585.28748
  0
VERTEX
  5
5ab
  8
Layer_0
  10
333.55588
  20
586.23657
  0
VERTEX
  5
5ac
  8
Layer_0
  10
334.01666
  20
587.19965
  0
VERTEX
  5
5ad
  8
Layer_0
  10
334.44904
  20
588.17609
  0
VERTEX
  5
5ae
  8
Layer_0
  10
334.85269
  20
589.16528
  0
VERTEX
  5
5af
  8
Layer_0
  10
335.22726
  20
590.1665
  0
VERTEX
  5
5b0
  8
Layer_0
  10
335.60901
  20
591.26337
  0
VERTEX
  5
5b1
  8
Layer_0
  10
335.96356
  20
592.36914
  0
VERTEX
  5
5b2
  8
Layer_0
  10
336.2908
  20
593.48328
  0
VERTEX
  5
5b3
  8
Layer_0
  10
336.59055
  20
594.60522
  0
VERTEX
  5
5b4
  8
Layer_0
  10
326.53488
  20
597.14502
  0
VERTEX
  5
5b5
  8
Layer_0
  10
326.26096
  20
595.96484
  0
VERTEX
  5
5b6
  8
Layer_0
  10
325.82349
  20
594.34375
  0
VERTEX
  5
5b7
  8
Layer_0
  10
325.29938
  20
592.74988
  0
VERTEX
  5
5b8
  8
Layer_0
  10
324.68991
  20
591.18665
  0
VERTEX
  5
5b9
  8
Layer_0
  10
323.99631
  20
589.65747
  0
VERTEX
  5
5ba
  8
Layer_0
  10
323.59998
  20
588.88013
  0
VERTEX
  5
5bb
  8
Layer_0
  10
323.17325
  20
588.12024
  0
VERTEX
  5
5bc
  8
Layer_0
  10
322.7168
  20
587.3786
  0
VERTEX
  5
5bd
  8
Layer_0
  10
322.2312
  20
586.65619
  0
VERTEX
  5
5be
  8
Layer_0
  10
321.71707
  20
585.9538
  0
VERTEX
  5
5bf
  8
Layer_0
  10
321.17499
  20
585.27228
  0
VERTEX
  5
5c0
  8
Layer_0
  10
320.60559
  20
584.61255
  0
VERTEX
  5
5c1
  8
Layer_0
  10
320.00949
  20
583.97534
  0
VERTEX
  5
5c2
  8
Layer_0
  10
319.4548
  20
583.43762
  0
VERTEX
  5
5c3
  8
Layer_0
  10
318.88165
  20
582.92236
  0
VERTEX
  5
5c4
  8
Layer_0
  10
318.29086
  20
582.43005
  0
VERTEX
  5
5c5
  8
Layer_0
  10
317.68311
  20
581.96106
  0
VERTEX
  5
5c6
  8
Layer_0
  10
317.05908
  20
581.51563
  0
VERTEX
  5
5c7
  8
Layer_0
  10
316.41953
  20
581.0943
  0
VERTEX
  5
5c8
  8
Layer_0
  10
315.76514
  20
580.69739
  0
VERTEX
  5
5c9
  8
Layer_0
  10
315.09662
  20
580.32532
  0
VERTEX
  5
5ca
  8
Layer_0
  10
314.4147
  20
579.97839
  0
VERTEX
  5
5cb
  8
Layer_0
  10
313.72009
  20
579.65704
  0
VERTEX
  5
5cc
  8
Layer_0
  10
313.01346
  20
579.36157
  0
VERTEX
  5
5cd
  8
Layer_0
  10
312.29559
  20
579.09253
  0
VERTEX
  5
5ce
  8
Layer_0
  10
311.56714
  20
578.8501
  0
VERTEX
  5
5cf
  8
Layer_0
  10
310.82886
  20
578.63477
  0
VERTEX
  5
5d0
  8
Layer_0
  10
310.08148
  20
578.4469
  0
VERTEX
  5
5d1
  8
Layer_0
  10
309.32565
  20
578.28687
  0
VERTEX
  5
5d2
  8
Layer_0
  10
307.86197
  20
578.04358
  0
VERTEX
  5
5d3
  8
Layer_0
  10
306.39041
  20
577.88501
  0
VERTEX
  5
5d4
  8
Layer_0
  10
304.91455
  20
577.81104
  0
VERTEX
  5
5d5
  8
Layer_0
  10
303.43808
  20
577.82153
  0
VERTEX
  5
5d6
  8
Layer_0
  10
301.9646
  20
577.91632
  0
VERTEX
  5
5d7
  8
Layer_0
  10
300.4978
  20
578.09534
  0
VERTEX
  5
5d8
  8
Layer_0
  10
299.04126
  20
578.3584
  0
VERTEX
  5
5d9
  8
Layer_0
  10
297.5986
  20
578.70532
  0
VERTEX
  5
5da
  8
Layer_0
  10
296.47546
  20
579.04456
  0
VERTEX
  5
5db
  8
Layer_0
  10
295.37201
  20
579.43689
  0
VERTEX
  5
5dc
  8
Layer_0
  10
294.29004
  20
579.88159
  0
VERTEX
  5
5dd
  8
Layer_0
  10
293.23138
  20
580.37762
  0
VERTEX
  5
5de
  8
Layer_0
  10
292.19788
  20
580.92413
  0
VERTEX
  5
5df
  8
Layer_0
  10
291.19135
  20
581.52026
  0
VERTEX
  5
5e0
  8
Layer_0
  10
290.21365
  20
582.16492
  0
VERTEX
  5
5e1
  8
Layer_0
  10
289.26657
  20
582.85742
  0
VERTEX
  5
5e2
  8
Layer_0
  10
288.42822
  20
583.56775
  0
VERTEX
  5
5e3
  8
Layer_0
  10
287.63037
  20
584.31995
  0
VERTEX
  5
5e4
  8
Layer_0
  10
286.87448
  20
585.11224
  0
VERTEX
  5
5e5
  8
Layer_0
  10
286.16202
  20
585.94275
  0
VERTEX
  5
5e6
  8
Layer_0
  10
285.49442
  20
586.80975
  0
VERTEX
  5
5e7
  8
Layer_0
  10
284.87314
  20
587.71149
  0
VERTEX
  5
5e8
  8
Layer_0
  10
284.29965
  20
588.64606
  0
VERTEX
  5
5e9
  8
Layer_0
  10
283.77536
  20
589.61182
  0
VERTEX
  5
5ea
  8
Layer_0
  10
283.34845
  20
590.49304
  0
VERTEX
  5
5eb
  8
Layer_0
  10
282.94809
  20
591.38599
  0
VERTEX
  5
5ec
  8
Layer_0
  10
282.57452
  20
592.28992
  0
VERTEX
  5
5ed
  8
Layer_0
  10
282.22797
  20
593.20435
  0
VERTEX
  5
5ee
  8
Layer_0
  10
281.90857
  20
594.12866
  0
VERTEX
  5
5ef
  8
Layer_0
  10
281.61664
  20
595.06219
  0
VERTEX
  5
5f0
  8
Layer_0
  10
281.35236
  20
596.00439
  0
VERTEX
  5
5f1
  8
Layer_0
  10
281.11594
  20
596.95459
  0
VERTEX
  5
5f2
  8
Layer_0
  10
280.81915
  20
598.30627
  0
VERTEX
  5
5f3
  8
Layer_0
  10
280.55966
  20
599.66479
  0
VERTEX
  5
5f4
  8
Layer_0
  10
280.33762
  20
601.02942
  0
VERTEX
  5
5f5
  8
Layer_0
  10
280.15305
  20
602.39935
  0
VERTEX
  5
5f6
  8
Layer_0
  10
280.0061
  20
603.7738
  0
VERTEX
  5
5f7
  8
Layer_0
  10
279.89682
  20
605.1521
  0
VERTEX
  5
5f8
  8
Layer_0
  10
279.82532
  20
606.53333
  0
VERTEX
  5
5f9
  8
Layer_0
  10
279.79172
  20
607.91675
  0
VERTEX
  5
5fa
  8
Layer_0
  10
279.78363
  20
610.04303
  0
VERTEX
  5
5fb
  8
Layer_0
  10
279.87488
  20
612.16394
  0
VERTEX
  5
5fc
  8
Layer_0
  10
280.06488
  20
614.276
  0
VERTEX
  5
5fd
  8
Layer_0
  10
280.35309
  20
616.37573
  0
VERTEX
  5
5fe
  8
Layer_0
  10
280.73889
  20
618.45972
  0
VERTEX
  5
5ff
  8
Layer_0
  10
281.22186
  20
620.52454
  0
VERTEX
  5
600
  8
Layer_0
  10
281.80133
  20
622.56677
  0
VERTEX
  5
601
  8
Layer_0
  10
282.47678
  20
624.58301
  0
VERTEX
  5
602
  8
Layer_0
  10
282.84595
  20
625.52258
  0
VERTEX
  5
603
  8
Layer_0
  10
283.25616
  20
626.44098
  0
VERTEX
  5
604
  8
Layer_0
  10
283.70645
  20
627.33691
  0
VERTEX
  5
605
  8
Layer_0
  10
284.19568
  20
628.20923
  0
VERTEX
  5
606
  8
Layer_0
  10
284.7229
  20
629.05682
  0
VERTEX
  5
607
  8
Layer_0
  10
285.28717
  20
629.87842
  0
VERTEX
  5
608
  8
Layer_0
  10
285.88733
  20
630.67291
  0
VERTEX
  5
609
  8
Layer_0
  10
286.52246
  20
631.43909
  0
VERTEX
  5
60a
  8
Layer_0
  10
287.19153
  20
632.17584
  0
VERTEX
  5
60b
  8
Layer_0
  10
287.89352
  20
632.88202
  0
VERTEX
  5
60c
  8
Layer_0
  10
288.62741
  20
633.5564
  0
VERTEX
  5
60d
  8
Layer_0
  10
289.39221
  20
634.19788
  0
VERTEX
  5
60e
  8
Layer_0
  10
290.18686
  20
634.80518
  0
VERTEX
  5
60f
  8
Layer_0
  10
291.01038
  20
635.3772
  0
VERTEX
  5
610
  8
Layer_0
  10
291.86176
  20
635.91272
  0
VERTEX
  5
611
  8
Layer_0
  10
292.73996
  20
636.41064
  0
VERTEX
  5
612
  8
Layer_0
  10
293.58685
  20
636.83142
  0
VERTEX
  5
613
  8
Layer_0
  10
294.44897
  20
637.2171
  0
VERTEX
  5
614
  8
Layer_0
  10
295.32538
  20
637.56726
  0
VERTEX
  5
615
  8
Layer_0
  10
296.21484
  20
637.88147
  0
VERTEX
  5
616
  8
Layer_0
  10
297.11633
  20
638.15942
  0
VERTEX
  5
617
  8
Layer_0
  10
298.02863
  20
638.40082
  0
VERTEX
  5
618
  8
Layer_0
  10
298.95074
  20
638.60522
  0
VERTEX
  5
619
  8
Layer_0
  10
299.88156
  20
638.77222
  0
VERTEX
  5
61a
  8
Layer_0
  10
301.08856
  20
638.94885
  0
VERTEX
  5
61b
  8
Layer_0
  10
302.3002
  20
639.07654
  0
VERTEX
  5
61c
  8
Layer_0
  10
303.51501
  20
639.15515
  0
VERTEX
  5
61d
  8
Layer_0
  10
304.73151
  20
639.18475
  0
VERTEX
  5
61e
  8
Layer_0
  10
305.94818
  20
639.16528
  0
VERTEX
  5
61f
  8
Layer_0
  10
307.1636
  20
639.0968
  0
VERTEX
  5
620
  8
Layer_0
  10
308.37625
  20
638.97925
  0
VERTEX
  5
621
  8
Layer_0
  10
309.58469
  20
638.81274
  0
VERTEX
  5
622
  8
Layer_0
  10
310.48804
  20
638.64343
  0
VERTEX
  5
623
  8
Layer_0
  10
311.38062
  20
638.43115
  0
VERTEX
  5
624
  8
Layer_0
  10
312.26093
  20
638.17645
  0
VERTEX
  5
625
  8
Layer_0
  10
313.12744
  20
637.87976
  0
VERTEX
  5
626
  8
Layer_0
  10
313.9787
  20
637.54175
  0
VERTEX
  5
627
  8
Layer_0
  10
314.81317
  20
637.16296
  0
VERTEX
  5
628
  8
Layer_0
  10
315.62933
  20
636.7439
  0
VERTEX
  5
629
  8
Layer_0
  10
316.42575
  20
636.28516
  0
VERTEX
  5
62a
  8
Layer_0
  10
317.19241
  20
635.77771
  0
VERTEX
  5
62b
  8
Layer_0
  10
317.9299
  20
635.23181
  0
VERTEX
  5
62c
  8
Layer_0
  10
318.63684
  20
634.64893
  0
VERTEX
  5
62d
  8
Layer_0
  10
319.31189
  20
634.03027
  0
VERTEX
  5
62e
  8
Layer_0
  10
319.95367
  20
633.3772
  0
VERTEX
  5
62f
  8
Layer_0
  10
320.56085
  20
632.69092
  0
VERTEX
  5
630
  8
Layer_0
  10
321.13208
  20
631.9729
  0
VERTEX
  5
631
  8
Layer_0
  10
321.66599
  20
631.22437
  0
VERTEX
  5
632
  8
Layer_0
  10
322.55542
  20
629.81952
  0
VERTEX
  5
633
  8
Layer_0
  10
323.35831
  20
628.36517
  0
VERTEX
  5
634
  8
Layer_0
  10
324.0726
  20
626.86536
  0
VERTEX
  5
635
  8
Layer_0
  10
324.69626
  20
625.32397
  0
VERTEX
  5
636
  8
Layer_0
  10
325.0592
  20
624.32727
  0
VERTEX
  5
637
  8
Layer_0
  10
325.3945
  20
623.32104
  0
VERTEX
  5
638
  8
Layer_0
  10
335.29465
  20
625.65356
  0
VERTEX
  5
639
  8
Layer_0
  10
334.96838
  20
626.74023
  0
VERTEX
  5
63a
  8
Layer_0
  10
334.60675
  20
627.8147
  0
VERTEX
  5
63b
  8
Layer_0
  10
334.21024
  20
628.8761
  0
VERTEX
  5
63c
  8
Layer_0
  10
333.77911
  20
629.92365
  0
VERTEX
  5
63d
  8
Layer_0
  10
333.31375
  20
630.95642
  0
VERTEX
  5
63e
  8
Layer_0
  10
332.81451
  20
631.97363
  0
VERTEX
  5
63f
  8
Layer_0
  10
332.28183
  20
632.97437
  0
VERTEX
  5
640
  8
Layer_0
  10
331.71603
  20
633.95776
  0
VERTEX
  5
641
  8
Layer_0
  10
331.02057
  20
635.05914
  0
VERTEX
  5
642
  8
Layer_0
  10
330.27737
  20
636.12268
  0
VERTEX
  5
643
  8
Layer_0
  10
329.48807
  20
637.14722
  0
VERTEX
  5
644
  8
Layer_0
  10
328.6543
  20
638.13147
  0
VERTEX
  5
645
  8
Layer_0
  10
327.77771
  20
639.07416
  0
VERTEX
  5
646
  8
Layer_0
  10
326.85999
  20
639.97406
  0
VERTEX
  5
647
  8
Layer_0
  10
325.90277
  20
640.82983
  0
VERTEX
  5
648
  8
Layer_0
  10
324.90759
  20
641.64014
  0
VERTEX
  5
649
  8
Layer_0
  10
323.87622
  20
642.40375
  0
VERTEX
  5
64a
  8
Layer_0
  10
322.81021
  20
643.11945
  0
VERTEX
  5
64b
  8
Layer_0
  10
321.71124
  20
643.78595
  0
VERTEX
  5
64c
  8
Layer_0
  10
320.58093
  20
644.40198
  0
VERTEX
  5
64d
  8
Layer_0
  10
319.42096
  20
644.96619
  0
VERTEX
  5
64e
  8
Layer_0
  10
318.23291
  20
645.47736
  0
VERTEX
  5
64f
  8
Layer_0
  10
317.01846
  20
645.9342
  0
VERTEX
  5
650
  8
Layer_0
  10
315.77927
  20
646.33545
  0
VERTEX
  5
651
  8
Layer_0
  10
314.66721
  20
646.64319
  0
VERTEX
  5
652
  8
Layer_0
  10
313.5466
  20
646.91431
  0
VERTEX
  5
653
  8
Layer_0
  10
312.41837
  20
647.14868
  0
VERTEX
  5
654
  8
Layer_0
  10
311.28339
  20
647.34613
  0
VERTEX
  5
655
  8
Layer_0
  10
310.14261
  20
647.50653
  0
VERTEX
  5
656
  8
Layer_0
  10
308.99689
  20
647.62976
  0
VERTEX
  5
657
  8
Layer_0
  10
307.84714
  20
647.71558
  0
VERTEX
  5
658
  8
Layer_0
  10
306.69431
  20
647.76392
  0
VERTEX
  5
659
  8
Layer_0
  10
305.15222
  20
647.79254
  0
VERTEX
  5
65a
  8
Layer_0
  10
303.61194
  20
647.76154
  0
VERTEX
  5
65b
  8
Layer_0
  10
302.07513
  20
647.67114
  0
VERTEX
  5
65c
  8
Layer_0
  10
300.54352
  20
647.52161
  0
VERTEX
  5
65d
  8
Layer_0
  10
299.01883
  20
647.31305
  0
VERTEX
  5
65e
  8
Layer_0
  10
297.50275
  20
647.04565
  0
VERTEX
  5
65f
  8
Layer_0
  10
295.99704
  20
646.7196
  0
VERTEX
  5
660
  8
Layer_0
  10
294.50339
  20
646.33521
  0
VERTEX
  5
661
  8
Layer_0
  10
292.94708
  20
645.86194
  0
VERTEX
  5
662
  8
Layer_0
  10
291.41678
  20
645.31824
  0
VERTEX
  5
663
  8
Layer_0
  10
289.91476
  20
644.7052
  0
VERTEX
  5
664
  8
Layer_0
  10
288.44333
  20
644.02393
  0
VERTEX
  5
665
  8
Layer_0
  10
287.00482
  20
643.27563
  0
VERTEX
  5
666
  8
Layer_0
  10
285.60156
  20
642.46155
  0
VERTEX
  5
667
  8
Layer_0
  10
284.2359
  20
641.58264
  0
VERTEX
  5
668
  8
Layer_0
  10
282.91013
  20
640.64014
  0
VERTEX
  5
669
  8
Layer_0
  10
281.76361
  20
639.7179
  0
VERTEX
  5
66a
  8
Layer_0
  10
280.66394
  20
638.7439
  0
VERTEX
  5
66b
  8
Layer_0
  10
279.61285
  20
637.71997
  0
VERTEX
  5
66c
  8
Layer_0
  10
278.61194
  20
636.64813
  0
VERTEX
  5
66d
  8
Layer_0
  10
277.6629
  20
635.53009
  0
VERTEX
  5
66e
  8
Layer_0
  10
276.76733
  20
634.36768
  0
VERTEX
  5
66f
  8
Layer_0
  10
275.92694
  20
633.16284
  0
VERTEX
  5
670
  8
Layer_0
  10
275.14328
  20
631.91748
  0
VERTEX
  5
671
  8
Layer_0
  10
274.43823
  20
630.68506
  0
VERTEX
  5
672
  8
Layer_0
  10
273.78009
  20
629.42859
  0
VERTEX
  5
673
  8
Layer_0
  10
273.16953
  20
628.14954
  0
VERTEX
  5
674
  8
Layer_0
  10
272.60706
  20
626.84912
  0
VERTEX
  5
675
  8
Layer_0
  10
272.09323
  20
625.52869
  0
VERTEX
  5
676
  8
Layer_0
  10
271.62857
  20
624.1897
  0
VERTEX
  5
677
  8
Layer_0
  10
271.21368
  20
622.83337
  0
VERTEX
  5
678
  8
Layer_0
  10
270.84909
  20
621.46118
  0
VERTEX
  5
679
  8
Layer_0
  10
270.53967
  20
620.11584
  0
VERTEX
  5
67a
  8
Layer_0
  10
270.26782
  20
618.76324
  0
VERTEX
  5
67b
  8
Layer_0
  10
270.03363
  20
617.40411
  0
VERTEX
  5
67c
  8
Layer_0
  10
269.83728
  20
616.03937
  0
VERTEX
  5
67d
  8
Layer_0
  10
269.67883
  20
614.66968
  0
VERTEX
  5
67e
  8
Layer_0
  10
269.55835
  20
613.29578
  0
VERTEX
  5
67f
  8
Layer_0
  10
269.47601
  20
611.91858
  0
VERTEX
  5
680
  8
Layer_0
  10
269.43185
  20
610.53882
  0
VERTEX
  5
681
  8
Layer_0
  10
269.40918
  20
608.54321
  0
VERTEX
  5
682
  8
Layer_0
  10
269.46063
  20
606.55017
  0
VERTEX
  5
683
  8
Layer_0
  10
269.586
  20
604.56177
  0
VERTEX
  5
684
  8
Layer_0
  10
269.78497
  20
602.58008
  0
VERTEX
  5
685
  8
Layer_0
  10
270.05737
  20
600.60718
  0
VERTEX
  5
686
  8
Layer_0
  10
270.40298
  20
598.64508
  0
VERTEX
  5
687
  8
Layer_0
  10
270.8215
  20
596.6958
  0
VERTEX
  5
688
  8
Layer_0
  10
271.31271
  20
594.76147
  0
VERTEX
  5
689
  8
Layer_0
  10
271.66669
  20
593.5354
  0
VERTEX
  5
68a
  8
Layer_0
  10
272.05417
  20
592.32019
  0
VERTEX
  5
68b
  8
Layer_0
  10
272.47485
  20
591.1167
  0
VERTEX
  5
68c
  8
Layer_0
  10
272.92844
  20
589.92535
  0
VERTEX
  5
68d
  8
Layer_0
  10
273.4147
  20
588.74707
  0
VERTEX
  5
68e
  8
Layer_0
  10
273.93341
  20
587.5824
  0
VERTEX
  5
68f
  8
Layer_0
  10
274.48419
  20
586.43201
  0
VERTEX
  5
690
  8
Layer_0
  10
275.06686
  20
585.29663
  0
VERTEX
  5
691
  8
Layer_0
  10
275.7157
  20
584.14282
  0
VERTEX
  5
692
  8
Layer_0
  10
276.41202
  20
583.01923
  0
VERTEX
  5
693
  8
Layer_0
  10
277.15482
  20
581.92719
  0
VERTEX
  5
694
  8
Layer_0
  10
277.94293
  20
580.8681
  0
VERTEX
  5
695
  8
Layer_0
  10
278.7753
  20
579.84344
  0
VERTEX
  5
696
  8
Layer_0
  10
279.65079
  20
578.85461
  0
VERTEX
  5
697
  8
Layer_0
  10
280.56836
  20
577.90302
  0
VERTEX
  5
698
  8
Layer_0
  10
281.52682
  20
576.98999
  0
VERTEX
  5
699
  8
Layer_0
  10
282.63647
  20
576.0332
  0
VERTEX
  5
69a
  8
Layer_0
  10
283.79288
  20
575.13849
  0
VERTEX
  5
69b
  8
Layer_0
  10
284.99335
  20
574.30737
  0
VERTEX
  5
69c
  8
Layer_0
  10
286.23523
  20
573.5415
  0
VERTEX
  5
69d
  8
Layer_0
  10
287.5159
  20
572.84229
  0
VERTEX
  5
69e
  8
Layer_0
  10
288.83264
  20
572.21143
  0
VERTEX
  5
69f
  8
Layer_0
  10
290.1828
  20
571.65039
  0
VERTEX
  5
6a0
  8
Layer_0
  10
291.56369
  20
571.16064
  0
VERTEX
  5
6a1
  8
Layer_0
  10
292.50674
  20
570.8678
  0
VERTEX
  5
6a2
  8
Layer_0
  10
293.45667
  20
570.59979
  0
VERTEX
  5
6a3
  8
Layer_0
  10
294.41287
  20
570.35675
  0
VERTEX
  5
6a4
  8
Layer_0
  10
295.37494
  20
570.13873
  0
VERTEX
  5
6a5
  8
Layer_0
  10
296.34241
  20
569.94592
  0
VERTEX
  5
6a6
  8
Layer_0
  10
297.3147
  20
569.77832
  0
VERTEX
  5
6a7
  8
Layer_0
  10
298.29138
  20
569.63611
  0
VERTEX
  5
6a8
  8
Layer_0
  10
299.27194
  20
569.51929
  0
VERTEX
  5
6a9
  8
Layer_0
  10
301.09857
  20
569.35175
  0
VERTEX
  5
6aa
  8
Layer_0
  10
302.92938
  20
569.24805
  0
VERTEX
  5
6ab
  8
Layer_0
  10
304.7627
  20
569.20813
  0
VERTEX
  5
6ac
  8
Layer_0
  10
306.59689
  20
569.23218
  0
SEQEND
  0
POLYLINE
  5
6ae
  8
Layer_0
  62
0
  70
1
  66
1
  10
0
  20
0
  30
0
  0
VERTEX
  5
6ae
  8
Layer_0
  10
306.59689
  20
813.23218
  0
VERTEX
  5
6af
  8
Layer_0
  10
307.63742
  20
813.2782
  0
VERTEX
  5
6b0
  8
Layer_0
  10
308.67551
  20
813.35486
  0
VERTEX
  5
6b1
  8
Layer_0
  10
309.71045
  20
813.46198
  0
VERTEX
  5
6b2
  8
Layer_0
  10
310.74152
  20
813.59949
  0
VERTEX
  5
6b3
  8
Layer_0
  10
311.76813
  20
813.76733
  0
VERTEX
  5
6b4
  8
Layer_0
  10
312.78955
  20
813.96545
  0
VERTEX
  5
6b5
  8
Layer_0
  10
313.80511
  20
814.19373
  0
VERTEX
  5
6b6
  8
Layer_0
  10
314.81418
  20
814.4519
  0
VERTEX
  5
6b7
  8
Layer_0
  10
316.08368
  20
814.8291
  0
VERTEX
  5
6b8
  8
Layer_0
  10
317.33005
  20
815.26221
  0
VERTEX
  5
6b9
  8
Layer_0
  10
318.55164
  20
815.75
  0
VERTEX
  5
6ba
  8
Layer_0
  10
319.74689
  20
816.29138
  0
VERTEX
  5
6bb
  8
Layer_0
  10
320.91406
  20
816.88507
  0
VERTEX
  5
6bc
  8
Layer_0
  10
322.05151
  20
817.52991
  0
VERTEX
  5
6bd
  8
Layer_0
  10
323.15771
  20
818.22467
  0
VERTEX
  5
6be
  8
Layer_0
  10
324.23096
  20
818.96826
  0
VERTEX
  5
6bf
  8
Layer_0
  10
325.26959
  20
819.7594
  0
VERTEX
  5
6c0
  8
Layer_0
  10
326.272
  20
820.59698
  0
VERTEX
  5
6c1
  8
Layer_0
  10
327.23657
  20
821.47974
  0
VERTEX
  5
6c2
  8
Layer_0
  10
328.16171
  20
822.40649
  0
VERTEX
  5
6c3
  8
Layer_0
  10
329.04568
  20
823.3761
  0
VERTEX
  5
6c4
  8
Layer_0
  10
329.8869
  20
824.38733
  0
VERTEX
  5
6c5
  8
Layer_0
  10
330.68375
  20
825.43909
  0
VERTEX
  5
6c6
  8
Layer_0
  10
331.43454
  20
826.53003
  0
VERTEX
  5
6c7
  8
Layer_0
  10
332.00598
  20
827.43359
  0
VERTEX
  5
6c8
  8
Layer_0
  10
332.55023
  20
828.35291
  0
VERTEX
  5
6c9
  8
Layer_0
  10
333.06696
  20
829.28748
  0
VERTEX
  5
6ca
  8
Layer_0
  10
333.55588
  20
830.23657
  0
VERTEX
  5
6cb
  8
Layer_0
  10
334.01666
  20
831.19965
  0
VERTEX
  5
6cc
  8
Layer_0
  10
334.44904
  20
832.17609
  0
VERTEX
  5
6cd
  8
Layer_0
  10
334.85269
  20
833.16528
  0
VERTEX
  5
6ce
  8
Layer_0
  10
335.22726
  20
834.1665
  0
VERTEX
  5
6cf
  8
Layer_0
  10
335.60901
  20
835.26337
  0
VERTEX
  5
6d0
  8
Layer_0
  10
335.96356
  20
836.36914
  0
VERTEX
  5
6d1
  8
Layer_0
  10
336.2908
  20
837.48328
  0
VERTEX
  5
6d2
  8
Layer_0
  10
336.59055
  20
838.60522
  0
VERTEX
  5
6d3
  8
Layer_0
  10
326.53488
  20
841.14502
  0
VERTEX
  5
6d4
  8
Layer_0
  10
326.26096
  20
839.96484
  0
VERTEX
  5
6d5
  8
Layer_0
  10
325.82349
  20
838.34375
  0
VERTEX
  5
6d6
  8
Layer_0
  10
325.29938
  20
836.74988
  0
VERTEX
  5
6d7
  8
Layer_0
  10
324.68991
  20
835.18665
  0
VERTEX
  5
6d8
  8
Layer_0
  10
323.99631
  20
833.65747
  0
VERTEX
  5
6d9
  8
Layer_0
  10
323.59998
  20
832.88013
  0
VERTEX
  5
6da
  8
Layer_0
  10
323.17325
  20
832.12024
  0
VERTEX
  5
6db
  8
Layer_0
  10
322.7168
  20
831.3786
  0
VERTEX
  5
6dc
  8
Layer_0
  10
322.2312
  20
830.65619
  0
VERTEX
  5
6dd
  8
Layer_0
  10
321.71707
  20
829.9538
  0
VERTEX
  5
6de
  8
Layer_0
  10
321.17499
  20
829.27228
  0
VERTEX
  5
6df
  8
Layer_0
  10
320.60559
  20
828.61255
  0
VERTEX
  5
6e0
  8
Layer_0
  10
320.00949
  20
827.97534
  0
VERTEX
  5
6e1
  8
Layer_0
  10
319.4548
  20
827.43762
  0
VERTEX
  5
6e2
  8
Layer_0
  10
318.88165
  20
826.92236
  0
VERTEX
  5
6e3
  8
Layer_0
  10
318.29086
  20
826.43005
  0
VERTEX
  5
6e4
  8
Layer_0
  10
317.68311
  20
825.96106
  0
VERTEX
  5
6e5
  8
Layer_0
  10
317.05908
  20
825.51563
  0
VERTEX
  5
6e6
  8
Layer_0
  10
316.41953
  20
825.0943
  0
VERTEX
  5
6e7
  8
Layer_0
  10
315.76514
  20
824.69739
  0
VERTEX
  5
6e8
  8
Layer_0
  10
315.09662
  20
824.32532
  0
VERTEX
  5
6e9
  8
Layer_0
  10
314.4147
  20
823.97839
  0
VERTEX
  5
6ea
  8
Layer_0
  10
313.72009
  20
823.65704
  0
VERTEX
  5
6eb
  8
Layer_0
  10
313.01346
  20
823.36157
  0
VERTEX
  5
6ec
  8
Layer_0
  10
312.29559
  20
823.09253
  0
VERTEX
  5
6ed
  8
Layer_0
  10
311.56714
  20
822.8501
  0
VERTEX
  5
6ee
  8
Layer_0
  10
310.82886
  20
822.63477
  0
VERTEX
  5
6ef
  8
Layer_0
  10
310.08148
  20
822.4469
  0
VERTEX
  5
6f0
  8
Layer_0
  10
309.32565
  20
822.28687
  0
VERTEX
  5
6f1
  8
Layer_0
  10
307.86197
  20
822.04358
  0
VERTEX
  5
6f2
  8
Layer_0
  10
306.39041
  20
821.88501
  0
VERTEX
  5
6f3
  8
Layer_0
  10
304.91455
  20
821.81104
  0
VERTEX
  5
6f4
  8
Layer_0
  10
303.43808
  20
821.82153
  0
VERTEX
  5
6f5
  8
Layer_0
  10
301.9646
  20
821.91632
  0
VERTEX
  5
6f6
  8
Layer_0
  10
300.4978
  20
822.09534
  0
VERTEX
  5
6f7
  8
Layer_0
  10
299.04126
  20
822.3584
  0
VERTEX
  5
6f8
  8
Layer_0
  10
297.5986
  20
822.70532
  0
VERTEX
  5
6f9
  8
Layer_0
  10
296.47546
  20
823.04456
  0
VERTEX
  5
6fa
  8
Layer_0
  10
295.37201
  20
823.43689
  0
VERTEX
  5
6fb
  8
Layer_0
  10
294.29004
  20
823.88159
  0
VERTEX
  5
6fc
  8
Layer_0
  10
293.23138
  20
824.37762
  0
VERTEX
  5
6fd
  8
Layer_0
  10
292.19788
  20
824.92413
  0
VERTEX
  5
6fe
  8
Layer_0
  10
291.19135
  20
825.52026
  0
VERTEX
  5
6ff
  8
Layer_0
  10
290.21365
  20
826.16492
  0
VERTEX
  5
700
  8
Layer_0
  10
289.26657
  20
826.85742
  0
VERTEX
  5
701
  8
Layer_0
  10
288.42822
  20
827.56775
  0
VERTEX
  5
702
  8
Layer_0
  10
287.63037
  20
828.31995
  0
VERTEX
  5
703
  8
Layer_0
  10
286.87448
  20
829.11224
  0
VERTEX
  5
704
  8
Layer_0
  10
286.16202
  20
829.94275
  0
VERTEX
  5
705
  8
Layer_0
  10
285.49442
  20
830.80975
  0
VERTEX
  5
706
  8
Layer_0
  10
284.87314
  20
831.71149
  0
VERTEX
  5
707
  8
Layer_0
  10
284.29965
  20
832.64606
  0
VERTEX
  5
708
  8
Layer_0
  10
283.77536
  20
833.61182
  0
VERTEX
  5
709
  8
Layer_0
  10
283.34845
  20
834.49304
  0
VERTEX
  5
70a
  8
Layer_0
  10
282.94809
  20
835.38599
  0
VERTEX
  5
70b
  8
Layer_0
  10
282.57452
  20
836.28992
  0
VERTEX
  5
70c
  8
Layer_0
  10
282.22797
  20
837.20435
  0
VERTEX
  5
70d
  8
Layer_0
  10
281.90857
  20
838.12866
  0
VERTEX
  5
70e
  8
Layer_0
  10
281.61664
  20
839.06219
  0
VERTEX
  5
70f
  8
Layer_0
  10
281.35236
  20
840.00439
  0
VERTEX
  5
710
  8
Layer_0
  10
281.11594
  20
840.95459
  0
VERTEX
  5
711
  8
Layer_0
  10
280.81915
  20
842.30627
  0
VERTEX
  5
712
  8
Layer_0
  10
280.55966
  20
843.66479
  0
VERTEX
  5
713
  8
Layer_0
  10
280.33762
  20
845.02942
  0
VERTEX
  5
714
  8
Layer_0
  10
280.15305
  20
846.39935
  0
VERTEX
  5
715
  8
Layer_0
  10
280.0061
  20
847.7738
  0
VERTEX
  5
716
  8
Layer_0
  10
279.89682
  20
849.1521
  0
VERTEX
  5
717
  8
Layer_0
  10
279.82532
  20
850.53333
  0
VERTEX
  5
718
  8
Layer_0
  10
279.79172
  20
851.91675
  0
VERTEX
  5
719
  8
Layer_0
  10
279.78363
  20
854.04303
  0
VERTEX
  5
71a
  8
Layer_0
  10
279.87488
  20
856.16394
  0
VERTEX
  5
71b
  8
Layer_0
  10
280.06488
  20
858.276
  0
VERTEX
  5
71c
  8
Layer_0
  10
280.35309
  20
860.37573
  0
VERTEX
  5
71d
  8
Layer_0
  10
280.73889
  20
862.45972
  0
VERTEX
  5
71e
  8
Layer_0
  10
281.22186
  20
864.52454
  0
VERTEX
  5
71f
  8
Layer_0
  10
281.80133
  20
866.56677
  0
VERTEX
  5
720
  8
Layer_0
  10
282.47678
  20
868.58301
  0
VERTEX
  5
721
  8
Layer_0
  10
282.84595
  20
869.52258
  0
VERTEX
  5
722
  8
Layer_0
  10
283.25616
  20
870.44098
  0
VERTEX
  5
723
  8
Layer_0
  10
283.70645
  20
871.33691
  0
VERTEX
  5
724
  8
Layer_0
  10
284.19568
  20
872.20923
  0
VERTEX
  5
725
  8
Layer_0
  10
284.7229
  20
873.05682
  0
VERTEX
  5
726
  8
Layer_0
  10
285.28717
  20
873.87842
  0
VERTEX
  5
727
  8
Layer_0
  10
285.88733
  20
874.67291
  0
VERTEX
  5
728
  8
Layer_0
  10
286.52246
  20
875.43909
  0
VERTEX
  5
729
  8
Layer_0
  10
287.19153
  20
876.17584
  0
VERTEX
  5
72a
  8
Layer_0
  10
287.89352
  20
876.88202
  0
VERTEX
  5
72b
  8
Layer_0
  10
288.62741
  20
877.5564
  0
VERTEX
  5
72c
  8
Layer_0
  10
289.39221
  20
878.19788
  0
VERTEX
  5
72d
  8
Layer_0
  10
290.18686
  20
878.80518
  0
VERTEX
  5
72e
  8
Layer_0
  10
291.01038
  20
879.3772
  0
VERTEX
  5
72f
  8
Layer_0
  10
291.86176
  20
879.91272
  0
VERTEX
  5
730
  8
Layer_0
  10
292.73996
  20
880.41064
  0
VERTEX
  5
731
  8
Layer_0
  10
293.58685
  20
880.83142
  0
VERTEX
  5
732
  8
Layer_0
  10
294.44897
  20
881.2171
  0
VERTEX
  5
733
  8
Layer_0
  10
295.32538
  20
881.56726
  0
VERTEX
  5
734
  8
Layer_0
  10
296.21484
  20
881.88147
  0
VERTEX
  5
735
  8
Layer_0
  10
297.11633
  20
882.15942
  0
VERTEX
  5
736
  8
Layer_0
  10
298.02863
  20
882.40082
  0
VERTEX
  5
737
  8
Layer_0
  10
298.95074
  20
882.60522
  0
VERTEX
  5
738
  8
Layer_0
  10
299.88156
  20
882.77222
  0
VERTEX
  5
739
  8
Layer_0
  10
301.08856
  20
882.94885
  0
VERTEX
  5
73a
  8
Layer_0
  10
302.3002
  20
883.07654
  0
VERTEX
  5
73b
  8
Layer_0
  10
303.51501
  20
883.15515
  0
VERTEX
  5
73c
  8
Layer_0
  10
304.73151
  20
883.18475
  0
VERTEX
  5
73d
  8
Layer_0
  10
305.94818
  20
883.16528
  0
VERTEX
  5
73e
  8
Layer_0
  10
307.1636
  20
883.0968
  0
VERTEX
  5
73f
  8
Layer_0
  10
308.37625
  20
882.97925
  0
VERTEX
  5
740
  8
Layer_0
  10
309.58469
  20
882.81274
  0
VERTEX
  5
741
  8
Layer_0
  10
310.48804
  20
882.64343
  0
VERTEX
  5
742
  8
Layer_0
  10
311.38062
  20
882.43115
  0
VERTEX
  5
743
  8
Layer_0
  10
312.26093
  20
882.17645
  0
VERTEX
  5
744
  8
Layer_0
  10
313.12744
  20
881.87976
  0
VERTEX
  5
745
  8
Layer_0
  10
313.9787
  20
881.54175
  0
VERTEX
  5
746
  8
Layer_0
  10
314.81317
  20
881.16296
  0
VERTEX
  5
747
  8
Layer_0
  10
315.62933
  20
880.7439
  0
VERTEX
  5
748
  8
Layer_0
  10
316.42575
  20
880.28516
  0
VERTEX
  5
749
  8
Layer_0
  10
317.19241
  20
879.77771
  0
VERTEX
  5
74a
  8
Layer_0
  10
317.9299
  20
879.23181
  0
VERTEX
  5
74b
  8
Layer_0
  10
318.63684
  20
878.64893
  0
VERTEX
  5
74c
  8
Layer_0
  10
319.31189
  20
878.03027
  0
VERTEX
  5
74d
  8
Layer_0
  10
319.95367
  20
877.3772
  0
VERTEX
  5
74e
  8
Layer_0
  10
320.56085
  20
876.69092
  0
VERTEX
  5
74f
  8
Layer_0
  10
321.13208
  20
875.9729
  0
VERTEX
  5
750
  8
Layer_0
  10
321.66599
  20
875.22437
  0
VERTEX
  5
751
  8
Layer_0
  10
322.55542
  20
873.81952
  0
VERTEX
  5
752
  8
Layer_0
  10
323.35831
  20
872.36517
  0
VERTEX
  5
753
  8
Layer_0
  10
324.0726
  20
870.86536
  0
VERTEX
  5
754
  8
Layer_0
  10
324.69626
  20
869.32397
  0
VERTEX
  5
755
  8
Layer_0
  10
325.0592
  20
868.32727
  0
VERTEX
  5
756
  8
Layer_0
  10
325.3945
  20
867.32104
  0
VERTEX
  5
757
  8
Layer_0
  10
335.29465
  20
869.65356
  0
VERTEX
  5
758
  8
Layer_0
  10
334.96838
  20
870.74023
  0
VERTEX
  5
759
  8
Layer_0
  10
334.60675
  20
871.8147
  0
VERTEX
  5
75a
  8
Layer_0
  10
334.21024
  20
872.8761
  0
VERTEX
  5
75b
  8
Layer_0
  10
333.77911
  20
873.92365
  0
VERTEX
  5
75c
  8
Layer_0
  10
333.31375
  20
874.95642
  0
VERTEX
  5
75d
  8
Layer_0
  10
332.81451
  20
875.97363
  0
VERTEX
  5
75e
  8
Layer_0
  10
332.28183
  20
876.97437
  0
VERTEX
  5
75f
  8
Layer_0
  10
331.71603
  20
877.95776
  0
VERTEX
  5
760
  8
Layer_0
  10
331.02057
  20
879.05914
  0
VERTEX
  5
761
  8
Layer_0
  10
330.27737
  20
880.12268
  0
VERTEX
  5
762
  8
Layer_0
  10
329.48807
  20
881.14722
  0
VERTEX
  5
763
  8
Layer_0
  10
328.6543
  20
882.13147
  0
VERTEX
  5
764
  8
Layer_0
  10
327.77771
  20
883.07416
  0
VERTEX
  5
765
  8
Layer_0
  10
326.85999
  20
883.97406
  0
VERTEX
  5
766
  8
Layer_0
  10
325.90277
  20
884.82983
  0
VERTEX
  5
767
  8
Layer_0
  10
324.90759
  20
885.64014
  0
VERTEX
  5
768
  8
Layer_0
  10
323.87622
  20
886.40375
  0
VERTEX
  5
769
  8
Layer_0
  10
322.81021
  20
887.11945
  0
VERTEX
  5
76a
  8
Layer_0
  10
321.71124
  20
887.78595
  0
VERTEX
  5
76b
  8
Layer_0
  10
320.58093
  20
888.40198
  0
VERTEX
  5
76c
  8
Layer_0
  10
319.42096
  20
888.96619
  0
VERTEX
  5
76d
  8
Layer_0
  10
318.23291
  20
889.47736
  0
VERTEX
  5
76e
  8
Layer_0
  10
317.01846
  20
889.9342
  0
VERTEX
  5
76f
  8
Layer_0
  10
315.77927
  20
890.33545
  0
VERTEX
  5
770
  8
Layer_0
  10
314.66721
  20
890.64319
  0
VERTEX
  5
771
  8
Layer_0
  10
313.5466
  20
890.91431
  0
VERTEX
  5
772
  8
Layer_0
  10
312.41837
  20
891.14868
  0
VERTEX
  5
773
  8
Layer_0
  10
311.28339
  20
891.34613
  0
VERTEX
  5
774
  8
Layer_0
  10
310.14261
  20
891.50653
  0
VERTEX
  5
775
  8
Layer_0
  10
308.99689
  20
891.62976
  0
VERTEX
  5
776
  8
Layer_0
  10
307.84714
  20
891.71558
  0
VERTEX
  5
777
  8
Layer_0
  10
306.69431
  20
891.76392
  0
VERTEX
  5
778
  8
Layer_0
  10
305.15222
  20
891.79254
  0
VERTEX
  5
779
  8
Layer_0
  10
303.61194
  20
891.76154
  0
VERTEX
  5
77a
  8
Layer_0
  10
302.07513
  20
891.67114
  0
VERTEX
  5
77b
  8
Layer_0
  10
300.54352
  20
891.52161
  0
VERTEX
  5
77c
  8
Layer_0
  10
299.01883
  20
891.31305
  0
VERTEX
  5
77d
  8
Layer_0
  10
297.50275
  20
891.04565
  0
VERTEX
  5
77e
  8
Layer_0
  10
295.99704
  20
890.7196
  0
VERTEX
  5
77f
  8
Layer_0
  10
294.50339
  20
890.33521
  0
VERTEX
  5
780
  8
Layer_0
  10
292.94708
  20
889.86194
  0
VERTEX
  5
781
  8
Layer_0
  10
291.41678
  20
889.31824
  0
VERTEX
  5
782
  8
Layer_0
  10
289.91476
  20
888.7052
  0
VERTEX
  5
783
  8
Layer_0
  10
288.44333
  20
888.02393
  0
VERTEX
  5
784
  8
Layer_0
  10
287.00482
  20
887.27563
  0
VERTEX
  5
785
  8
Layer_0
  10
285.60156
  20
886.46155
  0
VERTEX
  5
786
  8
Layer_0
  10
284.2359
  20
885.58264
  0
VERTEX
  5
787
  8
Layer_0
  10
282.91013
  20
884.64014
  0
VERTEX
  5
788
  8
Layer_0
  10
281.76361
  20
883.7179
  0
VERTEX
  5
789
  8
Layer_0
  10
280.66394
  20
882.7439
  0
VERTEX
  5
78a
  8
Layer_0
  10
279.61285
  20
881.71997
  0
VERTEX
  5
78b
  8
Layer_0
  10
278.61194
  20
880.64813
  0
VERTEX
  5
78c
  8
Layer_0
  10
277.6629
  20
879.53009
  0
VERTEX
  5
78d
  8
Layer_0
  10
276.76733
  20
878.36768
  0
VERTEX
  5
78e
  8
Layer_0
  10
275.92694
  20
877.16284
  0
VERTEX
  5
78f
  8
Layer_0
  10
275.14328
  20
875.91748
  0
VERTEX
  5
790
  8
Layer_0
  10
274.43823
  20
874.68506
  0
VERTEX
  5
791
  8
Layer_0
  10
273.78009
  20
873.42859
  0
VERTEX
  5
792
  8
Layer_0
  10
273.16953
  20
872.14954
  0
VERTEX
  5
793
  8
Layer_0
  10
272.60706
  20
870.84912
  0
VERTEX
  5
794
  8
Layer_0
  10
272.09323
  20
869.52869
  0
VERTEX
  5
795
  8
Layer_0
  10
271.62857
  20
868.1897
  0
VERTEX
  5
796
  8
Layer_0
  10
271.21368
  20
866.83337
  0
VERTEX
  5
797
  8
Layer_0
  10
270.84909
  20
865.46118
  0
VERTEX
  5
798
  8
Layer_0
  10
270.53967
  20
864.11584
  0
VERTEX
  5
799
  8
Layer_0
  10
270.26782
  20
862.76324
  0
VERTEX
  5
79a
  8
Layer_0
  10
270.03363
  20
861.40411
  0
VERTEX
  5
79b
  8
Layer_0
  10
269.83728
  20
860.03937
  0
VERTEX
  5
79c
  8
Layer_0
  10
269.67883
  20
858.66968
  0
VERTEX
  5
79d
  8
Layer_0
  10
269.55835
  20
857.29578
  0
VERTEX
  5
79e
  8
Layer_0
  10
269.47601
  20
855.91858
  0
VERTEX
  5
79f
  8
Layer_0
  10
269.43185
  20
854.53882
  0
VERTEX
  5
7a0
  8
Layer_0
  10
269.40918
  20
852.54321
  0
VERTEX
  5
7a1
  8
Layer_0
  10
269.46063
  20
850.55017
  0
VERTEX
  5
7a2
  8
Layer_0
  10
269.586
  20
848.56177
  0
VERTEX
  5
7a3
  8
Layer_0
  10
269.78497
  20
846.58008
  0
VERTEX
  5
7a4
  8
Layer_0
  10
270.05737
  20
844.60718
  0
VERTEX
  5
7a5
  8
Layer_0
  10
270.40298
  20
842.64508
  0
VERTEX
  5
7a6
  8
Layer_0
  10
270.8215
  20
840.6958
  0
VERTEX
  5
7a7
  8
Layer_0
  10
271.31271
  20
838.76147
  0
VERTEX
  5
7a8
  8
Layer_0
  10
271.66669
  20
837.5354
  0
VERTEX
  5
7a9
  8
Layer_0
  10
272.05417
  20
836.32019
  0
VERTEX
  5
7aa
  8
Layer_0
  10
272.47485
  20
835.1167
  0
VERTEX
  5
7ab
  8
Layer_0
  10
272.92844
  20
833.92535
  0
VERTEX
  5
7ac
  8
Layer_0
  10
273.4147
  20
832.74707
  0
VERTEX
  5
7ad
  8
Layer_0
  10
273.93341
  20
831.5824
  0
VERTEX
  5
7ae
  8
Layer_0
  10
274.48419
  20
830.43201
  0
VERTEX
  5
7af
  8
Layer_0
  10
275.06686
  20
829.29663
  0
VERTEX
  5
7b0
  8
Layer_0
  10
275.7157
  20
828.14282
  0
VERTEX
  5
7b1
  8
Layer_0
  10
276.41202
  20
827.01923
  0
VERTEX
  5
7b2
  8
Layer_0
  10
277.15482
  20
825.92719
  0
VERTEX
  5
7b3
  8
Layer_0
  10
277.94293
  20
824.8681
  0
VERTEX
  5
7b4
  8
Layer_0
  10
278.7753
  20
823.84344
  0
VERTEX
  5
7b5
  8
Layer_0
  10
279.65079
  20
822.85461
  0
VERTEX
  5
7b6
  8
Layer_0
  10
280.56836
  20
821.90302
  0
VERTEX
  5
7b7
  8
Layer_0
  10
281.52682
  20
820.98999
  0
VERTEX
  5
7b8
  8
Layer_0
  10
282.63647
  20
820.0332
  0
VERTEX
  5
7b9
  8
Layer_0
  10
283.79288
  20
819.13849
  0
VERTEX
  5
7ba
  8
Layer_0
  10
284.99335
  20
818.30737
  0
VERTEX
  5
7bb
  8
Layer_0
  10
286.23523
  20
817.5415
  0
VERTEX
  5
7bc
  8
Layer_0
  10
287.5159
  20
816.84229
  0
VERTEX
  5
7bd
  8
Layer_0
  10
288.83264
  20
816.21143
  0
VERTEX
  5
7be
  8
Layer_0
  10
290.1828
  20
815.65039
  0
VERTEX
  5
7bf
  8
Layer_0
  10
291.56369
  20
815.16064
  0
VERTEX
  5
7c0
  8
Layer_0
  10
292.50674
  20
814.8678
  0
VERTEX
  5
7c1
  8
Layer_0
  10
293.45667
  20
814.59979
  0
VERTEX
  5
7c2
  8
Layer_0
  10
294.41287
  20
814.35675
  0
VERTEX
  5
7c3
  8
Layer_0
  10
295.37494
  20
814.13873
  0
VERTEX
  5
7c4
  8
Layer_0
  10
296.34241
  20
813.94592
  0
VERTEX
  5
7c5
  8
Layer_0
  10
297.3147
  20
813.77832
  0
VERTEX
  5
7c6
  8
Layer_0
  10
298.29138
  20
813.63611
  0
VERTEX
  5
7c7
  8
Layer_0
  10
299.27194
  20
813.51929
  0
VERTEX
  5
7c8
  8
Layer_0
  10
301.09857
  20
813.35175
  0
VERTEX
  5
7c9
  8
Layer_0
  10
302.92938
  20
813.24805
  0
VERTEX
  5
7ca
  8
Layer_0
  10
304.7627
  20
813.20813
  0
VERTEX
  5
7cb
  8
Layer_0
  10
306.59689
  20
813.23218
  0
SEQEND
  0
POLYLINE
  5
7cd
  8
Layer_0
  62
0
  70
1
  66
1
  10
0
  20
0
  30
0
  0
VERTEX
  5
7cd
  8
Layer_0
  10
606
  20
271
  0
VERTEX
  5
7ce
  8
Layer_0
  10
406
  20
271
  0
VERTEX
  5
7cf
  8
Layer_0
  10
406
  20
539
  0
VERTEX
  5
7d0
  8
Layer_0
  10
606
  20
539
  0
VERTEX
  5
7d1
  8
Layer_0
  10
606
  20
271
  0
SEQEND
  0
POLYLINE
  5
7d3
  8
Layer_0
  62
0
  70
1
  66
1
  10
0
  20
0
  30
0
  0
VERTEX
  5
7d3
  8
Layer_0
  10
502.86127
  20
367.01059
  0
VERTEX
  5
7d4
  8
Layer_0
  10
504.20694
  20
367.03058
  0
VERTEX
  5
7d5
  8
Layer_0
  10
505.55096
  20
367.08554
  0
VERTEX
  5
7d6
  8
Layer_0
  10
506.89264
  20
367.17532
  0
VERTEX
  5
7d7
  8
Layer_0
  10
508.23132
  20
367.29987
  0
VERTEX
  5
7d8
  8
Layer_0
  10
509.56631
  20
367.45914
  0
VERTEX
  5
7d9
  8
Layer_0
  10
510.89694
  20
367.65302
  0
VERTEX
  5
7da
  8
Layer_0
  10
512.22253
  20
367.88147
  0
VERTEX
  5
7db
  8
Layer_0
  10
513.54242
  20
368.14438
  0
VERTEX
  5
7dc
  8
Layer_0
  10
515.26294
  20
368.56873
  0
VERTEX
  5
7dd
  8
Layer_0
  10
516.95642
  20
369.08649
  0
VERTEX
  5
7de
  8
Layer_0
  10
518.6189
  20
369.69635
  0
VERTEX
  5
7df
  8
Layer_0
  10
520.24652
  20
370.39706
  0
VERTEX
  5
7e0
  8
Layer_0
  10
521.16327
  20
370.85318
  0
VERTEX
  5
7e1
  8
Layer_0
  10
522.05786
  20
371.34839
  0
VERTEX
  5
7e2
  8
Layer_0
  10
522.92908
  20
371.88174
  0
VERTEX
  5
7e3
  8
Layer_0
  10
523.77576
  20
372.45245
  0
VERTEX
  5
7e4
  8
Layer_0
  10
524.59656
  20
373.05963
  0
VERTEX
  5
7e5
  8
Layer_0
  10
525.3905
  20
373.70245
  0
VERTEX
  5
7e6
  8
Layer_0
  10
526.15625
  20
374.38007
  0
VERTEX
  5
7e7
  8
Layer_0
  10
526.89252
  20
375.09164
  0
VERTEX
  5
7e8
  8
Layer_0
  10
527.96326
  20
376.22089
  0
VERTEX
  5
7e9
  8
Layer_0
  10
528.97479
  20
377.39972
  0
VERTEX
  5
7ea
  8
Layer_0
  10
529.92548
  20
378.62585
  0
VERTEX
  5
7eb
  8
Layer_0
  10
530.81372
  20
379.89679
  0
VERTEX
  5
7ec
  8
Layer_0
  10
531.63788
  20
381.21017
  0
VERTEX
  5
7ed
  8
Layer_0
  10
532.39636
  20
382.5636
  0
VERTEX
  5
7ee
  8
Layer_0
  10
533.08765
  20
383.95465
  0
VERTEX
  5
7ef
  8
Layer_0
  10
533.71014
  20
385.38095
  0
VERTEX
  5
7f0
  8
Layer_0
  10
534.37006
  20
387.0434
  0
VERTEX
  5
7f1
  8
Layer_0
  10
534.96423
  20
388.72827
  0
VERTEX
  5
7f2
  8
Layer_0
  10
535.49237
  20
390.43362
  0
VERTEX
  5
7f3
  8
Layer_0
  10
535.95386
  20
392.15753
  0
VERTEX
  5
7f4
  8
Layer_0
  10
536.34827
  20
393.89801
  0
VERTEX
  5
7f5
  8
Layer_0
  10
536.67505
  20
395.65314
  0
VERTEX
  5
7f6
  8
Layer_0
  10
536.93372
  20
397.4209
  0
VERTEX
  5
7f7
  8
Layer_0
  10
537.12396
  20
399.19931
  0
VERTEX
  5
7f8
  8
Layer_0
  10
537.28259
  20
401.17691
  0
VERTEX
  5
7f9
  8
Layer_0
  10
537.37939
  20
403.15704
  0
VERTEX
  5
7fa
  8
Layer_0
  10
537.41443
  20
405.13824
  0
VERTEX
  5
7fb
  8
Layer_0
  10
537.38757
  20
407.11911
  0
VERTEX
  5
7fc
  8
Layer_0
  10
537.29895
  20
409.09814
  0
VERTEX
  5
7fd
  8
Layer_0
  10
537.14862
  20
411.07397
  0
VERTEX
  5
7fe
  8
Layer_0
  10
536.93665
  20
413.04507
  0
VERTEX
  5
7ff
  8
Layer_0
  10
536.66302
  20
415.0101
  0
VERTEX
  5
800
  8
Layer_0
  10
536.42969
  20
416.34866
  0
VERTEX
  5
801
  8
Layer_0
  10
536.15424
  20
417.67816
  0
VERTEX
  5
802
  8
Layer_0
  10
535.8371
  20
418.99768
  0
VERTEX
  5
803
  8
Layer_0
  10
535.47852
  20
420.30615
  0
VERTEX
  5
804
  8
Layer_0
  10
535.07874
  20
421.60266
  0
VERTEX
  5
805
  8
Layer_0
  10
534.63812
  20
422.8862
  0
VERTEX
  5
806
  8
Layer_0
  10
534.15692
  20
424.15582
  0
VERTEX
  5
807
  8
Layer_0
  10
533.63544
  20
425.41049
  0
VERTEX
  5
808
  8
Layer_0
  10
532.95093
  20
426.87463
  0
VERTEX
  5
809
  8
Layer_0
  10
532.19165
  20
428.29758
  0
VERTEX
  5
80a
  8
Layer_0
  10
531.35938
  20
429.67661
  0
VERTEX
  5
80b
  8
Layer_0
  10
530.45636
  20
431.00894
  0
VERTEX
  5
80c
  8
Layer_0
  10
529.48431
  20
432.29184
  0
VERTEX
  5
80d
  8
Layer_0
  10
528.44543
  20
433.52261
  0
VERTEX
  5
80e
  8
Layer_0
  10
527.34143
  20
434.69849
  0
VERTEX
  5
80f
  8
Layer_0
  10
526.1745
  20
435.81674
  0
VERTEX
  5
810
  8
Layer_0
  10
525.04724
  20
436.78455
  0
VERTEX
  5
811
  8
Layer_0
  10
523.86823
  20
437.68225
  0
VERTEX
  5
812
  8
Layer_0
  10
522.64069
  20
438.50793
  0
VERTEX
  5
813
  8
Layer_0
  10
521.36804
  20
439.25974
  0
VERTEX
  5
814
  8
Layer_0
  10
520.05371
  20
439.93582
  0
VERTEX
  5
815
  8
Layer_0
  10
518.70081
  20
440.53442
  0
VERTEX
  5
816
  8
Layer_0
  10
517.31287
  20
441.05359
  0
VERTEX
  5
817
  8
Layer_0
  10
515.89325
  20
441.49155
  0
VERTEX
  5
818
  8
Layer_0
  10
514.2934
  20
441.89758
  0
VERTEX
  5
819
  8
Layer_0
  10
512.67688
  20
442.22626
  0
VERTEX
  5
81a
  8
Layer_0
  10
511.04648
  20
442.47708
  0
VERTEX
  5
81b
  8
Layer_0
  10
509.40497
  20
442.64951
  0
VERTEX
  5
81c
  8
Layer_0
  10
507.24756
  20
442.80963
  0
VERTEX
  5
81d
  8
Layer_0
  10
505.08737
  20
442.92044
  0
VERTEX
  5
81e
  8
Layer_0
  10
502.9252
  20
442.98187
  0
VERTEX
  5
81f
  8
Layer_0
  10
500.7619
  20
442.99399
  0
VERTEX
  5
820
  8
Layer_0
  10
474.58563
  20
442.99399
  0
VERTEX
  5
821
  8
Layer_0
  10
474.58563
  20
367.00546
  0
VERTEX
  5
822
  8
Layer_0
  10
502.0058
  20
367.00546
  0
VERTEX
  5
823
  8
Layer_0
  10
502.86127
  20
367.01059
  0
SEQEND
  0
POLYLINE
  5
825
  8
Layer_0
  62
0
  70
1
  66
1
  10
0
  20
0
  30
0
  0
VERTEX
  5
825
  8
Layer_0
  10
484.64154
  20
375.97275
  0
VERTEX
  5
826
  8
Layer_0
  10
484.64154
  20
434.0267
  0
VERTEX
  5
827
  8
Layer_0
  10
500.60638
  20
434.0267
  0
VERTEX
  5
828
  8
Layer_0
  10
502.74432
  20
434.01453
  0
VERTEX
  5
829
  8
Layer_0
  10
504.87994
  20
433.92841
  0
VERTEX
  5
82a
  8
Layer_0
  10
507.01129
  20
433.76834
  0
VERTEX
  5
82b
  8
Layer_0
  10
509.13641
  20
433.53452
  0
VERTEX
  5
82c
  8
Layer_0
  10
510.27759
  20
433.36383
  0
VERTEX
  5
82d
  8
Layer_0
  10
511.40649
  20
433.12933
  0
VERTEX
  5
82e
  8
Layer_0
  10
512.52039
  20
432.83167
  0
VERTEX
  5
82f
  8
Layer_0
  10
513.61664
  20
432.47153
  0
VERTEX
  5
830
  8
Layer_0
  10
514.41675
  20
432.13
  0
VERTEX
  5
831
  8
Layer_0
  10
515.1969
  20
431.74905
  0
VERTEX
  5
832
  8
Layer_0
  10
515.95569
  20
431.32953
  0
VERTEX
  5
833
  8
Layer_0
  10
516.69183
  20
430.87238
  0
VERTEX
  5
834
  8
Layer_0
  10
517.40381
  20
430.37848
  0
VERTEX
  5
835
  8
Layer_0
  10
518.09039
  20
429.84885
  0
VERTEX
  5
836
  8
Layer_0
  10
518.75
  20
429.28433
  0
VERTEX
  5
837
  8
Layer_0
  10
519.38129
  20
428.68588
  0
VERTEX
  5
838
  8
Layer_0
  10
520.16345
  20
427.87167
  0
VERTEX
  5
839
  8
Layer_0
  10
520.90552
  20
427.02322
  0
VERTEX
  5
83a
  8
Layer_0
  10
521.60645
  20
426.14209
  0
VERTEX
  5
83b
  8
Layer_0
  10
522.26526
  20
425.22971
  0
VERTEX
  5
83c
  8
Layer_0
  10
522.88086
  20
424.28766
  0
VERTEX
  5
83d
  8
Layer_0
  10
523.45215
  20
423.31741
  0
VERTEX
  5
83e
  8
Layer_0
  10
523.97827
  20
422.3205
  0
VERTEX
  5
83f
  8
Layer_0
  10
524.45795
  20
421.29843
  0
VERTEX
  5
840
  8
Layer_0
  10
525.05035
  20
419.75073
  0
VERTEX
  5
841
  8
Layer_0
  10
525.55432
  20
418.1734
  0
VERTEX
  5
842
  8
Layer_0
  10
525.96863
  20
416.57019
  0
VERTEX
  5
843
  8
Layer_0
  10
526.29242
  20
414.94492
  0
VERTEX
  5
844
  8
Layer_0
  10
526.47595
  20
413.78174
  0
VERTEX
  5
845
  8
Layer_0
  10
526.63391
  20
412.61517
  0
VERTEX
  5
846
  8
Layer_0
  10
526.76624
  20
411.44574
  0
VERTEX
  5
847
  8
Layer_0
  10
526.8728
  20
410.27386
  0
VERTEX
  5
848
  8
Layer_0
  10
526.95367
  20
409.09991
  0
VERTEX
  5
849
  8
Layer_0
  10
527.00867
  20
407.92432
  0
VERTEX
  5
84a
  8
Layer_0
  10
527.03796
  20
406.74753
  0
VERTEX
  5
84b
  8
Layer_0
  10
527.04144
  20
405.56992
  0
VERTEX
  5
84c
  8
Layer_0
  10
527.03772
  20
404.34485
  0
VERTEX
  5
84d
  8
Layer_0
  10
527.0072
  20
403.12061
  0
VERTEX
  5
84e
  8
Layer_0
  10
526.94983
  20
401.89758
  0
VERTEX
  5
84f
  8
Layer_0
  10
526.86572
  20
400.67624
  0
VERTEX
  5
850
  8
Layer_0
  10
526.75482
  20
399.45703
  0
VERTEX
  5
851
  8
Layer_0
  10
526.61719
  20
398.24045
  0
VERTEX
  5
852
  8
Layer_0
  10
526.45288
  20
397.02686
  0
VERTEX
  5
853
  8
Layer_0
  10
526.2619
  20
395.81674
  0
VERTEX
  5
854
  8
Layer_0
  10
526.02515
  20
394.55194
  0
VERTEX
  5
855
  8
Layer_0
  10
525.73853
  20
393.2991
  0
VERTEX
  5
856
  8
Layer_0
  10
525.40247
  20
392.05966
  0
VERTEX
  5
857
  8
Layer_0
  10
525.0174
  20
390.83508
  0
VERTEX
  5
858
  8
Layer_0
  10
524.58386
  20
389.6268
  0
VERTEX
  5
859
  8
Layer_0
  10
524.10229
  20
388.43628
  0
VERTEX
  5
85a
  8
Layer_0
  10
523.57324
  20
387.26495
  0
VERTEX
  5
85b
  8
Layer_0
  10
522.99725
  20
386.11435
  0
VERTEX
  5
85c
  8
Layer_0
  10
522.6073
  20
385.41064
  0
VERTEX
  5
85d
  8
Layer_0
  10
522.19019
  20
384.72375
  0
VERTEX
  5
85e
  8
Layer_0
  10
521.74652
  20
384.05444
  0
VERTEX
  5
85f
  8
Layer_0
  10
521.27679
  20
383.40353
  0
VERTEX
  5
860
  8
Layer_0
  10
520.78174
  20
382.77173
  0
VERTEX
  5
861
  8
Layer_0
  10
520.26178
  20
382.15982
  0
VERTEX
  5
862
  8
Layer_0
  10
519.71753
  20
381.56851
  0
VERTEX
  5
863
  8
Layer_0
  10
519.1496
  20
380.99863
  0
VERTEX
  5
864
  8
Layer_0
  10
518.59521
  20
380.51941
  0
VERTEX
  5
865
  8
Layer_0
  10
518.02063
  20
380.06662
  0
VERTEX
  5
866
  8
Layer_0
  10
517.4267
  20
379.64081
  0
VERTEX
  5
867
  8
Layer_0
  10
516.81433
  20
379.24255
  0
VERTEX
  5
868
  8
Layer_0
  10
516.18451
  20
378.8725
  0
VERTEX
  5
869
  8
Layer_0
  10
515.53821
  20
378.53122
  0
VERTEX
  5
86a
  8
Layer_0
  10
514.87646
  20
378.2193
  0
VERTEX
  5
86b
  8
Layer_0
  10
514.20013
  20
377.93735
  0
VERTEX
  5
86c
  8
Layer_0
  10
513.48608
  20
377.66287
  0
VERTEX
  5
86d
  8
Layer_0
  10
512.76392
  20
377.41217
  0
VERTEX
  5
86e
  8
Layer_0
  10
512.03436
  20
377.18536
  0
VERTEX
  5
86f
  8
Layer_0
  10
511.29794
  20
376.98264
  0
VERTEX
  5
870
  8
Layer_0
  10
510.5553
  20
376.80414
  0
VERTEX
  5
871
  8
Layer_0
  10
509.80701
  20
376.65002
  0
VERTEX
  5
872
  8
Layer_0
  10
509.05365
  20
376.52045
  0
VERTEX
  5
873
  8
Layer_0
  10
508.29584
  20
376.41562
  0
VERTEX
  5
874
  8
Layer_0
  10
506.44461
  20
376.21124
  0
VERTEX
  5
875
  8
Layer_0
  10
504.58807
  20
376.06927
  0
VERTEX
  5
876
  8
Layer_0
  10
502.72784
  20
375.98975
  0
VERTEX
  5
877
  8
Layer_0
  10
500.86542
  20
375.97275
  0
VERTEX
  5
878
  8
Layer_0
  10
484.64154
  20
375.97275
  0
SEQEND
  0
POLYLINE
  5
87a
  8
Layer_0
  62
0
  70
1
  66
1
  10
0
  20
0
  30
0
  0
VERTEX
  5
87a
  8
Layer_0
  10
606
  20
542
  0
VERTEX
  5
87b
  8
Layer_0
  10
406
  20
542
  0
VERTEX
  5
87c
  8
Layer_0
  10
406
  20
1026.5
  0
VERTEX
  5
87d
  8
Layer_0
  10
606
  20
1026.5
  0
VERTEX
  5
87e
  8
Layer_0
  10
606
  20
542
  0
SEQEND
  0
POLYLINE
  5
880
  8
Layer_0
  62
0
  70
1
  66
1
  10
0
  20
0
  30
0
  0
VERTEX
  5
880
  8
Layer_0
  10
534.15302
  20
756.72272
  0
VERTEX
  5
881
  8
Layer_0
  10
487.50262
  20
756.72272
  0
VERTEX
  5
882
  8
Layer_0
  10
487.50262
  20
782.58795
  0
VERTEX
  5
883
  8
Layer_0
  10
529.53998
  20
782.58795
  0
VERTEX
  5
884
  8
Layer_0
  10
529.53998
  20
791.50323
  0
VERTEX
  5
885
  8
Layer_0
  10
487.50262
  20
791.50323
  0
VERTEX
  5
886
  8
Layer_0
  10
487.50262
  20
814.77667
  0
VERTEX
  5
887
  8
Layer_0
  10
532.39081
  20
814.77667
  0
VERTEX
  5
888
  8
Layer_0
  10
532.39081
  20
823.74396
  0
VERTEX
  5
889
  8
Layer_0
  10
477.44696
  20
823.74396
  0
VERTEX
  5
88a
  8
Layer_0
  10
477.44696
  20
747.75543
  0
VERTEX
  5
88b
  8
Layer_0
  10
534.15302
  20
747.75543
  0
VERTEX
  5
88c
  8
Layer_0
  10
534.15302
  20
756.72272
  0
SEQEND
  0
POLYLINE
  5
88e
  8
Layer_0
  62
0
  70
1
  66
1
  10
0
  20
0
  30
0
  0
VERTEX
  5
88e
  8
Layer_0
  10
200
  20
727
  0
VERTEX
  5
88f
  8
Layer_0
  10
0
  20
727
  0
VERTEX
  5
890
  8
Layer_0
  10
0
  20
881
  0
VERTEX
  5
891
  8
Layer_0
  10
200
  20
881
  0
VERTEX
  5
892
  8
Layer_0
  10
200
  20
727
  0
SEQEND
  0
POLYLINE
  5
894
  8
Layer_0
  62
0
  70
1
  66
1
  10
0
  20
0
  30
0
  0
VERTEX
  5
894
  8
Layer_0
  10
85.482376
  20
800.52692
  0
VERTEX
  5
895
  8
Layer_0
  10
121.144
  20
800.52692
  0
VERTEX
  5
896
  8
Layer_0
  10
121.144
  20
809.49396
  0
VERTEX
  5
897
  8
Layer_0
  10
85.482376
  20
809.49396
  0
VERTEX
  5
898
  8
Layer_0
  10
85.482376
  20
833.02667
  0
VERTEX
  5
899
  8
Layer_0
  10
126.69014
  20
833.02667
  0
VERTEX
  5
89a
  8
Layer_0
  10
126.69014
  20
841.99396
  0
VERTEX
  5
89b
  8
Layer_0
  10
75.426468
  20
841.99396
  0
VERTEX
  5
89c
  8
Layer_0
  10
75.426468
  20
766.00543
  0
VERTEX
  5
89d
  8
Layer_0
  10
85.482376
  20
766.00543
  0
VERTEX
  5
89e
  8
Layer_0
  10
85.482376
  20
800.52692
  0
SEQEND
  0
POLYLINE
  5
8a0
  8
Layer_0
  62
0
  70
1
  66
1
  10
0
  20
0
  30
0
  0
VERTEX
  5
8a0
  8
Layer_0
  10
200
  20
884
  0
VERTEX
  5
8a1
  8
Layer_0
  10
0
  20
884
  0
VERTEX
  5
8a2
  8
Layer_0
  10
0
  20
1038
  0
VERTEX
  5
8a3
  8
Layer_0
  10
200
  20
1038
  0
VERTEX
  5
8a4
  8
Layer_0
  10
200
  20
884
  0
SEQEND
  0
POLYLINE
  5
8a6
  8
Layer_0
  62
0
  70
1
  66
1
  10
0
  20
0
  30
0
  0
VERTEX
  5
8a6
  8
Layer_0
  10
84.424072
  20
957.52692
  0
VERTEX
  5
8a7
  8
Layer_0
  10
120.08569
  20
957.52692
  0
VERTEX
  5
8a8
  8
Layer_0
  10
120.08569
  20
966.49396
  0
VERTEX
  5
8a9
  8
Layer_0
  10
84.424072
  20
966.49396
  0
VERTEX
  5
8aa
  8
Layer_0
  10
84.424072
  20
990.02667
  0
VERTEX
  5
8ab
  8
Layer_0
  10
125.63184
  20
990.02667
  0
VERTEX
  5
8ac
  8
Layer_0
  10
125.63184
  20
998.99396
  0
VERTEX
  5
8ad
  8
Layer_0
  10
74.368164
  20
998.99396
  0
VERTEX
  5
8ae
  8
Layer_0
  10
74.368164
  20
923.00543
  0
VERTEX
  5
8af
  8
Layer_0
  10
84.424072
  20
923.00543
  0
VERTEX
  5
8b0
  8
Layer_0
  10
84.424072
  20
957.52692
  0
SEQEND
  0
POLYLINE
  5
8b2
  8
Layer_1
  62
5
  70
1
  66
1
  10
0
  20
0
  30
0
  0
VERTEX
  5
8b2
  8
Layer_1
  10
406
  20
1026.5
  0
VERTEX
  5
8b3
  8
Layer_1
  10
606
  20
1026.5
  0
VERTEX
  5
8b4
  8
Layer_1
  10
606
  20
0
  0
VERTEX
  5
8b5
  8
Layer_1
  10
406
  20
0
  0
VERTEX
  5
8b6
  8
Layer_1
  10
406
  20
1026.5
  0
SEQEND
  0
POLYLINE
  5
8b8
  8
Layer_1
  62
5
  70
1
  66
1
  10
0
  20
0
  30
0
  0
VERTEX
  5
8b8
  8
Layer_1
  10
0
  20
1038
  0
VERTEX
  5
8b9
  8
Layer_1
  10
200
  20
1038
  0
VERTEX
  5
8ba
  8
Layer_1
  10
200
  20
0
  0
VERTEX
  5
8bb
  8
Layer_1
  10
0
  20
0
  0
VERTEX
  5
8bc
  8
Layer_1
  10
0
  20
1038
  0
SEQEND
  0
ENDSEC
  0
EOF
