  0
SECTION
  2
BLOCKS
  0
ENDSEC
  0
SECTION
  2
ENTITIES
  0
LINE
  8
0
 10
1450
 20
80
 11
0
 21
80
  0
LINE
  8
0
 10
0
 20
80
 11
0
 21
0
  0
LINE
  8
0
 10
0
 20
0
 11
4.95
 21
0
  0
LINE
  8
0
 10
4.95
 20
0
 11
4.95
 21
6
  0
LINE
  8
0
 10
4.95
 20
6
 11
5.00572
 21
6.53017
  0
LINE
  8
0
 10
5.00572
 20
6.53017
 11
5.17046
 21
7.03717
  0
LINE
  8
0
 10
5.17046
 20
7.03717
 11
5.437
 21
7.49884
  0
LINE
  8
0
 10
5.437
 20
7.49884
 11
5.79372
 21
7.895
  0
LINE
  8
0
 10
5.79372
 20
7.895
 11
6.22499
 21
8.20836
  0
LINE
  8
0
 10
6.22499
 20
8.20836
 11
6.71201
 21
8.42519
  0
LINE
  8
0
 10
6.71201
 20
8.42519
 11
7.23344
 21
8.53603
  0
LINE
  8
0
 10
7.23344
 20
8.53603
 11
7.76654
 21
8.53603
  0
LINE
  8
0
 10
7.76654
 20
8.53603
 11
8.28798
 21
8.42519
  0
LINE
  8
0
 10
8.28798
 20
8.42519
 11
8.77499
 21
8.20836
  0
LINE
  8
0
 10
8.77499
 20
8.20836
 11
9.20627
 21
7.895
  0
LINE
  8
0
 10
9.20627
 20
7.895
 11
9.56299
 21
7.49884
  0
LINE
  8
0
 10
9.56299
 20
7.49884
 11
9.82953
 21
7.03717
  0
LINE
  8
0
 10
9.82953
 20
7.03717
 11
9.99426
 21
6.53017
  0
LINE
  8
0
 10
9.99426
 20
6.53017
 11
10.05
 21
6
  0
LINE
  8
0
 10
10.05
 20
6
 11
10.05
 21
0
  0
LINE
  8
0
 10
10.05
 20
0
 11
164.394
 21
0
  0
LINE
  8
0
 10
164.394
 20
0
 11
164.394
 21
6
  0
LINE
  8
0
 10
164.394
 20
6
 11
164.45
 21
6.53017
  0
LINE
  8
0
 10
164.45
 20
6.53017
 11
164.615
 21
7.03717
  0
LINE
  8
0
 10
164.615
 20
7.03717
 11
164.881
 21
7.49884
  0
LINE
  8
0
 10
164.881
 20
7.49884
 11
165.238
 21
7.895
  0
LINE
  8
0
 10
165.238
 20
7.895
 11
165.669
 21
8.20836
  0
LINE
  8
0
 10
165.669
 20
8.20836
 11
166.156
 21
8.42519
  0
LINE
  8
0
 10
166.156
 20
8.42519
 11
166.678
 21
8.53603
  0
LINE
  8
0
 10
166.678
 20
8.53603
 11
167.211
 21
8.53603
  0
LINE
  8
0
 10
167.211
 20
8.53603
 11
167.732
 21
8.42519
  0
LINE
  8
0
 10
167.732
 20
8.42519
 11
168.219
 21
8.20836
  0
LINE
  8
0
 10
168.219
 20
8.20836
 11
168.651
 21
7.895
  0
LINE
  8
0
 10
168.651
 20
7.895
 11
169.007
 21
7.49884
  0
LINE
  8
0
 10
169.007
 20
7.49884
 11
169.274
 21
7.03717
  0
LINE
  8
0
 10
169.274
 20
7.03717
 11
169.439
 21
6.53017
  0
LINE
  8
0
 10
169.439
 20
6.53017
 11
169.494
 21
6
  0
LINE
  8
0
 10
169.494
 20
6
 11
169.494
 21
0
  0
LINE
  8
0
 10
169.494
 20
0
 11
323.839
 21
0
  0
LINE
  8
0
 10
323.839
 20
0
 11
323.839
 21
6
  0
LINE
  8
0
 10
323.839
 20
6
 11
323.895
 21
6.53017
  0
LINE
  8
0
 10
323.895
 20
6.53017
 11
324.059
 21
7.03717
  0
LINE
  8
0
 10
324.059
 20
7.03717
 11
324.326
 21
7.49884
  0
LINE
  8
0
 10
324.326
 20
7.49884
 11
324.683
 21
7.895
  0
LINE
  8
0
 10
324.683
 20
7.895
 11
325.114
 21
8.20836
  0
LINE
  8
0
 10
325.114
 20
8.20836
 11
325.601
 21
8.42519
  0
LINE
  8
0
 10
325.601
 20
8.42519
 11
326.122
 21
8.53603
  0
LINE
  8
0
 10
326.122
 20
8.53603
 11
326.655
 21
8.53603
  0
LINE
  8
0
 10
326.655
 20
8.53603
 11
327.177
 21
8.42519
  0
LINE
  8
0
 10
327.177
 20
8.42519
 11
327.664
 21
8.20836
  0
LINE
  8
0
 10
327.664
 20
8.20836
 11
328.095
 21
7.895
  0
LINE
  8
0
 10
328.095
 20
7.895
 11
328.452
 21
7.49884
  0
LINE
  8
0
 10
328.452
 20
7.49884
 11
328.718
 21
7.03717
  0
LINE
  8
0
 10
328.718
 20
7.03717
 11
328.883
 21
6.53017
  0
LINE
  8
0
 10
328.883
 20
6.53017
 11
328.939
 21
6
  0
LINE
  8
0
 10
328.939
 20
6
 11
328.939
 21
0
  0
LINE
  8
0
 10
328.939
 20
0
 11
483.283
 21
0
  0
LINE
  8
0
 10
483.283
 20
0
 11
483.283
 21
6
  0
LINE
  8
0
 10
483.283
 20
6
 11
483.339
 21
6.53017
  0
LINE
  8
0
 10
483.339
 20
6.53017
 11
483.504
 21
7.03717
  0
LINE
  8
0
 10
483.504
 20
7.03717
 11
483.77
 21
7.49884
  0
LINE
  8
0
 10
483.77
 20
7.49884
 11
484.127
 21
7.895
  0
LINE
  8
0
 10
484.127
 20
7.895
 11
484.558
 21
8.20836
  0
LINE
  8
0
 10
484.558
 20
8.20836
 11
485.045
 21
8.42519
  0
LINE
  8
0
 10
485.045
 20
8.42519
 11
485.567
 21
8.53603
  0
LINE
  8
0
 10
485.567
 20
8.53603
 11
486.1
 21
8.53603
  0
LINE
  8
0
 10
486.1
 20
8.53603
 11
486.621
 21
8.42519
  0
LINE
  8
0
 10
486.621
 20
8.42519
 11
487.108
 21
8.20836
  0
LINE
  8
0
 10
487.108
 20
8.20836
 11
487.54
 21
7.895
  0
LINE
  8
0
 10
487.54
 20
7.895
 11
487.896
 21
7.49884
  0
LINE
  8
0
 10
487.896
 20
7.49884
 11
488.163
 21
7.03717
  0
LINE
  8
0
 10
488.163
 20
7.03717
 11
488.328
 21
6.53017
  0
LINE
  8
0
 10
488.328
 20
6.53017
 11
488.383
 21
6
  0
LINE
  8
0
 10
488.383
 20
6
 11
488.383
 21
0
  0
LINE
  8
0
 10
488.383
 20
0
 11
642.728
 21
0
  0
LINE
  8
0
 10
642.728
 20
0
 11
642.728
 21
6
  0
LINE
  8
0
 10
642.728
 20
6
 11
642.783
 21
6.53017
  0
LINE
  8
0
 10
642.783
 20
6.53017
 11
642.948
 21
7.03717
  0
LINE
  8
0
 10
642.948
 20
7.03717
 11
643.215
 21
7.49884
  0
LINE
  8
0
 10
643.215
 20
7.49884
 11
643.571
 21
7.895
  0
LINE
  8
0
 10
643.571
 20
7.895
 11
644.003
 21
8.20836
  0
LINE
  8
0
 10
644.003
 20
8.20836
 11
644.49
 21
8.42519
  0
LINE
  8
0
 10
644.49
 20
8.42519
 11
645.011
 21
8.53603
  0
LINE
  8
0
 10
645.011
 20
8.53603
 11
645.544
 21
8.53603
  0
LINE
  8
0
 10
645.544
 20
8.53603
 11
646.066
 21
8.42519
  0
LINE
  8
0
 10
646.066
 20
8.42519
 11
646.553
 21
8.20836
  0
LINE
  8
0
 10
646.553
 20
8.20836
 11
646.984
 21
7.895
  0
LINE
  8
0
 10
646.984
 20
7.895
 11
647.341
 21
7.49884
  0
LINE
  8
0
 10
647.341
 20
7.49884
 11
647.607
 21
7.03717
  0
LINE
  8
0
 10
647.607
 20
7.03717
 11
647.772
 21
6.53017
  0
LINE
  8
0
 10
647.772
 20
6.53017
 11
647.828
 21
6
  0
LINE
  8
0
 10
647.828
 20
6
 11
647.828
 21
0
  0
LINE
  8
0
 10
647.828
 20
0
 11
802.172
 21
0
  0
LINE
  8
0
 10
802.172
 20
0
 11
802.172
 21
6
  0
LINE
  8
0
 10
802.172
 20
6
 11
802.228
 21
6.53017
  0
LINE
  8
0
 10
802.228
 20
6.53017
 11
802.393
 21
7.03717
  0
LINE
  8
0
 10
802.393
 20
7.03717
 11
802.659
 21
7.49884
  0
LINE
  8
0
 10
802.659
 20
7.49884
 11
803.016
 21
7.895
  0
LINE
  8
0
 10
803.016
 20
7.895
 11
803.447
 21
8.20836
  0
LINE
  8
0
 10
803.447
 20
8.20836
 11
803.934
 21
8.42519
  0
LINE
  8
0
 10
803.934
 20
8.42519
 11
804.456
 21
8.53603
  0
LINE
  8
0
 10
804.456
 20
8.53603
 11
804.989
 21
8.53603
  0
LINE
  8
0
 10
804.989
 20
8.53603
 11
805.51
 21
8.42519
  0
LINE
  8
0
 10
805.51
 20
8.42519
 11
805.997
 21
8.20836
  0
LINE
  8
0
 10
805.997
 20
8.20836
 11
806.428
 21
7.895
  0
LINE
  8
0
 10
806.428
 20
7.895
 11
806.785
 21
7.49884
  0
LINE
  8
0
 10
806.785
 20
7.49884
 11
807.052
 21
7.03717
  0
LINE
  8
0
 10
807.052
 20
7.03717
 11
807.216
 21
6.53017
  0
LINE
  8
0
 10
807.216
 20
6.53017
 11
807.272
 21
6
  0
LINE
  8
0
 10
807.272
 20
6
 11
807.272
 21
0
  0
LINE
  8
0
 10
807.272
 20
0
 11
961.617
 21
0
  0
LINE
  8
0
 10
961.617
 20
0
 11
961.617
 21
6
  0
LINE
  8
0
 10
961.617
 20
6
 11
961.672
 21
6.53017
  0
LINE
  8
0
 10
961.672
 20
6.53017
 11
961.837
 21
7.03717
  0
LINE
  8
0
 10
961.837
 20
7.03717
 11
962.104
 21
7.49884
  0
LINE
  8
0
 10
962.104
 20
7.49884
 11
962.46
 21
7.895
  0
LINE
  8
0
 10
962.46
 20
7.895
 11
962.892
 21
8.20836
  0
LINE
  8
0
 10
962.892
 20
8.20836
 11
963.379
 21
8.42519
  0
LINE
  8
0
 10
963.379
 20
8.42519
 11
963.9
 21
8.53603
  0
LINE
  8
0
 10
963.9
 20
8.53603
 11
964.433
 21
8.53603
  0
LINE
  8
0
 10
964.433
 20
8.53603
 11
964.955
 21
8.42519
  0
LINE
  8
0
 10
964.955
 20
8.42519
 11
965.442
 21
8.20836
  0
LINE
  8
0
 10
965.442
 20
8.20836
 11
965.873
 21
7.895
  0
LINE
  8
0
 10
965.873
 20
7.895
 11
966.23
 21
7.49884
  0
LINE
  8
0
 10
966.23
 20
7.49884
 11
966.496
 21
7.03717
  0
LINE
  8
0
 10
966.496
 20
7.03717
 11
966.661
 21
6.53017
  0
LINE
  8
0
 10
966.661
 20
6.53017
 11
966.717
 21
6
  0
LINE
  8
0
 10
966.717
 20
6
 11
966.717
 21
0
  0
LINE
  8
0
 10
966.717
 20
0
 11
1121.06
 21
0
  0
LINE
  8
0
 10
1121.06
 20
0
 11
1121.06
 21
6
  0
LINE
  8
0
 10
1121.06
 20
6
 11
1121.12
 21
6.53017
  0
LINE
  8
0
 10
1121.12
 20
6.53017
 11
1121.28
 21
7.03717
  0
LINE
  8
0
 10
1121.28
 20
7.03717
 11
1121.55
 21
7.49884
  0
LINE
  8
0
 10
1121.55
 20
7.49884
 11
1121.9
 21
7.895
  0
LINE
  8
0
 10
1121.9
 20
7.895
 11
1122.34
 21
8.20836
  0
LINE
  8
0
 10
1122.34
 20
8.20836
 11
1122.82
 21
8.42519
  0
LINE
  8
0
 10
1122.82
 20
8.42519
 11
1123.34
 21
8.53603
  0
LINE
  8
0
 10
1123.34
 20
8.53603
 11
1123.88
 21
8.53603
  0
LINE
  8
0
 10
1123.88
 20
8.53603
 11
1124.4
 21
8.42519
  0
LINE
  8
0
 10
1124.4
 20
8.42519
 11
1124.89
 21
8.20836
  0
LINE
  8
0
 10
1124.89
 20
8.20836
 11
1125.32
 21
7.895
  0
LINE
  8
0
 10
1125.32
 20
7.895
 11
1125.67
 21
7.49884
  0
LINE
  8
0
 10
1125.67
 20
7.49884
 11
1125.94
 21
7.03717
  0
LINE
  8
0
 10
1125.94
 20
7.03717
 11
1126.11
 21
6.53017
  0
LINE
  8
0
 10
1126.11
 20
6.53017
 11
1126.16
 21
6
  0
LINE
  8
0
 10
1126.16
 20
6
 11
1126.16
 21
0
  0
LINE
  8
0
 10
1126.16
 20
0
 11
1280.51
 21
0
  0
LINE
  8
0
 10
1280.51
 20
0
 11
1280.51
 21
6
  0
LINE
  8
0
 10
1280.51
 20
6
 11
1280.56
 21
6.53017
  0
LINE
  8
0
 10
1280.56
 20
6.53017
 11
1280.73
 21
7.03717
  0
LINE
  8
0
 10
1280.73
 20
7.03717
 11
1280.99
 21
7.49884
  0
LINE
  8
0
 10
1280.99
 20
7.49884
 11
1281.35
 21
7.895
  0
LINE
  8
0
 10
1281.35
 20
7.895
 11
1281.78
 21
8.20836
  0
LINE
  8
0
 10
1281.78
 20
8.20836
 11
1282.27
 21
8.42519
  0
LINE
  8
0
 10
1282.27
 20
8.42519
 11
1282.79
 21
8.53603
  0
LINE
  8
0
 10
1282.79
 20
8.53603
 11
1283.32
 21
8.53603
  0
LINE
  8
0
 10
1283.32
 20
8.53603
 11
1283.84
 21
8.42519
  0
LINE
  8
0
 10
1283.84
 20
8.42519
 11
1284.33
 21
8.20836
  0
LINE
  8
0
 10
1284.33
 20
8.20836
 11
1284.76
 21
7.895
  0
LINE
  8
0
 10
1284.76
 20
7.895
 11
1285.12
 21
7.49884
  0
LINE
  8
0
 10
1285.12
 20
7.49884
 11
1285.39
 21
7.03717
  0
LINE
  8
0
 10
1285.39
 20
7.03717
 11
1285.55
 21
6.53017
  0
LINE
  8
0
 10
1285.55
 20
6.53017
 11
1285.61
 21
6
  0
LINE
  8
0
 10
1285.61
 20
6
 11
1285.61
 21
0
  0
LINE
  8
0
 10
1285.61
 20
0
 11
1439.95
 21
0
  0
LINE
  8
0
 10
1439.95
 20
0
 11
1439.95
 21
6
  0
LINE
  8
0
 10
1439.95
 20
6
 11
1440.01
 21
6.53017
  0
LINE
  8
0
 10
1440.01
 20
6.53017
 11
1440.17
 21
7.03717
  0
LINE
  8
0
 10
1440.17
 20
7.03717
 11
1440.44
 21
7.49884
  0
LINE
  8
0
 10
1440.44
 20
7.49884
 11
1440.79
 21
7.895
  0
LINE
  8
0
 10
1440.79
 20
7.895
 11
1441.22
 21
8.20836
  0
LINE
  8
0
 10
1441.22
 20
8.20836
 11
1441.71
 21
8.42519
  0
LINE
  8
0
 10
1441.71
 20
8.42519
 11
1442.23
 21
8.53603
  0
LINE
  8
0
 10
1442.23
 20
8.53603
 11
1442.77
 21
8.53603
  0
LINE
  8
0
 10
1442.77
 20
8.53603
 11
1443.29
 21
8.42519
  0
LINE
  8
0
 10
1443.29
 20
8.42519
 11
1443.77
 21
8.20836
  0
LINE
  8
0
 10
1443.77
 20
8.20836
 11
1444.21
 21
7.895
  0
LINE
  8
0
 10
1444.21
 20
7.895
 11
1444.56
 21
7.49884
  0
LINE
  8
0
 10
1444.56
 20
7.49884
 11
1444.83
 21
7.03717
  0
LINE
  8
0
 10
1444.83
 20
7.03717
 11
1444.99
 21
6.53017
  0
LINE
  8
0
 10
1444.99
 20
6.53017
 11
1445.05
 21
6
  0
LINE
  8
0
 10
1445.05
 20
6
 11
1445.05
 21
0
  0
LINE
  8
0
 10
1445.05
 20
0
 11
1450
 21
0
  0
LINE
  8
0
 10
1450
 20
0
 11
1450
 21
80
  0
LINE
  8
0
 10
6.98573
 20
55.607
 11
6.47708
 21
55.6875
  0
LINE
  8
0
 10
6.47708
 20
55.6875
 11
5.97964
 21
55.8208
  0
LINE
  8
0
 10
5.97964
 20
55.8208
 11
5.49887
 21
56.0054
  0
LINE
  8
0
 10
5.49887
 20
56.0054
 11
5.04001
 21
56.2392
  0
LINE
  8
0
 10
5.04001
 20
56.2392
 11
4.60811
 21
56.5196
  0
LINE
  8
0
 10
4.60811
 20
56.5196
 11
4.20789
 21
56.8437
  0
LINE
  8
0
 10
4.20789
 20
56.8437
 11
3.84373
 21
57.2079
  0
LINE
  8
0
 10
3.84373
 20
57.2079
 11
3.51964
 21
57.6081
  0
LINE
  8
0
 10
3.51964
 20
57.6081
 11
3.23917
 21
58.04
  0
LINE
  8
0
 10
3.23917
 20
58.04
 11
3.00537
 21
58.4989
  0
LINE
  8
0
 10
3.00537
 20
58.4989
 11
2.82082
 21
58.9796
  0
LINE
  8
0
 10
2.82082
 20
58.9796
 11
2.68752
 21
59.4771
  0
LINE
  8
0
 10
2.68752
 20
59.4771
 11
2.60696
 21
59.9857
  0
LINE
  8
0
 10
2.60696
 20
59.9857
 11
2.58
 21
60.5
  0
LINE
  8
0
 10
2.58
 20
60.5
 11
2.60696
 21
61.0143
  0
LINE
  8
0
 10
2.60696
 20
61.0143
 11
2.68752
 21
61.5229
  0
LINE
  8
0
 10
2.68752
 20
61.5229
 11
2.82082
 21
62.0204
  0
LINE
  8
0
 10
2.82082
 20
62.0204
 11
3.00537
 21
62.5011
  0
LINE
  8
0
 10
3.00537
 20
62.5011
 11
3.23917
 21
62.96
  0
LINE
  8
0
 10
3.23917
 20
62.96
 11
3.51964
 21
63.3919
  0
LINE
  8
0
 10
3.51964
 20
63.3919
 11
3.84373
 21
63.7921
  0
LINE
  8
0
 10
3.84373
 20
63.7921
 11
4.20789
 21
64.1563
  0
LINE
  8
0
 10
4.20789
 20
64.1563
 11
4.60811
 21
64.4804
  0
LINE
  8
0
 10
4.60811
 20
64.4804
 11
4.95001
 21
64.7024
  0
LINE
  8
0
 10
4.95001
 20
64.7024
 11
4.95001
 21
74
  0
LINE
  8
0
 10
4.95001
 20
74
 11
5.00574
 21
74.5302
  0
LINE
  8
0
 10
5.00574
 20
74.5302
 11
5.17047
 21
75.0372
  0
LINE
  8
0
 10
5.17047
 20
75.0372
 11
5.43701
 21
75.4988
  0
LINE
  8
0
 10
5.43701
 20
75.4988
 11
5.79373
 21
75.895
  0
LINE
  8
0
 10
5.79373
 20
75.895
 11
6.22501
 21
76.2084
  0
LINE
  8
0
 10
6.22501
 20
76.2084
 11
6.71202
 21
76.4252
  0
LINE
  8
0
 10
6.71202
 20
76.4252
 11
7.23346
 21
76.536
  0
LINE
  8
0
 10
7.23346
 20
76.536
 11
7.76654
 21
76.536
  0
LINE
  8
0
 10
7.76654
 20
76.536
 11
8.28798
 21
76.4252
  0
LINE
  8
0
 10
8.28798
 20
76.4252
 11
8.77499
 21
76.2084
  0
LINE
  8
0
 10
8.77499
 20
76.2084
 11
9.20627
 21
75.895
  0
LINE
  8
0
 10
9.20627
 20
75.895
 11
9.56299
 21
75.4988
  0
LINE
  8
0
 10
9.56299
 20
75.4988
 11
9.82953
 21
75.0372
  0
LINE
  8
0
 10
9.82953
 20
75.0372
 11
9.99426
 21
74.5302
  0
LINE
  8
0
 10
9.99426
 20
74.5302
 11
10.05
 21
74
  0
LINE
  8
0
 10
10.05
 20
74
 11
10.05
 21
64.7024
  0
LINE
  8
0
 10
10.05
 20
64.7024
 11
10.3919
 21
64.4804
  0
LINE
  8
0
 10
10.3919
 20
64.4804
 11
10.7921
 21
64.1563
  0
LINE
  8
0
 10
10.7921
 20
64.1563
 11
11.1563
 21
63.7921
  0
LINE
  8
0
 10
11.1563
 20
63.7921
 11
11.4804
 21
63.3919
  0
LINE
  8
0
 10
11.4804
 20
63.3919
 11
11.7608
 21
62.96
  0
LINE
  8
0
 10
11.7608
 20
62.96
 11
11.9946
 21
62.5011
  0
LINE
  8
0
 10
11.9946
 20
62.5011
 11
12.1792
 21
62.0204
  0
LINE
  8
0
 10
12.1792
 20
62.0204
 11
12.3125
 21
61.5229
  0
LINE
  8
0
 10
12.3125
 20
61.5229
 11
12.393
 21
61.0143
  0
LINE
  8
0
 10
12.393
 20
61.0143
 11
12.42
 21
60.5
  0
LINE
  8
0
 10
12.42
 20
60.5
 11
12.393
 21
59.9857
  0
LINE
  8
0
 10
12.393
 20
59.9857
 11
12.3125
 21
59.4771
  0
LINE
  8
0
 10
12.3125
 20
59.4771
 11
12.1792
 21
58.9796
  0
LINE
  8
0
 10
12.1792
 20
58.9796
 11
11.9946
 21
58.4989
  0
LINE
  8
0
 10
11.9946
 20
58.4989
 11
11.7608
 21
58.04
  0
LINE
  8
0
 10
11.7608
 20
58.04
 11
11.4804
 21
57.6081
  0
LINE
  8
0
 10
11.4804
 20
57.6081
 11
11.1563
 21
57.2079
  0
LINE
  8
0
 10
11.1563
 20
57.2079
 11
10.7921
 21
56.8437
  0
LINE
  8
0
 10
10.7921
 20
56.8437
 11
10.3919
 21
56.5196
  0
LINE
  8
0
 10
10.3919
 20
56.5196
 11
9.95999
 21
56.2392
  0
LINE
  8
0
 10
9.95999
 20
56.2392
 11
9.50113
 21
56.0054
  0
LINE
  8
0
 10
9.50113
 20
56.0054
 11
9.02036
 21
55.8208
  0
LINE
  8
0
 10
9.02036
 20
55.8208
 11
8.52292
 21
55.6875
  0
LINE
  8
0
 10
8.52292
 20
55.6875
 11
8.01427
 21
55.607
  0
LINE
  8
0
 10
8.01427
 20
55.607
 11
7.5
 21
55.58
  0
LINE
  8
0
 10
7.5
 20
55.58
 11
6.98573
 21
55.607
  0
LINE
  8
0
 10
963.652
 20
55.607
 11
963.144
 21
55.6875
  0
LINE
  8
0
 10
963.144
 20
55.6875
 11
962.646
 21
55.8208
  0
LINE
  8
0
 10
962.646
 20
55.8208
 11
962.166
 21
56.0054
  0
LINE
  8
0
 10
962.166
 20
56.0054
 11
961.707
 21
56.2392
  0
LINE
  8
0
 10
961.707
 20
56.2392
 11
961.275
 21
56.5196
  0
LINE
  8
0
 10
961.275
 20
56.5196
 11
960.875
 21
56.8437
  0
LINE
  8
0
 10
960.875
 20
56.8437
 11
960.51
 21
57.2079
  0
LINE
  8
0
 10
960.51
 20
57.2079
 11
960.186
 21
57.6081
  0
LINE
  8
0
 10
960.186
 20
57.6081
 11
959.906
 21
58.04
  0
LINE
  8
0
 10
959.906
 20
58.04
 11
959.672
 21
58.4989
  0
LINE
  8
0
 10
959.672
 20
58.4989
 11
959.487
 21
58.9796
  0
LINE
  8
0
 10
959.487
 20
58.9796
 11
959.354
 21
59.4771
  0
LINE
  8
0
 10
959.354
 20
59.4771
 11
959.274
 21
59.9857
  0
LINE
  8
0
 10
959.274
 20
59.9857
 11
959.247
 21
60.5
  0
LINE
  8
0
 10
959.247
 20
60.5
 11
959.274
 21
61.0143
  0
LINE
  8
0
 10
959.274
 20
61.0143
 11
959.354
 21
61.5229
  0
LINE
  8
0
 10
959.354
 20
61.5229
 11
959.487
 21
62.0204
  0
LINE
  8
0
 10
959.487
 20
62.0204
 11
959.672
 21
62.5011
  0
LINE
  8
0
 10
959.672
 20
62.5011
 11
959.906
 21
62.96
  0
LINE
  8
0
 10
959.906
 20
62.96
 11
960.186
 21
63.3919
  0
LINE
  8
0
 10
960.186
 20
63.3919
 11
960.51
 21
63.7921
  0
LINE
  8
0
 10
960.51
 20
63.7921
 11
960.875
 21
64.1563
  0
LINE
  8
0
 10
960.875
 20
64.1563
 11
961.275
 21
64.4804
  0
LINE
  8
0
 10
961.275
 20
64.4804
 11
961.617
 21
64.7024
  0
LINE
  8
0
 10
961.617
 20
64.7024
 11
961.617
 21
74
  0
LINE
  8
0
 10
961.617
 20
74
 11
961.672
 21
74.5302
  0
LINE
  8
0
 10
961.672
 20
74.5302
 11
961.837
 21
75.0372
  0
LINE
  8
0
 10
961.837
 20
75.0372
 11
962.104
 21
75.4988
  0
LINE
  8
0
 10
962.104
 20
75.4988
 11
962.46
 21
75.895
  0
LINE
  8
0
 10
962.46
 20
75.895
 11
962.892
 21
76.2084
  0
LINE
  8
0
 10
962.892
 20
76.2084
 11
963.379
 21
76.4252
  0
LINE
  8
0
 10
963.379
 20
76.4252
 11
963.9
 21
76.536
  0
LINE
  8
0
 10
963.9
 20
76.536
 11
964.433
 21
76.536
  0
LINE
  8
0
 10
964.433
 20
76.536
 11
964.955
 21
76.4252
  0
LINE
  8
0
 10
964.955
 20
76.4252
 11
965.442
 21
76.2084
  0
LINE
  8
0
 10
965.442
 20
76.2084
 11
965.873
 21
75.895
  0
LINE
  8
0
 10
965.873
 20
75.895
 11
966.23
 21
75.4988
  0
LINE
  8
0
 10
966.23
 20
75.4988
 11
966.496
 21
75.0372
  0
LINE
  8
0
 10
966.496
 20
75.0372
 11
966.661
 21
74.5302
  0
LINE
  8
0
 10
966.661
 20
74.5302
 11
966.717
 21
74
  0
LINE
  8
0
 10
966.717
 20
74
 11
966.717
 21
64.7024
  0
LINE
  8
0
 10
966.717
 20
64.7024
 11
967.059
 21
64.4804
  0
LINE
  8
0
 10
967.059
 20
64.4804
 11
967.459
 21
64.1563
  0
LINE
  8
0
 10
967.459
 20
64.1563
 11
967.823
 21
63.7921
  0
LINE
  8
0
 10
967.823
 20
63.7921
 11
968.147
 21
63.3919
  0
LINE
  8
0
 10
968.147
 20
63.3919
 11
968.427
 21
62.96
  0
LINE
  8
0
 10
968.427
 20
62.96
 11
968.661
 21
62.5011
  0
LINE
  8
0
 10
968.661
 20
62.5011
 11
968.846
 21
62.0204
  0
LINE
  8
0
 10
968.846
 20
62.0204
 11
968.979
 21
61.5229
  0
LINE
  8
0
 10
968.979
 20
61.5229
 11
969.06
 21
61.0143
  0
LINE
  8
0
 10
969.06
 20
61.0143
 11
969.087
 21
60.5
  0
LINE
  8
0
 10
969.087
 20
60.5
 11
969.06
 21
59.9857
  0
LINE
  8
0
 10
969.06
 20
59.9857
 11
968.979
 21
59.4771
  0
LINE
  8
0
 10
968.979
 20
59.4771
 11
968.846
 21
58.9796
  0
LINE
  8
0
 10
968.846
 20
58.9796
 11
968.661
 21
58.4989
  0
LINE
  8
0
 10
968.661
 20
58.4989
 11
968.427
 21
58.04
  0
LINE
  8
0
 10
968.427
 20
58.04
 11
968.147
 21
57.6081
  0
LINE
  8
0
 10
968.147
 20
57.6081
 11
967.823
 21
57.2079
  0
LINE
  8
0
 10
967.823
 20
57.2079
 11
967.459
 21
56.8437
  0
LINE
  8
0
 10
967.459
 20
56.8437
 11
967.059
 21
56.5196
  0
LINE
  8
0
 10
967.059
 20
56.5196
 11
966.627
 21
56.2392
  0
LINE
  8
0
 10
966.627
 20
56.2392
 11
966.168
 21
56.0054
  0
LINE
  8
0
 10
966.168
 20
56.0054
 11
965.687
 21
55.8208
  0
LINE
  8
0
 10
965.687
 20
55.8208
 11
965.19
 21
55.6875
  0
LINE
  8
0
 10
965.19
 20
55.6875
 11
964.681
 21
55.607
  0
LINE
  8
0
 10
964.681
 20
55.607
 11
964.167
 21
55.58
  0
LINE
  8
0
 10
964.167
 20
55.58
 11
963.652
 21
55.607
  0
LINE
  8
0
 10
1123.1
 20
55.607
 11
1122.59
 21
55.6875
  0
LINE
  8
0
 10
1122.59
 20
55.6875
 11
1122.09
 21
55.8208
  0
LINE
  8
0
 10
1122.09
 20
55.8208
 11
1121.61
 21
56.0054
  0
LINE
  8
0
 10
1121.61
 20
56.0054
 11
1121.15
 21
56.2392
  0
LINE
  8
0
 10
1121.15
 20
56.2392
 11
1120.72
 21
56.5196
  0
LINE
  8
0
 10
1120.72
 20
56.5196
 11
1120.32
 21
56.8437
  0
LINE
  8
0
 10
1120.32
 20
56.8437
 11
1119.95
 21
57.2079
  0
LINE
  8
0
 10
1119.95
 20
57.2079
 11
1119.63
 21
57.6081
  0
LINE
  8
0
 10
1119.63
 20
57.6081
 11
1119.35
 21
58.04
  0
LINE
  8
0
 10
1119.35
 20
58.04
 11
1119.12
 21
58.4989
  0
LINE
  8
0
 10
1119.12
 20
58.4989
 11
1118.93
 21
58.9796
  0
LINE
  8
0
 10
1118.93
 20
58.9796
 11
1118.8
 21
59.4771
  0
LINE
  8
0
 10
1118.8
 20
59.4771
 11
1118.72
 21
59.9857
  0
LINE
  8
0
 10
1118.72
 20
59.9857
 11
1118.69
 21
60.5
  0
LINE
  8
0
 10
1118.69
 20
60.5
 11
1118.72
 21
61.0143
  0
LINE
  8
0
 10
1118.72
 20
61.0143
 11
1118.8
 21
61.5229
  0
LINE
  8
0
 10
1118.8
 20
61.5229
 11
1118.93
 21
62.0204
  0
LINE
  8
0
 10
1118.93
 20
62.0204
 11
1119.12
 21
62.5011
  0
LINE
  8
0
 10
1119.12
 20
62.5011
 11
1119.35
 21
62.96
  0
LINE
  8
0
 10
1119.35
 20
62.96
 11
1119.63
 21
63.3919
  0
LINE
  8
0
 10
1119.63
 20
63.3919
 11
1119.95
 21
63.7921
  0
LINE
  8
0
 10
1119.95
 20
63.7921
 11
1120.32
 21
64.1563
  0
LINE
  8
0
 10
1120.32
 20
64.1563
 11
1120.72
 21
64.4804
  0
LINE
  8
0
 10
1120.72
 20
64.4804
 11
1121.06
 21
64.7024
  0
LINE
  8
0
 10
1121.06
 20
64.7024
 11
1121.06
 21
74
  0
LINE
  8
0
 10
1121.06
 20
74
 11
1121.12
 21
74.5302
  0
LINE
  8
0
 10
1121.12
 20
74.5302
 11
1121.28
 21
75.0372
  0
LINE
  8
0
 10
1121.28
 20
75.0372
 11
1121.55
 21
75.4988
  0
LINE
  8
0
 10
1121.55
 20
75.4988
 11
1121.9
 21
75.895
  0
LINE
  8
0
 10
1121.9
 20
75.895
 11
1122.34
 21
76.2084
  0
LINE
  8
0
 10
1122.34
 20
76.2084
 11
1122.82
 21
76.4252
  0
LINE
  8
0
 10
1122.82
 20
76.4252
 11
1123.34
 21
76.536
  0
LINE
  8
0
 10
1123.34
 20
76.536
 11
1123.88
 21
76.536
  0
LINE
  8
0
 10
1123.88
 20
76.536
 11
1124.4
 21
76.4252
  0
LINE
  8
0
 10
1124.4
 20
76.4252
 11
1124.89
 21
76.2084
  0
LINE
  8
0
 10
1124.89
 20
76.2084
 11
1125.32
 21
75.895
  0
LINE
  8
0
 10
1125.32
 20
75.895
 11
1125.67
 21
75.4988
  0
LINE
  8
0
 10
1125.67
 20
75.4988
 11
1125.94
 21
75.0372
  0
LINE
  8
0
 10
1125.94
 20
75.0372
 11
1126.11
 21
74.5302
  0
LINE
  8
0
 10
1126.11
 20
74.5302
 11
1126.16
 21
74
  0
LINE
  8
0
 10
1126.16
 20
74
 11
1126.16
 21
64.7024
  0
LINE
  8
0
 10
1126.16
 20
64.7024
 11
1126.5
 21
64.4804
  0
LINE
  8
0
 10
1126.5
 20
64.4804
 11
1126.9
 21
64.1563
  0
LINE
  8
0
 10
1126.9
 20
64.1563
 11
1127.27
 21
63.7921
  0
LINE
  8
0
 10
1127.27
 20
63.7921
 11
1127.59
 21
63.3919
  0
LINE
  8
0
 10
1127.59
 20
63.3919
 11
1127.87
 21
62.96
  0
LINE
  8
0
 10
1127.87
 20
62.96
 11
1128.11
 21
62.5011
  0
LINE
  8
0
 10
1128.11
 20
62.5011
 11
1128.29
 21
62.0204
  0
LINE
  8
0
 10
1128.29
 20
62.0204
 11
1128.42
 21
61.5229
  0
LINE
  8
0
 10
1128.42
 20
61.5229
 11
1128.5
 21
61.0143
  0
LINE
  8
0
 10
1128.5
 20
61.0143
 11
1128.53
 21
60.5
  0
LINE
  8
0
 10
1128.53
 20
60.5
 11
1128.5
 21
59.9857
  0
LINE
  8
0
 10
1128.5
 20
59.9857
 11
1128.42
 21
59.4771
  0
LINE
  8
0
 10
1128.42
 20
59.4771
 11
1128.29
 21
58.9796
  0
LINE
  8
0
 10
1128.29
 20
58.9796
 11
1128.11
 21
58.4989
  0
LINE
  8
0
 10
1128.11
 20
58.4989
 11
1127.87
 21
58.04
  0
LINE
  8
0
 10
1127.87
 20
58.04
 11
1127.59
 21
57.6081
  0
LINE
  8
0
 10
1127.59
 20
57.6081
 11
1127.27
 21
57.2079
  0
LINE
  8
0
 10
1127.27
 20
57.2079
 11
1126.9
 21
56.8437
  0
LINE
  8
0
 10
1126.9
 20
56.8437
 11
1126.5
 21
56.5196
  0
LINE
  8
0
 10
1126.5
 20
56.5196
 11
1126.07
 21
56.2392
  0
LINE
  8
0
 10
1126.07
 20
56.2392
 11
1125.61
 21
56.0054
  0
LINE
  8
0
 10
1125.61
 20
56.0054
 11
1125.13
 21
55.8208
  0
LINE
  8
0
 10
1125.13
 20
55.8208
 11
1124.63
 21
55.6875
  0
LINE
  8
0
 10
1124.63
 20
55.6875
 11
1124.13
 21
55.607
  0
LINE
  8
0
 10
1124.13
 20
55.607
 11
1123.61
 21
55.58
  0
LINE
  8
0
 10
1123.61
 20
55.58
 11
1123.1
 21
55.607
  0
LINE
  8
0
 10
804.208
 20
55.607
 11
803.699
 21
55.6875
  0
LINE
  8
0
 10
803.699
 20
55.6875
 11
803.202
 21
55.8208
  0
LINE
  8
0
 10
803.202
 20
55.8208
 11
802.721
 21
56.0054
  0
LINE
  8
0
 10
802.721
 20
56.0054
 11
802.262
 21
56.2392
  0
LINE
  8
0
 10
802.262
 20
56.2392
 11
801.83
 21
56.5196
  0
LINE
  8
0
 10
801.83
 20
56.5196
 11
801.43
 21
56.8437
  0
LINE
  8
0
 10
801.43
 20
56.8437
 11
801.066
 21
57.2079
  0
LINE
  8
0
 10
801.066
 20
57.2079
 11
800.742
 21
57.6081
  0
LINE
  8
0
 10
800.742
 20
57.6081
 11
800.461
 21
58.04
  0
LINE
  8
0
 10
800.461
 20
58.04
 11
800.228
 21
58.4989
  0
LINE
  8
0
 10
800.228
 20
58.4989
 11
800.043
 21
58.9796
  0
LINE
  8
0
 10
800.043
 20
58.9796
 11
799.91
 21
59.4771
  0
LINE
  8
0
 10
799.91
 20
59.4771
 11
799.829
 21
59.9857
  0
LINE
  8
0
 10
799.829
 20
59.9857
 11
799.802
 21
60.5
  0
LINE
  8
0
 10
799.802
 20
60.5
 11
799.829
 21
61.0143
  0
LINE
  8
0
 10
799.829
 20
61.0143
 11
799.91
 21
61.5229
  0
LINE
  8
0
 10
799.91
 20
61.5229
 11
800.043
 21
62.0204
  0
LINE
  8
0
 10
800.043
 20
62.0204
 11
800.228
 21
62.5011
  0
LINE
  8
0
 10
800.228
 20
62.5011
 11
800.461
 21
62.96
  0
LINE
  8
0
 10
800.461
 20
62.96
 11
800.742
 21
63.3919
  0
LINE
  8
0
 10
800.742
 20
63.3919
 11
801.066
 21
63.7921
  0
LINE
  8
0
 10
801.066
 20
63.7921
 11
801.43
 21
64.1563
  0
LINE
  8
0
 10
801.43
 20
64.1563
 11
801.83
 21
64.4804
  0
LINE
  8
0
 10
801.83
 20
64.4804
 11
802.172
 21
64.7024
  0
LINE
  8
0
 10
802.172
 20
64.7024
 11
802.172
 21
74
  0
LINE
  8
0
 10
802.172
 20
74
 11
802.228
 21
74.5302
  0
LINE
  8
0
 10
802.228
 20
74.5302
 11
802.393
 21
75.0372
  0
LINE
  8
0
 10
802.393
 20
75.0372
 11
802.659
 21
75.4988
  0
LINE
  8
0
 10
802.659
 20
75.4988
 11
803.016
 21
75.895
  0
LINE
  8
0
 10
803.016
 20
75.895
 11
803.447
 21
76.2084
  0
LINE
  8
0
 10
803.447
 20
76.2084
 11
803.934
 21
76.4252
  0
LINE
  8
0
 10
803.934
 20
76.4252
 11
804.456
 21
76.536
  0
LINE
  8
0
 10
804.456
 20
76.536
 11
804.989
 21
76.536
  0
LINE
  8
0
 10
804.989
 20
76.536
 11
805.51
 21
76.4252
  0
LINE
  8
0
 10
805.51
 20
76.4252
 11
805.997
 21
76.2084
  0
LINE
  8
0
 10
805.997
 20
76.2084
 11
806.428
 21
75.895
  0
LINE
  8
0
 10
806.428
 20
75.895
 11
806.785
 21
75.4988
  0
LINE
  8
0
 10
806.785
 20
75.4988
 11
807.052
 21
75.0372
  0
LINE
  8
0
 10
807.052
 20
75.0372
 11
807.216
 21
74.5302
  0
LINE
  8
0
 10
807.216
 20
74.5302
 11
807.272
 21
74
  0
LINE
  8
0
 10
807.272
 20
74
 11
807.272
 21
64.7024
  0
LINE
  8
0
 10
807.272
 20
64.7024
 11
807.614
 21
64.4804
  0
LINE
  8
0
 10
807.614
 20
64.4804
 11
808.014
 21
64.1563
  0
LINE
  8
0
 10
808.014
 20
64.1563
 11
808.378
 21
63.7921
  0
LINE
  8
0
 10
808.378
 20
63.7921
 11
808.703
 21
63.3919
  0
LINE
  8
0
 10
808.703
 20
63.3919
 11
808.983
 21
62.96
  0
LINE
  8
0
 10
808.983
 20
62.96
 11
809.217
 21
62.5011
  0
LINE
  8
0
 10
809.217
 20
62.5011
 11
809.401
 21
62.0204
  0
LINE
  8
0
 10
809.401
 20
62.0204
 11
809.535
 21
61.5229
  0
LINE
  8
0
 10
809.535
 20
61.5229
 11
809.615
 21
61.0143
  0
LINE
  8
0
 10
809.615
 20
61.0143
 11
809.642
 21
60.5
  0
LINE
  8
0
 10
809.642
 20
60.5
 11
809.615
 21
59.9857
  0
LINE
  8
0
 10
809.615
 20
59.9857
 11
809.535
 21
59.4771
  0
LINE
  8
0
 10
809.535
 20
59.4771
 11
809.401
 21
58.9796
  0
LINE
  8
0
 10
809.401
 20
58.9796
 11
809.217
 21
58.4989
  0
LINE
  8
0
 10
809.217
 20
58.4989
 11
808.983
 21
58.04
  0
LINE
  8
0
 10
808.983
 20
58.04
 11
808.703
 21
57.6081
  0
LINE
  8
0
 10
808.703
 20
57.6081
 11
808.378
 21
57.2079
  0
LINE
  8
0
 10
808.378
 20
57.2079
 11
808.014
 21
56.8437
  0
LINE
  8
0
 10
808.014
 20
56.8437
 11
807.614
 21
56.5196
  0
LINE
  8
0
 10
807.614
 20
56.5196
 11
807.182
 21
56.2392
  0
LINE
  8
0
 10
807.182
 20
56.2392
 11
806.723
 21
56.0054
  0
LINE
  8
0
 10
806.723
 20
56.0054
 11
806.243
 21
55.8208
  0
LINE
  8
0
 10
806.243
 20
55.8208
 11
805.745
 21
55.6875
  0
LINE
  8
0
 10
805.745
 20
55.6875
 11
805.236
 21
55.607
  0
LINE
  8
0
 10
805.236
 20
55.607
 11
804.722
 21
55.58
  0
LINE
  8
0
 10
804.722
 20
55.58
 11
804.208
 21
55.607
  0
LINE
  8
0
 10
644.764
 20
55.607
 11
644.255
 21
55.6875
  0
LINE
  8
0
 10
644.255
 20
55.6875
 11
643.757
 21
55.8208
  0
LINE
  8
0
 10
643.757
 20
55.8208
 11
643.277
 21
56.0054
  0
LINE
  8
0
 10
643.277
 20
56.0054
 11
642.818
 21
56.2392
  0
LINE
  8
0
 10
642.818
 20
56.2392
 11
642.386
 21
56.5196
  0
LINE
  8
0
 10
642.386
 20
56.5196
 11
641.986
 21
56.8437
  0
LINE
  8
0
 10
641.986
 20
56.8437
 11
641.622
 21
57.2079
  0
LINE
  8
0
 10
641.622
 20
57.2079
 11
641.297
 21
57.6081
  0
LINE
  8
0
 10
641.297
 20
57.6081
 11
641.017
 21
58.04
  0
LINE
  8
0
 10
641.017
 20
58.04
 11
640.783
 21
58.4989
  0
LINE
  8
0
 10
640.783
 20
58.4989
 11
640.599
 21
58.9796
  0
LINE
  8
0
 10
640.599
 20
58.9796
 11
640.465
 21
59.4771
  0
LINE
  8
0
 10
640.465
 20
59.4771
 11
640.385
 21
59.9857
  0
LINE
  8
0
 10
640.385
 20
59.9857
 11
640.358
 21
60.5
  0
LINE
  8
0
 10
640.358
 20
60.5
 11
640.385
 21
61.0143
  0
LINE
  8
0
 10
640.385
 20
61.0143
 11
640.465
 21
61.5229
  0
LINE
  8
0
 10
640.465
 20
61.5229
 11
640.599
 21
62.0204
  0
LINE
  8
0
 10
640.599
 20
62.0204
 11
640.783
 21
62.5011
  0
LINE
  8
0
 10
640.783
 20
62.5011
 11
641.017
 21
62.96
  0
LINE
  8
0
 10
641.017
 20
62.96
 11
641.297
 21
63.3919
  0
LINE
  8
0
 10
641.297
 20
63.3919
 11
641.622
 21
63.7921
  0
LINE
  8
0
 10
641.622
 20
63.7921
 11
641.986
 21
64.1563
  0
LINE
  8
0
 10
641.986
 20
64.1563
 11
642.386
 21
64.4804
  0
LINE
  8
0
 10
642.386
 20
64.4804
 11
642.728
 21
64.7024
  0
LINE
  8
0
 10
642.728
 20
64.7024
 11
642.728
 21
74
  0
LINE
  8
0
 10
642.728
 20
74
 11
642.784
 21
74.5302
  0
LINE
  8
0
 10
642.784
 20
74.5302
 11
642.948
 21
75.0372
  0
LINE
  8
0
 10
642.948
 20
75.0372
 11
643.215
 21
75.4988
  0
LINE
  8
0
 10
643.215
 20
75.4988
 11
643.572
 21
75.895
  0
LINE
  8
0
 10
643.572
 20
75.895
 11
644.003
 21
76.2084
  0
LINE
  8
0
 10
644.003
 20
76.2084
 11
644.49
 21
76.4252
  0
LINE
  8
0
 10
644.49
 20
76.4252
 11
645.011
 21
76.536
  0
LINE
  8
0
 10
645.011
 20
76.536
 11
645.544
 21
76.536
  0
LINE
  8
0
 10
645.544
 20
76.536
 11
646.066
 21
76.4252
  0
LINE
  8
0
 10
646.066
 20
76.4252
 11
646.553
 21
76.2084
  0
LINE
  8
0
 10
646.553
 20
76.2084
 11
646.984
 21
75.895
  0
LINE
  8
0
 10
646.984
 20
75.895
 11
647.341
 21
75.4988
  0
LINE
  8
0
 10
647.341
 20
75.4988
 11
647.607
 21
75.0372
  0
LINE
  8
0
 10
647.607
 20
75.0372
 11
647.772
 21
74.5302
  0
LINE
  8
0
 10
647.772
 20
74.5302
 11
647.828
 21
74
  0
LINE
  8
0
 10
647.828
 20
74
 11
647.828
 21
64.7024
  0
LINE
  8
0
 10
647.828
 20
64.7024
 11
648.17
 21
64.4804
  0
LINE
  8
0
 10
648.17
 20
64.4804
 11
648.57
 21
64.1563
  0
LINE
  8
0
 10
648.57
 20
64.1563
 11
648.934
 21
63.7921
  0
LINE
  8
0
 10
648.934
 20
63.7921
 11
649.258
 21
63.3919
  0
LINE
  8
0
 10
649.258
 20
63.3919
 11
649.539
 21
62.96
  0
LINE
  8
0
 10
649.539
 20
62.96
 11
649.772
 21
62.5011
  0
LINE
  8
0
 10
649.772
 20
62.5011
 11
649.957
 21
62.0204
  0
LINE
  8
0
 10
649.957
 20
62.0204
 11
650.09
 21
61.5229
  0
LINE
  8
0
 10
650.09
 20
61.5229
 11
650.171
 21
61.0143
  0
LINE
  8
0
 10
650.171
 20
61.0143
 11
650.198
 21
60.5
  0
LINE
  8
0
 10
650.198
 20
60.5
 11
650.171
 21
59.9857
  0
LINE
  8
0
 10
650.171
 20
59.9857
 11
650.09
 21
59.4771
  0
LINE
  8
0
 10
650.09
 20
59.4771
 11
649.957
 21
58.9796
  0
LINE
  8
0
 10
649.957
 20
58.9796
 11
649.772
 21
58.4989
  0
LINE
  8
0
 10
649.772
 20
58.4989
 11
649.539
 21
58.04
  0
LINE
  8
0
 10
649.539
 20
58.04
 11
649.258
 21
57.6081
  0
LINE
  8
0
 10
649.258
 20
57.6081
 11
648.934
 21
57.2079
  0
LINE
  8
0
 10
648.934
 20
57.2079
 11
648.57
 21
56.8437
  0
LINE
  8
0
 10
648.57
 20
56.8437
 11
648.17
 21
56.5196
  0
LINE
  8
0
 10
648.17
 20
56.5196
 11
647.738
 21
56.2392
  0
LINE
  8
0
 10
647.738
 20
56.2392
 11
647.279
 21
56.0054
  0
LINE
  8
0
 10
647.279
 20
56.0054
 11
646.798
 21
55.8208
  0
LINE
  8
0
 10
646.798
 20
55.8208
 11
646.301
 21
55.6875
  0
LINE
  8
0
 10
646.301
 20
55.6875
 11
645.792
 21
55.607
  0
LINE
  8
0
 10
645.792
 20
55.607
 11
645.278
 21
55.58
  0
LINE
  8
0
 10
645.278
 20
55.58
 11
644.764
 21
55.607
  0
LINE
  8
0
 10
1282.54
 20
55.607
 11
1282.03
 21
55.6875
  0
LINE
  8
0
 10
1282.03
 20
55.6875
 11
1281.54
 21
55.8208
  0
LINE
  8
0
 10
1281.54
 20
55.8208
 11
1281.05
 21
56.0054
  0
LINE
  8
0
 10
1281.05
 20
56.0054
 11
1280.6
 21
56.2392
  0
LINE
  8
0
 10
1280.6
 20
56.2392
 11
1280.16
 21
56.5196
  0
LINE
  8
0
 10
1280.16
 20
56.5196
 11
1279.76
 21
56.8437
  0
LINE
  8
0
 10
1279.76
 20
56.8437
 11
1279.4
 21
57.2079
  0
LINE
  8
0
 10
1279.4
 20
57.2079
 11
1279.08
 21
57.6081
  0
LINE
  8
0
 10
1279.08
 20
57.6081
 11
1278.79
 21
58.04
  0
LINE
  8
0
 10
1278.79
 20
58.04
 11
1278.56
 21
58.4989
  0
LINE
  8
0
 10
1278.56
 20
58.4989
 11
1278.38
 21
58.9796
  0
LINE
  8
0
 10
1278.38
 20
58.9796
 11
1278.24
 21
59.4771
  0
LINE
  8
0
 10
1278.24
 20
59.4771
 11
1278.16
 21
59.9857
  0
LINE
  8
0
 10
1278.16
 20
59.9857
 11
1278.14
 21
60.5
  0
LINE
  8
0
 10
1278.14
 20
60.5
 11
1278.16
 21
61.0143
  0
LINE
  8
0
 10
1278.16
 20
61.0143
 11
1278.24
 21
61.5229
  0
LINE
  8
0
 10
1278.24
 20
61.5229
 11
1278.38
 21
62.0204
  0
LINE
  8
0
 10
1278.38
 20
62.0204
 11
1278.56
 21
62.5011
  0
LINE
  8
0
 10
1278.56
 20
62.5011
 11
1278.79
 21
62.96
  0
LINE
  8
0
 10
1278.79
 20
62.96
 11
1279.08
 21
63.3919
  0
LINE
  8
0
 10
1279.08
 20
63.3919
 11
1279.4
 21
63.7921
  0
LINE
  8
0
 10
1279.4
 20
63.7921
 11
1279.76
 21
64.1563
  0
LINE
  8
0
 10
1279.76
 20
64.1563
 11
1280.16
 21
64.4804
  0
LINE
  8
0
 10
1280.16
 20
64.4804
 11
1280.51
 21
64.7024
  0
LINE
  8
0
 10
1280.51
 20
64.7024
 11
1280.51
 21
74
  0
LINE
  8
0
 10
1280.51
 20
74
 11
1280.56
 21
74.5302
  0
LINE
  8
0
 10
1280.56
 20
74.5302
 11
1280.73
 21
75.0372
  0
LINE
  8
0
 10
1280.73
 20
75.0372
 11
1280.99
 21
75.4988
  0
LINE
  8
0
 10
1280.99
 20
75.4988
 11
1281.35
 21
75.895
  0
LINE
  8
0
 10
1281.35
 20
75.895
 11
1281.78
 21
76.2084
  0
LINE
  8
0
 10
1281.78
 20
76.2084
 11
1282.27
 21
76.4252
  0
LINE
  8
0
 10
1282.27
 20
76.4252
 11
1282.79
 21
76.536
  0
LINE
  8
0
 10
1282.79
 20
76.536
 11
1283.32
 21
76.536
  0
LINE
  8
0
 10
1283.32
 20
76.536
 11
1283.84
 21
76.4252
  0
LINE
  8
0
 10
1283.84
 20
76.4252
 11
1284.33
 21
76.2084
  0
LINE
  8
0
 10
1284.33
 20
76.2084
 11
1284.76
 21
75.895
  0
LINE
  8
0
 10
1284.76
 20
75.895
 11
1285.12
 21
75.4988
  0
LINE
  8
0
 10
1285.12
 20
75.4988
 11
1285.39
 21
75.0372
  0
LINE
  8
0
 10
1285.39
 20
75.0372
 11
1285.55
 21
74.5302
  0
LINE
  8
0
 10
1285.55
 20
74.5302
 11
1285.61
 21
74
  0
LINE
  8
0
 10
1285.61
 20
74
 11
1285.61
 21
64.7024
  0
LINE
  8
0
 10
1285.61
 20
64.7024
 11
1285.95
 21
64.4804
  0
LINE
  8
0
 10
1285.95
 20
64.4804
 11
1286.35
 21
64.1563
  0
LINE
  8
0
 10
1286.35
 20
64.1563
 11
1286.71
 21
63.7921
  0
LINE
  8
0
 10
1286.71
 20
63.7921
 11
1287.04
 21
63.3919
  0
LINE
  8
0
 10
1287.04
 20
63.3919
 11
1287.32
 21
62.96
  0
LINE
  8
0
 10
1287.32
 20
62.96
 11
1287.55
 21
62.5011
  0
LINE
  8
0
 10
1287.55
 20
62.5011
 11
1287.73
 21
62.0204
  0
LINE
  8
0
 10
1287.73
 20
62.0204
 11
1287.87
 21
61.5229
  0
LINE
  8
0
 10
1287.87
 20
61.5229
 11
1287.95
 21
61.0143
  0
LINE
  8
0
 10
1287.95
 20
61.0143
 11
1287.98
 21
60.5
  0
LINE
  8
0
 10
1287.98
 20
60.5
 11
1287.95
 21
59.9857
  0
LINE
  8
0
 10
1287.95
 20
59.9857
 11
1287.87
 21
59.4771
  0
LINE
  8
0
 10
1287.87
 20
59.4771
 11
1287.73
 21
58.9796
  0
LINE
  8
0
 10
1287.73
 20
58.9796
 11
1287.55
 21
58.4989
  0
LINE
  8
0
 10
1287.55
 20
58.4989
 11
1287.32
 21
58.04
  0
LINE
  8
0
 10
1287.32
 20
58.04
 11
1287.04
 21
57.6081
  0
LINE
  8
0
 10
1287.04
 20
57.6081
 11
1286.71
 21
57.2079
  0
LINE
  8
0
 10
1286.71
 20
57.2079
 11
1286.35
 21
56.8437
  0
LINE
  8
0
 10
1286.35
 20
56.8437
 11
1285.95
 21
56.5196
  0
LINE
  8
0
 10
1285.95
 20
56.5196
 11
1285.52
 21
56.2392
  0
LINE
  8
0
 10
1285.52
 20
56.2392
 11
1285.06
 21
56.0054
  0
LINE
  8
0
 10
1285.06
 20
56.0054
 11
1284.58
 21
55.8208
  0
LINE
  8
0
 10
1284.58
 20
55.8208
 11
1284.08
 21
55.6875
  0
LINE
  8
0
 10
1284.08
 20
55.6875
 11
1283.57
 21
55.607
  0
LINE
  8
0
 10
1283.57
 20
55.607
 11
1283.06
 21
55.58
  0
LINE
  8
0
 10
1283.06
 20
55.58
 11
1282.54
 21
55.607
  0
LINE
  8
0
 10
485.319
 20
55.607
 11
484.81
 21
55.6875
  0
LINE
  8
0
 10
484.81
 20
55.6875
 11
484.313
 21
55.8208
  0
LINE
  8
0
 10
484.313
 20
55.8208
 11
483.832
 21
56.0054
  0
LINE
  8
0
 10
483.832
 20
56.0054
 11
483.373
 21
56.2392
  0
LINE
  8
0
 10
483.373
 20
56.2392
 11
482.941
 21
56.5196
  0
LINE
  8
0
 10
482.941
 20
56.5196
 11
482.541
 21
56.8437
  0
LINE
  8
0
 10
482.541
 20
56.8437
 11
482.177
 21
57.2079
  0
LINE
  8
0
 10
482.177
 20
57.2079
 11
481.853
 21
57.6081
  0
LINE
  8
0
 10
481.853
 20
57.6081
 11
481.572
 21
58.04
  0
LINE
  8
0
 10
481.572
 20
58.04
 11
481.339
 21
58.4989
  0
LINE
  8
0
 10
481.339
 20
58.4989
 11
481.154
 21
58.9796
  0
LINE
  8
0
 10
481.154
 20
58.9796
 11
481.021
 21
59.4771
  0
LINE
  8
0
 10
481.021
 20
59.4771
 11
480.94
 21
59.9857
  0
LINE
  8
0
 10
480.94
 20
59.9857
 11
480.913
 21
60.5
  0
LINE
  8
0
 10
480.913
 20
60.5
 11
480.94
 21
61.0143
  0
LINE
  8
0
 10
480.94
 20
61.0143
 11
481.021
 21
61.5229
  0
LINE
  8
0
 10
481.021
 20
61.5229
 11
481.154
 21
62.0204
  0
LINE
  8
0
 10
481.154
 20
62.0204
 11
481.339
 21
62.5011
  0
LINE
  8
0
 10
481.339
 20
62.5011
 11
481.572
 21
62.96
  0
LINE
  8
0
 10
481.572
 20
62.96
 11
481.853
 21
63.3919
  0
LINE
  8
0
 10
481.853
 20
63.3919
 11
482.177
 21
63.7921
  0
LINE
  8
0
 10
482.177
 20
63.7921
 11
482.541
 21
64.1563
  0
LINE
  8
0
 10
482.541
 20
64.1563
 11
482.941
 21
64.4804
  0
LINE
  8
0
 10
482.941
 20
64.4804
 11
483.283
 21
64.7024
  0
LINE
  8
0
 10
483.283
 20
64.7024
 11
483.283
 21
74
  0
LINE
  8
0
 10
483.283
 20
74
 11
483.339
 21
74.5302
  0
LINE
  8
0
 10
483.339
 20
74.5302
 11
483.504
 21
75.0372
  0
LINE
  8
0
 10
483.504
 20
75.0372
 11
483.77
 21
75.4988
  0
LINE
  8
0
 10
483.77
 20
75.4988
 11
484.127
 21
75.895
  0
LINE
  8
0
 10
484.127
 20
75.895
 11
484.558
 21
76.2084
  0
LINE
  8
0
 10
484.558
 20
76.2084
 11
485.045
 21
76.4252
  0
LINE
  8
0
 10
485.045
 20
76.4252
 11
485.567
 21
76.536
  0
LINE
  8
0
 10
485.567
 20
76.536
 11
486.1
 21
76.536
  0
LINE
  8
0
 10
486.1
 20
76.536
 11
486.621
 21
76.4252
  0
LINE
  8
0
 10
486.621
 20
76.4252
 11
487.108
 21
76.2084
  0
LINE
  8
0
 10
487.108
 20
76.2084
 11
487.54
 21
75.895
  0
LINE
  8
0
 10
487.54
 20
75.895
 11
487.896
 21
75.4988
  0
LINE
  8
0
 10
487.896
 20
75.4988
 11
488.163
 21
75.0372
  0
LINE
  8
0
 10
488.163
 20
75.0372
 11
488.328
 21
74.5302
  0
LINE
  8
0
 10
488.328
 20
74.5302
 11
488.383
 21
74
  0
LINE
  8
0
 10
488.383
 20
74
 11
488.383
 21
64.7024
  0
LINE
  8
0
 10
488.383
 20
64.7024
 11
488.725
 21
64.4804
  0
LINE
  8
0
 10
488.725
 20
64.4804
 11
489.125
 21
64.1563
  0
LINE
  8
0
 10
489.125
 20
64.1563
 11
489.49
 21
63.7921
  0
LINE
  8
0
 10
489.49
 20
63.7921
 11
489.814
 21
63.3919
  0
LINE
  8
0
 10
489.814
 20
63.3919
 11
490.094
 21
62.96
  0
LINE
  8
0
 10
490.094
 20
62.96
 11
490.328
 21
62.5011
  0
LINE
  8
0
 10
490.328
 20
62.5011
 11
490.513
 21
62.0204
  0
LINE
  8
0
 10
490.513
 20
62.0204
 11
490.646
 21
61.5229
  0
LINE
  8
0
 10
490.646
 20
61.5229
 11
490.726
 21
61.0143
  0
LINE
  8
0
 10
490.726
 20
61.0143
 11
490.753
 21
60.5
  0
LINE
  8
0
 10
490.753
 20
60.5
 11
490.726
 21
59.9857
  0
LINE
  8
0
 10
490.726
 20
59.9857
 11
490.646
 21
59.4771
  0
LINE
  8
0
 10
490.646
 20
59.4771
 11
490.513
 21
58.9796
  0
LINE
  8
0
 10
490.513
 20
58.9796
 11
490.328
 21
58.4989
  0
LINE
  8
0
 10
490.328
 20
58.4989
 11
490.094
 21
58.04
  0
LINE
  8
0
 10
490.094
 20
58.04
 11
489.814
 21
57.6081
  0
LINE
  8
0
 10
489.814
 20
57.6081
 11
489.49
 21
57.2079
  0
LINE
  8
0
 10
489.49
 20
57.2079
 11
489.125
 21
56.8437
  0
LINE
  8
0
 10
489.125
 20
56.8437
 11
488.725
 21
56.5196
  0
LINE
  8
0
 10
488.725
 20
56.5196
 11
488.293
 21
56.2392
  0
LINE
  8
0
 10
488.293
 20
56.2392
 11
487.834
 21
56.0054
  0
LINE
  8
0
 10
487.834
 20
56.0054
 11
487.354
 21
55.8208
  0
LINE
  8
0
 10
487.354
 20
55.8208
 11
486.856
 21
55.6875
  0
LINE
  8
0
 10
486.856
 20
55.6875
 11
486.348
 21
55.607
  0
LINE
  8
0
 10
486.348
 20
55.607
 11
485.833
 21
55.58
  0
LINE
  8
0
 10
485.833
 20
55.58
 11
485.319
 21
55.607
  0
LINE
  8
0
 10
325.875
 20
55.607
 11
325.366
 21
55.6875
  0
LINE
  8
0
 10
325.366
 20
55.6875
 11
324.869
 21
55.8208
  0
LINE
  8
0
 10
324.869
 20
55.8208
 11
324.388
 21
56.0054
  0
LINE
  8
0
 10
324.388
 20
56.0054
 11
323.929
 21
56.2392
  0
LINE
  8
0
 10
323.929
 20
56.2392
 11
323.497
 21
56.5196
  0
LINE
  8
0
 10
323.497
 20
56.5196
 11
323.097
 21
56.8437
  0
LINE
  8
0
 10
323.097
 20
56.8437
 11
322.733
 21
57.2079
  0
LINE
  8
0
 10
322.733
 20
57.2079
 11
322.409
 21
57.6081
  0
LINE
  8
0
 10
322.409
 20
57.6081
 11
322.128
 21
58.04
  0
LINE
  8
0
 10
322.128
 20
58.04
 11
321.894
 21
58.4989
  0
LINE
  8
0
 10
321.894
 20
58.4989
 11
321.71
 21
58.9796
  0
LINE
  8
0
 10
321.71
 20
58.9796
 11
321.576
 21
59.4771
  0
LINE
  8
0
 10
321.576
 20
59.4771
 11
321.496
 21
59.9857
  0
LINE
  8
0
 10
321.496
 20
59.9857
 11
321.469
 21
60.5
  0
LINE
  8
0
 10
321.469
 20
60.5
 11
321.496
 21
61.0143
  0
LINE
  8
0
 10
321.496
 20
61.0143
 11
321.576
 21
61.5229
  0
LINE
  8
0
 10
321.576
 20
61.5229
 11
321.71
 21
62.0204
  0
LINE
  8
0
 10
321.71
 20
62.0204
 11
321.894
 21
62.5011
  0
LINE
  8
0
 10
321.894
 20
62.5011
 11
322.128
 21
62.96
  0
LINE
  8
0
 10
322.128
 20
62.96
 11
322.409
 21
63.3919
  0
LINE
  8
0
 10
322.409
 20
63.3919
 11
322.733
 21
63.7921
  0
LINE
  8
0
 10
322.733
 20
63.7921
 11
323.097
 21
64.1563
  0
LINE
  8
0
 10
323.097
 20
64.1563
 11
323.497
 21
64.4804
  0
LINE
  8
0
 10
323.497
 20
64.4804
 11
323.839
 21
64.7024
  0
LINE
  8
0
 10
323.839
 20
64.7024
 11
323.839
 21
74
  0
LINE
  8
0
 10
323.839
 20
74
 11
323.895
 21
74.5302
  0
LINE
  8
0
 10
323.895
 20
74.5302
 11
324.059
 21
75.0372
  0
LINE
  8
0
 10
324.059
 20
75.0372
 11
324.326
 21
75.4988
  0
LINE
  8
0
 10
324.326
 20
75.4988
 11
324.683
 21
75.895
  0
LINE
  8
0
 10
324.683
 20
75.895
 11
325.114
 21
76.2084
  0
LINE
  8
0
 10
325.114
 20
76.2084
 11
325.601
 21
76.4252
  0
LINE
  8
0
 10
325.601
 20
76.4252
 11
326.122
 21
76.536
  0
LINE
  8
0
 10
326.122
 20
76.536
 11
326.655
 21
76.536
  0
LINE
  8
0
 10
326.655
 20
76.536
 11
327.177
 21
76.4252
  0
LINE
  8
0
 10
327.177
 20
76.4252
 11
327.664
 21
76.2084
  0
LINE
  8
0
 10
327.664
 20
76.2084
 11
328.095
 21
75.895
  0
LINE
  8
0
 10
328.095
 20
75.895
 11
328.452
 21
75.4988
  0
LINE
  8
0
 10
328.452
 20
75.4988
 11
328.718
 21
75.0372
  0
LINE
  8
0
 10
328.718
 20
75.0372
 11
328.883
 21
74.5302
  0
LINE
  8
0
 10
328.883
 20
74.5302
 11
328.939
 21
74
  0
LINE
  8
0
 10
328.939
 20
74
 11
328.939
 21
64.7024
  0
LINE
  8
0
 10
328.939
 20
64.7024
 11
329.281
 21
64.4804
  0
LINE
  8
0
 10
329.281
 20
64.4804
 11
329.681
 21
64.1563
  0
LINE
  8
0
 10
329.681
 20
64.1563
 11
330.045
 21
63.7921
  0
LINE
  8
0
 10
330.045
 20
63.7921
 11
330.369
 21
63.3919
  0
LINE
  8
0
 10
330.369
 20
63.3919
 11
330.65
 21
62.96
  0
LINE
  8
0
 10
330.65
 20
62.96
 11
330.884
 21
62.5011
  0
LINE
  8
0
 10
330.884
 20
62.5011
 11
331.068
 21
62.0204
  0
LINE
  8
0
 10
331.068
 20
62.0204
 11
331.201
 21
61.5229
  0
LINE
  8
0
 10
331.201
 20
61.5229
 11
331.282
 21
61.0143
  0
LINE
  8
0
 10
331.282
 20
61.0143
 11
331.309
 21
60.5
  0
LINE
  8
0
 10
331.309
 20
60.5
 11
331.282
 21
59.9857
  0
LINE
  8
0
 10
331.282
 20
59.9857
 11
331.201
 21
59.4771
  0
LINE
  8
0
 10
331.201
 20
59.4771
 11
331.068
 21
58.9796
  0
LINE
  8
0
 10
331.068
 20
58.9796
 11
330.884
 21
58.4989
  0
LINE
  8
0
 10
330.884
 20
58.4989
 11
330.65
 21
58.04
  0
LINE
  8
0
 10
330.65
 20
58.04
 11
330.369
 21
57.6081
  0
LINE
  8
0
 10
330.369
 20
57.6081
 11
330.045
 21
57.2079
  0
LINE
  8
0
 10
330.045
 20
57.2079
 11
329.681
 21
56.8437
  0
LINE
  8
0
 10
329.681
 20
56.8437
 11
329.281
 21
56.5196
  0
LINE
  8
0
 10
329.281
 20
56.5196
 11
328.849
 21
56.2392
  0
LINE
  8
0
 10
328.849
 20
56.2392
 11
328.39
 21
56.0054
  0
LINE
  8
0
 10
328.39
 20
56.0054
 11
327.909
 21
55.8208
  0
LINE
  8
0
 10
327.909
 20
55.8208
 11
327.412
 21
55.6875
  0
LINE
  8
0
 10
327.412
 20
55.6875
 11
326.903
 21
55.607
  0
LINE
  8
0
 10
326.903
 20
55.607
 11
326.389
 21
55.58
  0
LINE
  8
0
 10
326.389
 20
55.58
 11
325.875
 21
55.607
  0
LINE
  8
0
 10
1441.99
 20
55.607
 11
1441.48
 21
55.6875
  0
LINE
  8
0
 10
1441.48
 20
55.6875
 11
1440.98
 21
55.8208
  0
LINE
  8
0
 10
1440.98
 20
55.8208
 11
1440.5
 21
56.0054
  0
LINE
  8
0
 10
1440.5
 20
56.0054
 11
1440.04
 21
56.2392
  0
LINE
  8
0
 10
1440.04
 20
56.2392
 11
1439.61
 21
56.5196
  0
LINE
  8
0
 10
1439.61
 20
56.5196
 11
1439.21
 21
56.8437
  0
LINE
  8
0
 10
1439.21
 20
56.8437
 11
1438.84
 21
57.2079
  0
LINE
  8
0
 10
1438.84
 20
57.2079
 11
1438.52
 21
57.6081
  0
LINE
  8
0
 10
1438.52
 20
57.6081
 11
1438.24
 21
58.04
  0
LINE
  8
0
 10
1438.24
 20
58.04
 11
1438.01
 21
58.4989
  0
LINE
  8
0
 10
1438.01
 20
58.4989
 11
1437.82
 21
58.9796
  0
LINE
  8
0
 10
1437.82
 20
58.9796
 11
1437.69
 21
59.4771
  0
LINE
  8
0
 10
1437.69
 20
59.4771
 11
1437.61
 21
59.9857
  0
LINE
  8
0
 10
1437.61
 20
59.9857
 11
1437.58
 21
60.5
  0
LINE
  8
0
 10
1437.58
 20
60.5
 11
1437.61
 21
61.0143
  0
LINE
  8
0
 10
1437.61
 20
61.0143
 11
1437.69
 21
61.5229
  0
LINE
  8
0
 10
1437.69
 20
61.5229
 11
1437.82
 21
62.0204
  0
LINE
  8
0
 10
1437.82
 20
62.0204
 11
1438.01
 21
62.5011
  0
LINE
  8
0
 10
1438.01
 20
62.5011
 11
1438.24
 21
62.96
  0
LINE
  8
0
 10
1438.24
 20
62.96
 11
1438.52
 21
63.3919
  0
LINE
  8
0
 10
1438.52
 20
63.3919
 11
1438.84
 21
63.7921
  0
LINE
  8
0
 10
1438.84
 20
63.7921
 11
1439.21
 21
64.1563
  0
LINE
  8
0
 10
1439.21
 20
64.1563
 11
1439.61
 21
64.4804
  0
LINE
  8
0
 10
1439.61
 20
64.4804
 11
1439.95
 21
64.7024
  0
LINE
  8
0
 10
1439.95
 20
64.7024
 11
1439.95
 21
74
  0
LINE
  8
0
 10
1439.95
 20
74
 11
1440.01
 21
74.5302
  0
LINE
  8
0
 10
1440.01
 20
74.5302
 11
1440.17
 21
75.0372
  0
LINE
  8
0
 10
1440.17
 20
75.0372
 11
1440.44
 21
75.4988
  0
LINE
  8
0
 10
1440.44
 20
75.4988
 11
1440.79
 21
75.895
  0
LINE
  8
0
 10
1440.79
 20
75.895
 11
1441.23
 21
76.2084
  0
LINE
  8
0
 10
1441.23
 20
76.2084
 11
1441.71
 21
76.4252
  0
LINE
  8
0
 10
1441.71
 20
76.4252
 11
1442.23
 21
76.536
  0
LINE
  8
0
 10
1442.23
 20
76.536
 11
1442.77
 21
76.536
  0
LINE
  8
0
 10
1442.77
 20
76.536
 11
1443.29
 21
76.4252
  0
LINE
  8
0
 10
1443.29
 20
76.4252
 11
1443.77
 21
76.2084
  0
LINE
  8
0
 10
1443.77
 20
76.2084
 11
1444.21
 21
75.895
  0
LINE
  8
0
 10
1444.21
 20
75.895
 11
1444.56
 21
75.4988
  0
LINE
  8
0
 10
1444.56
 20
75.4988
 11
1444.83
 21
75.0372
  0
LINE
  8
0
 10
1444.83
 20
75.0372
 11
1444.99
 21
74.5302
  0
LINE
  8
0
 10
1444.99
 20
74.5302
 11
1445.05
 21
74
  0
LINE
  8
0
 10
1445.05
 20
74
 11
1445.05
 21
64.7024
  0
LINE
  8
0
 10
1445.05
 20
64.7024
 11
1445.39
 21
64.4804
  0
LINE
  8
0
 10
1445.39
 20
64.4804
 11
1445.79
 21
64.1563
  0
LINE
  8
0
 10
1445.79
 20
64.1563
 11
1446.16
 21
63.7921
  0
LINE
  8
0
 10
1446.16
 20
63.7921
 11
1446.48
 21
63.3919
  0
LINE
  8
0
 10
1446.48
 20
63.3919
 11
1446.76
 21
62.96
  0
LINE
  8
0
 10
1446.76
 20
62.96
 11
1446.99
 21
62.5011
  0
LINE
  8
0
 10
1446.99
 20
62.5011
 11
1447.18
 21
62.0204
  0
LINE
  8
0
 10
1447.18
 20
62.0204
 11
1447.31
 21
61.5229
  0
LINE
  8
0
 10
1447.31
 20
61.5229
 11
1447.39
 21
61.0143
  0
LINE
  8
0
 10
1447.39
 20
61.0143
 11
1447.42
 21
60.5
  0
LINE
  8
0
 10
1447.42
 20
60.5
 11
1447.39
 21
59.9857
  0
LINE
  8
0
 10
1447.39
 20
59.9857
 11
1447.31
 21
59.4771
  0
LINE
  8
0
 10
1447.31
 20
59.4771
 11
1447.18
 21
58.9796
  0
LINE
  8
0
 10
1447.18
 20
58.9796
 11
1446.99
 21
58.4989
  0
LINE
  8
0
 10
1446.99
 20
58.4989
 11
1446.76
 21
58.04
  0
LINE
  8
0
 10
1446.76
 20
58.04
 11
1446.48
 21
57.6081
  0
LINE
  8
0
 10
1446.48
 20
57.6081
 11
1446.16
 21
57.2079
  0
LINE
  8
0
 10
1446.16
 20
57.2079
 11
1445.79
 21
56.8437
  0
LINE
  8
0
 10
1445.79
 20
56.8437
 11
1445.39
 21
56.5196
  0
LINE
  8
0
 10
1445.39
 20
56.5196
 11
1444.96
 21
56.2392
  0
LINE
  8
0
 10
1444.96
 20
56.2392
 11
1444.5
 21
56.0054
  0
LINE
  8
0
 10
1444.5
 20
56.0054
 11
1444.02
 21
55.8208
  0
LINE
  8
0
 10
1444.02
 20
55.8208
 11
1443.52
 21
55.6875
  0
LINE
  8
0
 10
1443.52
 20
55.6875
 11
1443.01
 21
55.607
  0
LINE
  8
0
 10
1443.01
 20
55.607
 11
1442.5
 21
55.58
  0
LINE
  8
0
 10
1442.5
 20
55.58
 11
1441.99
 21
55.607
  0
LINE
  8
0
 10
166.43
 20
55.607
 11
165.922
 21
55.6875
  0
LINE
  8
0
 10
165.922
 20
55.6875
 11
165.424
 21
55.8208
  0
LINE
  8
0
 10
165.424
 20
55.8208
 11
164.943
 21
56.0054
  0
LINE
  8
0
 10
164.943
 20
56.0054
 11
164.484
 21
56.2392
  0
LINE
  8
0
 10
164.484
 20
56.2392
 11
164.053
 21
56.5196
  0
LINE
  8
0
 10
164.053
 20
56.5196
 11
163.652
 21
56.8437
  0
LINE
  8
0
 10
163.652
 20
56.8437
 11
163.288
 21
57.2079
  0
LINE
  8
0
 10
163.288
 20
57.2079
 11
162.964
 21
57.6081
  0
LINE
  8
0
 10
162.964
 20
57.6081
 11
162.684
 21
58.04
  0
LINE
  8
0
 10
162.684
 20
58.04
 11
162.45
 21
58.4989
  0
LINE
  8
0
 10
162.45
 20
58.4989
 11
162.265
 21
58.9796
  0
LINE
  8
0
 10
162.265
 20
58.9796
 11
162.132
 21
59.4771
  0
LINE
  8
0
 10
162.132
 20
59.4771
 11
162.051
 21
59.9857
  0
LINE
  8
0
 10
162.051
 20
59.9857
 11
162.024
 21
60.5
  0
LINE
  8
0
 10
162.024
 20
60.5
 11
162.051
 21
61.0143
  0
LINE
  8
0
 10
162.051
 20
61.0143
 11
162.132
 21
61.5229
  0
LINE
  8
0
 10
162.132
 20
61.5229
 11
162.265
 21
62.0204
  0
LINE
  8
0
 10
162.265
 20
62.0204
 11
162.45
 21
62.5011
  0
LINE
  8
0
 10
162.45
 20
62.5011
 11
162.684
 21
62.96
  0
LINE
  8
0
 10
162.684
 20
62.96
 11
162.964
 21
63.3919
  0
LINE
  8
0
 10
162.964
 20
63.3919
 11
163.288
 21
63.7921
  0
LINE
  8
0
 10
163.288
 20
63.7921
 11
163.652
 21
64.1563
  0
LINE
  8
0
 10
163.652
 20
64.1563
 11
164.053
 21
64.4804
  0
LINE
  8
0
 10
164.053
 20
64.4804
 11
164.394
 21
64.7024
  0
LINE
  8
0
 10
164.394
 20
64.7024
 11
164.394
 21
74
  0
LINE
  8
0
 10
164.394
 20
74
 11
164.45
 21
74.5302
  0
LINE
  8
0
 10
164.45
 20
74.5302
 11
164.615
 21
75.0372
  0
LINE
  8
0
 10
164.615
 20
75.0372
 11
164.881
 21
75.4988
  0
LINE
  8
0
 10
164.881
 20
75.4988
 11
165.238
 21
75.895
  0
LINE
  8
0
 10
165.238
 20
75.895
 11
165.669
 21
76.2084
  0
LINE
  8
0
 10
165.669
 20
76.2084
 11
166.156
 21
76.4252
  0
LINE
  8
0
 10
166.156
 20
76.4252
 11
166.678
 21
76.536
  0
LINE
  8
0
 10
166.678
 20
76.536
 11
167.211
 21
76.536
  0
LINE
  8
0
 10
167.211
 20
76.536
 11
167.732
 21
76.4252
  0
LINE
  8
0
 10
167.732
 20
76.4252
 11
168.219
 21
76.2084
  0
LINE
  8
0
 10
168.219
 20
76.2084
 11
168.651
 21
75.895
  0
LINE
  8
0
 10
168.651
 20
75.895
 11
169.007
 21
75.4988
  0
LINE
  8
0
 10
169.007
 20
75.4988
 11
169.274
 21
75.0372
  0
LINE
  8
0
 10
169.274
 20
75.0372
 11
169.439
 21
74.5302
  0
LINE
  8
0
 10
169.439
 20
74.5302
 11
169.494
 21
74
  0
LINE
  8
0
 10
169.494
 20
74
 11
169.494
 21
64.7024
  0
LINE
  8
0
 10
169.494
 20
64.7024
 11
169.836
 21
64.4804
  0
LINE
  8
0
 10
169.836
 20
64.4804
 11
170.237
 21
64.1563
  0
LINE
  8
0
 10
170.237
 20
64.1563
 11
170.601
 21
63.7921
  0
LINE
  8
0
 10
170.601
 20
63.7921
 11
170.925
 21
63.3919
  0
LINE
  8
0
 10
170.925
 20
63.3919
 11
171.205
 21
62.96
  0
LINE
  8
0
 10
171.205
 20
62.96
 11
171.439
 21
62.5011
  0
LINE
  8
0
 10
171.439
 20
62.5011
 11
171.624
 21
62.0204
  0
LINE
  8
0
 10
171.624
 20
62.0204
 11
171.757
 21
61.5229
  0
LINE
  8
0
 10
171.757
 20
61.5229
 11
171.837
 21
61.0143
  0
LINE
  8
0
 10
171.837
 20
61.0143
 11
171.864
 21
60.5
  0
LINE
  8
0
 10
171.864
 20
60.5
 11
171.837
 21
59.9857
  0
LINE
  8
0
 10
171.837
 20
59.9857
 11
171.757
 21
59.4771
  0
LINE
  8
0
 10
171.757
 20
59.4771
 11
171.624
 21
58.9796
  0
LINE
  8
0
 10
171.624
 20
58.9796
 11
171.439
 21
58.4989
  0
LINE
  8
0
 10
171.439
 20
58.4989
 11
171.205
 21
58.04
  0
LINE
  8
0
 10
171.205
 20
58.04
 11
170.925
 21
57.6081
  0
LINE
  8
0
 10
170.925
 20
57.6081
 11
170.601
 21
57.2079
  0
LINE
  8
0
 10
170.601
 20
57.2079
 11
170.237
 21
56.8437
  0
LINE
  8
0
 10
170.237
 20
56.8437
 11
169.836
 21
56.5196
  0
LINE
  8
0
 10
169.836
 20
56.5196
 11
169.404
 21
56.2392
  0
LINE
  8
0
 10
169.404
 20
56.2392
 11
168.946
 21
56.0054
  0
LINE
  8
0
 10
168.946
 20
56.0054
 11
168.465
 21
55.8208
  0
LINE
  8
0
 10
168.465
 20
55.8208
 11
167.967
 21
55.6875
  0
LINE
  8
0
 10
167.967
 20
55.6875
 11
167.459
 21
55.607
  0
LINE
  8
0
 10
167.459
 20
55.607
 11
166.944
 21
55.58
  0
LINE
  8
0
 10
166.944
 20
55.58
 11
166.43
 21
55.607
  0
LINE
  8
0
 10
976.273
 20
21.7764
 11
975.482
 21
22.0473
  0
LINE
  8
0
 10
975.482
 20
22.0473
 11
974.765
 21
22.4768
  0
LINE
  8
0
 10
974.765
 20
22.4768
 11
974.152
 21
23.046
  0
LINE
  8
0
 10
974.152
 20
23.046
 11
973.671
 21
23.7302
  0
LINE
  8
0
 10
973.671
 20
23.7302
 11
973.343
 21
24.4994
  0
LINE
  8
0
 10
973.343
 20
24.4994
 11
973.167
 21
25.6754
  0
LINE
  8
0
 10
973.167
 20
25.6754
 11
973.167
 21
58
  0
LINE
  8
0
 10
973.167
 20
58
 11
973.254
 21
58.8316
  0
LINE
  8
0
 10
973.254
 20
58.8316
 11
973.512
 21
59.627
  0
LINE
  8
0
 10
973.512
 20
59.627
 11
973.931
 21
60.3511
  0
LINE
  8
0
 10
973.931
 20
60.3511
 11
974.49
 21
60.9726
  0
LINE
  8
0
 10
974.49
 20
60.9726
 11
975.167
 21
61.4641
  0
LINE
  8
0
 10
975.167
 20
61.4641
 11
975.931
 21
61.8042
  0
LINE
  8
0
 10
975.931
 20
61.8042
 11
977.167
 21
62
  0
LINE
  8
0
 10
977.167
 20
62
 11
1052.96
 21
62
  0
LINE
  8
0
 10
1052.96
 20
62
 11
1053.79
 21
61.9126
  0
LINE
  8
0
 10
1053.79
 20
61.9126
 11
1054.59
 21
61.6542
  0
LINE
  8
0
 10
1054.59
 20
61.6542
 11
1055.31
 21
61.2361
  0
LINE
  8
0
 10
1055.31
 20
61.2361
 11
1055.93
 21
60.6765
  0
LINE
  8
0
 10
1055.93
 20
60.6765
 11
1056.42
 21
60
  0
LINE
  8
0
 10
1056.42
 20
60
 11
1056.76
 21
59.2361
  0
LINE
  8
0
 10
1056.76
 20
59.2361
 11
1056.94
 21
58.4181
  0
LINE
  8
0
 10
1056.94
 20
58.4181
 11
1056.94
 21
57.5819
  0
LINE
  8
0
 10
1056.94
 20
57.5819
 11
1056.76
 21
56.7639
  0
LINE
  8
0
 10
1056.76
 20
56.7639
 11
1056.42
 21
56
  0
LINE
  8
0
 10
1056.42
 20
56
 11
1055.93
 21
55.3235
  0
LINE
  8
0
 10
1055.93
 20
55.3235
 11
1055.31
 21
54.7639
  0
LINE
  8
0
 10
1055.31
 20
54.7639
 11
1054.53
 21
54.3206
  0
LINE
  8
0
 10
1054.53
 20
54.3206
 11
978.736
 21
21.996
  0
LINE
  8
0
 10
978.736
 20
21.996
 11
977.937
 21
21.7502
  0
LINE
  8
0
 10
977.937
 20
21.7502
 11
977.104
 21
21.6759
  0
LINE
  8
0
 10
977.104
 20
21.6759
 11
976.273
 21
21.7764
  0
LINE
  8
0
 10
816.829
 20
21.7764
 11
816.038
 21
22.0473
  0
LINE
  8
0
 10
816.038
 20
22.0473
 11
815.32
 21
22.4768
  0
LINE
  8
0
 10
815.32
 20
22.4768
 11
814.708
 21
23.046
  0
LINE
  8
0
 10
814.708
 20
23.046
 11
814.227
 21
23.7302
  0
LINE
  8
0
 10
814.227
 20
23.7302
 11
813.899
 21
24.4994
  0
LINE
  8
0
 10
813.899
 20
24.4994
 11
813.722
 21
25.6754
  0
LINE
  8
0
 10
813.722
 20
25.6754
 11
813.722
 21
58
  0
LINE
  8
0
 10
813.722
 20
58
 11
813.81
 21
58.8316
  0
LINE
  8
0
 10
813.81
 20
58.8316
 11
814.068
 21
59.627
  0
LINE
  8
0
 10
814.068
 20
59.627
 11
814.486
 21
60.3511
  0
LINE
  8
0
 10
814.486
 20
60.3511
 11
815.046
 21
60.9726
  0
LINE
  8
0
 10
815.046
 20
60.9726
 11
815.722
 21
61.4641
  0
LINE
  8
0
 10
815.722
 20
61.4641
 11
816.486
 21
61.8042
  0
LINE
  8
0
 10
816.486
 20
61.8042
 11
817.722
 21
62
  0
LINE
  8
0
 10
817.722
 20
62
 11
893.516
 21
62
  0
LINE
  8
0
 10
893.516
 20
62
 11
894.348
 21
61.9126
  0
LINE
  8
0
 10
894.348
 20
61.9126
 11
895.143
 21
61.6542
  0
LINE
  8
0
 10
895.143
 20
61.6542
 11
895.867
 21
61.2361
  0
LINE
  8
0
 10
895.867
 20
61.2361
 11
896.489
 21
60.6765
  0
LINE
  8
0
 10
896.489
 20
60.6765
 11
896.98
 21
60
  0
LINE
  8
0
 10
896.98
 20
60
 11
897.32
 21
59.2361
  0
LINE
  8
0
 10
897.32
 20
59.2361
 11
897.494
 21
58.4181
  0
LINE
  8
0
 10
897.494
 20
58.4181
 11
897.494
 21
57.5819
  0
LINE
  8
0
 10
897.494
 20
57.5819
 11
897.32
 21
56.7639
  0
LINE
  8
0
 10
897.32
 20
56.7639
 11
896.98
 21
56
  0
LINE
  8
0
 10
896.98
 20
56
 11
896.489
 21
55.3235
  0
LINE
  8
0
 10
896.489
 20
55.3235
 11
895.867
 21
54.7639
  0
LINE
  8
0
 10
895.867
 20
54.7639
 11
895.085
 21
54.3206
  0
LINE
  8
0
 10
895.085
 20
54.3206
 11
819.291
 21
21.996
  0
LINE
  8
0
 10
819.291
 20
21.996
 11
818.492
 21
21.7502
  0
LINE
  8
0
 10
818.492
 20
21.7502
 11
817.659
 21
21.6759
  0
LINE
  8
0
 10
817.659
 20
21.6759
 11
816.829
 21
21.7764
  0
LINE
  8
0
 10
724.23
 20
48.0319
 11
723.431
 21
48.2778
  0
LINE
  8
0
 10
723.431
 20
48.2778
 11
709.262
 21
54.3206
  0
LINE
  8
0
 10
709.262
 20
54.3206
 11
708.48
 21
54.7639
  0
LINE
  8
0
 10
708.48
 20
54.7639
 11
707.858
 21
55.3235
  0
LINE
  8
0
 10
707.858
 20
55.3235
 11
707.367
 21
56
  0
LINE
  8
0
 10
707.367
 20
56
 11
707.027
 21
56.7639
  0
LINE
  8
0
 10
707.027
 20
56.7639
 11
706.853
 21
57.5819
  0
LINE
  8
0
 10
706.853
 20
57.5819
 11
706.853
 21
58.4181
  0
LINE
  8
0
 10
706.853
 20
58.4181
 11
707.027
 21
59.2361
  0
LINE
  8
0
 10
707.027
 20
59.2361
 11
707.367
 21
60
  0
LINE
  8
0
 10
707.367
 20
60
 11
707.858
 21
60.6765
  0
LINE
  8
0
 10
707.858
 20
60.6765
 11
708.48
 21
61.2361
  0
LINE
  8
0
 10
708.48
 20
61.2361
 11
709.204
 21
61.6542
  0
LINE
  8
0
 10
709.204
 20
61.6542
 11
709.999
 21
61.9126
  0
LINE
  8
0
 10
709.999
 20
61.9126
 11
710.831
 21
62
  0
LINE
  8
0
 10
710.831
 20
62
 11
739.169
 21
62
  0
LINE
  8
0
 10
739.169
 20
62
 11
740.062
 21
61.899
  0
LINE
  8
0
 10
740.062
 20
61.899
 11
740.853
 21
61.6281
  0
LINE
  8
0
 10
740.853
 20
61.6281
 11
741.571
 21
61.1986
  0
LINE
  8
0
 10
741.571
 20
61.1986
 11
742.184
 21
60.6294
  0
LINE
  8
0
 10
742.184
 20
60.6294
 11
742.664
 21
59.9452
  0
LINE
  8
0
 10
742.664
 20
59.9452
 11
742.992
 21
59.176
  0
LINE
  8
0
 10
742.992
 20
59.176
 11
743.153
 21
58.3554
  0
LINE
  8
0
 10
743.153
 20
58.3554
 11
743.14
 21
57.5193
  0
LINE
  8
0
 10
743.14
 20
57.5193
 11
742.953
 21
56.7041
  0
LINE
  8
0
 10
742.953
 20
56.7041
 11
742.601
 21
55.9457
  0
LINE
  8
0
 10
742.601
 20
55.9457
 11
742.099
 21
55.277
  0
LINE
  8
0
 10
742.099
 20
55.277
 11
741.469
 21
54.7273
  0
LINE
  8
0
 10
741.469
 20
54.7273
 11
740.738
 21
54.3206
  0
LINE
  8
0
 10
740.738
 20
54.3206
 11
726.569
 21
48.2778
  0
LINE
  8
0
 10
726.569
 20
48.2778
 11
725.893
 21
48.0581
  0
LINE
  8
0
 10
725.893
 20
48.0581
 11
725.063
 21
47.9576
  0
LINE
  8
0
 10
725.063
 20
47.9576
 11
724.23
 21
48.0319
  0
LINE
  8
0
 10
631.508
 20
21.7502
 11
630.709
 21
21.996
  0
LINE
  8
0
 10
630.709
 20
21.996
 11
554.915
 21
54.3206
  0
LINE
  8
0
 10
554.915
 20
54.3206
 11
554.133
 21
54.7639
  0
LINE
  8
0
 10
554.133
 20
54.7639
 11
553.511
 21
55.3235
  0
LINE
  8
0
 10
553.511
 20
55.3235
 11
553.02
 21
56
  0
LINE
  8
0
 10
553.02
 20
56
 11
552.68
 21
56.7639
  0
LINE
  8
0
 10
552.68
 20
56.7639
 11
552.506
 21
57.5819
  0
LINE
  8
0
 10
552.506
 20
57.5819
 11
552.506
 21
58.4181
  0
LINE
  8
0
 10
552.506
 20
58.4181
 11
552.68
 21
59.2361
  0
LINE
  8
0
 10
552.68
 20
59.2361
 11
553.02
 21
60
  0
LINE
  8
0
 10
553.02
 20
60
 11
553.511
 21
60.6765
  0
LINE
  8
0
 10
553.511
 20
60.6765
 11
554.133
 21
61.2361
  0
LINE
  8
0
 10
554.133
 20
61.2361
 11
554.857
 21
61.6542
  0
LINE
  8
0
 10
554.857
 20
61.6542
 11
555.652
 21
61.9126
  0
LINE
  8
0
 10
555.652
 20
61.9126
 11
556.484
 21
62
  0
LINE
  8
0
 10
556.484
 20
62
 11
632.278
 21
62
  0
LINE
  8
0
 10
632.278
 20
62
 11
633.514
 21
61.8042
  0
LINE
  8
0
 10
633.514
 20
61.8042
 11
634.278
 21
61.4641
  0
LINE
  8
0
 10
634.278
 20
61.4641
 11
634.954
 21
60.9726
  0
LINE
  8
0
 10
634.954
 20
60.9726
 11
635.514
 21
60.3511
  0
LINE
  8
0
 10
635.514
 20
60.3511
 11
635.932
 21
59.627
  0
LINE
  8
0
 10
635.932
 20
59.627
 11
636.19
 21
58.8316
  0
LINE
  8
0
 10
636.19
 20
58.8316
 11
636.278
 21
58
  0
LINE
  8
0
 10
636.278
 20
58
 11
636.278
 21
25.6754
  0
LINE
  8
0
 10
636.278
 20
25.6754
 11
636.101
 21
24.4994
  0
LINE
  8
0
 10
636.101
 20
24.4994
 11
635.773
 21
23.7302
  0
LINE
  8
0
 10
635.773
 20
23.7302
 11
635.292
 21
23.046
  0
LINE
  8
0
 10
635.292
 20
23.046
 11
634.68
 21
22.4768
  0
LINE
  8
0
 10
634.68
 20
22.4768
 11
633.962
 21
22.0473
  0
LINE
  8
0
 10
633.962
 20
22.0473
 11
633.171
 21
21.7764
  0
LINE
  8
0
 10
633.171
 20
21.7764
 11
632.341
 21
21.6759
  0
LINE
  8
0
 10
632.341
 20
21.6759
 11
631.508
 21
21.7502
  0
LINE
  8
0
 10
472.063
 20
21.7502
 11
471.264
 21
21.996
  0
LINE
  8
0
 10
471.264
 20
21.996
 11
395.47
 21
54.3206
  0
LINE
  8
0
 10
395.47
 20
54.3206
 11
394.688
 21
54.7639
  0
LINE
  8
0
 10
394.688
 20
54.7639
 11
394.067
 21
55.3235
  0
LINE
  8
0
 10
394.067
 20
55.3235
 11
393.575
 21
56
  0
LINE
  8
0
 10
393.575
 20
56
 11
393.235
 21
56.7639
  0
LINE
  8
0
 10
393.235
 20
56.7639
 11
393.061
 21
57.5819
  0
LINE
  8
0
 10
393.061
 20
57.5819
 11
393.061
 21
58.4181
  0
LINE
  8
0
 10
393.061
 20
58.4181
 11
393.235
 21
59.2361
  0
LINE
  8
0
 10
393.235
 20
59.2361
 11
393.575
 21
60
  0
LINE
  8
0
 10
393.575
 20
60
 11
394.067
 21
60.6765
  0
LINE
  8
0
 10
394.067
 20
60.6765
 11
394.688
 21
61.2361
  0
LINE
  8
0
 10
394.688
 20
61.2361
 11
395.413
 21
61.6542
  0
LINE
  8
0
 10
395.413
 20
61.6542
 11
396.208
 21
61.9126
  0
LINE
  8
0
 10
396.208
 20
61.9126
 11
397.039
 21
62
  0
LINE
  8
0
 10
397.039
 20
62
 11
472.833
 21
62
  0
LINE
  8
0
 10
472.833
 20
62
 11
474.069
 21
61.8042
  0
LINE
  8
0
 10
474.069
 20
61.8042
 11
474.833
 21
61.4641
  0
LINE
  8
0
 10
474.833
 20
61.4641
 11
475.51
 21
60.9726
  0
LINE
  8
0
 10
475.51
 20
60.9726
 11
476.069
 21
60.3511
  0
LINE
  8
0
 10
476.069
 20
60.3511
 11
476.488
 21
59.627
  0
LINE
  8
0
 10
476.488
 20
59.627
 11
476.746
 21
58.8316
  0
LINE
  8
0
 10
476.746
 20
58.8316
 11
476.833
 21
58
  0
LINE
  8
0
 10
476.833
 20
58
 11
476.833
 21
25.6754
  0
LINE
  8
0
 10
476.833
 20
25.6754
 11
476.657
 21
24.4994
  0
LINE
  8
0
 10
476.657
 20
24.4994
 11
476.329
 21
23.7302
  0
LINE
  8
0
 10
476.329
 20
23.7302
 11
475.848
 21
23.046
  0
LINE
  8
0
 10
475.848
 20
23.046
 11
475.235
 21
22.4768
  0
LINE
  8
0
 10
475.235
 20
22.4768
 11
474.518
 21
22.0473
  0
LINE
  8
0
 10
474.518
 20
22.0473
 11
473.727
 21
21.7764
  0
LINE
  8
0
 10
473.727
 20
21.7764
 11
472.896
 21
21.6759
  0
LINE
  8
0
 10
472.896
 20
21.6759
 11
472.063
 21
21.7502
  0
LINE
  8
0
 10
312.619
 20
21.7502
 11
311.82
 21
21.996
  0
LINE
  8
0
 10
311.82
 20
21.996
 11
236.026
 21
54.3206
  0
LINE
  8
0
 10
236.026
 20
54.3206
 11
235.244
 21
54.7639
  0
LINE
  8
0
 10
235.244
 20
54.7639
 11
234.622
 21
55.3235
  0
LINE
  8
0
 10
234.622
 20
55.3235
 11
234.131
 21
56
  0
LINE
  8
0
 10
234.131
 20
56
 11
233.791
 21
56.7639
  0
LINE
  8
0
 10
233.791
 20
56.7639
 11
233.617
 21
57.5819
  0
LINE
  8
0
 10
233.617
 20
57.5819
 11
233.617
 21
58.4181
  0
LINE
  8
0
 10
233.617
 20
58.4181
 11
233.791
 21
59.2361
  0
LINE
  8
0
 10
233.791
 20
59.2361
 11
234.131
 21
60
  0
LINE
  8
0
 10
234.131
 20
60
 11
234.622
 21
60.6765
  0
LINE
  8
0
 10
234.622
 20
60.6765
 11
235.244
 21
61.2361
  0
LINE
  8
0
 10
235.244
 20
61.2361
 11
235.968
 21
61.6542
  0
LINE
  8
0
 10
235.968
 20
61.6542
 11
236.763
 21
61.9126
  0
LINE
  8
0
 10
236.763
 20
61.9126
 11
237.595
 21
62
  0
LINE
  8
0
 10
237.595
 20
62
 11
313.389
 21
62
  0
LINE
  8
0
 10
313.389
 20
62
 11
314.625
 21
61.8042
  0
LINE
  8
0
 10
314.625
 20
61.8042
 11
315.389
 21
61.4641
  0
LINE
  8
0
 10
315.389
 20
61.4641
 11
316.065
 21
60.9726
  0
LINE
  8
0
 10
316.065
 20
60.9726
 11
316.625
 21
60.3511
  0
LINE
  8
0
 10
316.625
 20
60.3511
 11
317.043
 21
59.627
  0
LINE
  8
0
 10
317.043
 20
59.627
 11
317.301
 21
58.8316
  0
LINE
  8
0
 10
317.301
 20
58.8316
 11
317.389
 21
58
  0
LINE
  8
0
 10
317.389
 20
58
 11
317.389
 21
25.6754
  0
LINE
  8
0
 10
317.389
 20
25.6754
 11
317.212
 21
24.4994
  0
LINE
  8
0
 10
317.212
 20
24.4994
 11
316.884
 21
23.7302
  0
LINE
  8
0
 10
316.884
 20
23.7302
 11
316.403
 21
23.046
  0
LINE
  8
0
 10
316.403
 20
23.046
 11
315.791
 21
22.4768
  0
LINE
  8
0
 10
315.791
 20
22.4768
 11
315.073
 21
22.0473
  0
LINE
  8
0
 10
315.073
 20
22.0473
 11
314.282
 21
21.7764
  0
LINE
  8
0
 10
314.282
 20
21.7764
 11
313.452
 21
21.6759
  0
LINE
  8
0
 10
313.452
 20
21.6759
 11
312.619
 21
21.7502
  0
LINE
  8
0
 10
1295.16
 20
21.7764
 11
1294.37
 21
22.0473
  0
LINE
  8
0
 10
1294.37
 20
22.0473
 11
1293.65
 21
22.4768
  0
LINE
  8
0
 10
1293.65
 20
22.4768
 11
1293.04
 21
23.046
  0
LINE
  8
0
 10
1293.04
 20
23.046
 11
1292.56
 21
23.7302
  0
LINE
  8
0
 10
1292.56
 20
23.7302
 11
1292.23
 21
24.4994
  0
LINE
  8
0
 10
1292.23
 20
24.4994
 11
1292.06
 21
25.6754
  0
LINE
  8
0
 10
1292.06
 20
25.6754
 11
1292.06
 21
58
  0
LINE
  8
0
 10
1292.06
 20
58
 11
1292.14
 21
58.8316
  0
LINE
  8
0
 10
1292.14
 20
58.8316
 11
1292.4
 21
59.627
  0
LINE
  8
0
 10
1292.4
 20
59.627
 11
1292.82
 21
60.3511
  0
LINE
  8
0
 10
1292.82
 20
60.3511
 11
1293.38
 21
60.9726
  0
LINE
  8
0
 10
1293.38
 20
60.9726
 11
1294.06
 21
61.4641
  0
LINE
  8
0
 10
1294.06
 20
61.4641
 11
1294.82
 21
61.8042
  0
LINE
  8
0
 10
1294.82
 20
61.8042
 11
1296.06
 21
62
  0
LINE
  8
0
 10
1296.06
 20
62
 11
1371.85
 21
62
  0
LINE
  8
0
 10
1371.85
 20
62
 11
1372.68
 21
61.9126
  0
LINE
  8
0
 10
1372.68
 20
61.9126
 11
1373.48
 21
61.6542
  0
LINE
  8
0
 10
1373.48
 20
61.6542
 11
1374.2
 21
61.2361
  0
LINE
  8
0
 10
1374.2
 20
61.2361
 11
1374.82
 21
60.6765
  0
LINE
  8
0
 10
1374.82
 20
60.6765
 11
1375.31
 21
60
  0
LINE
  8
0
 10
1375.31
 20
60
 11
1375.65
 21
59.2361
  0
LINE
  8
0
 10
1375.65
 20
59.2361
 11
1375.83
 21
58.4181
  0
LINE
  8
0
 10
1375.83
 20
58.4181
 11
1375.83
 21
57.5819
  0
LINE
  8
0
 10
1375.83
 20
57.5819
 11
1375.65
 21
56.7639
  0
LINE
  8
0
 10
1375.65
 20
56.7639
 11
1375.31
 21
56
  0
LINE
  8
0
 10
1375.31
 20
56
 11
1374.82
 21
55.3235
  0
LINE
  8
0
 10
1374.82
 20
55.3235
 11
1374.2
 21
54.7639
  0
LINE
  8
0
 10
1374.2
 20
54.7639
 11
1373.42
 21
54.3206
  0
LINE
  8
0
 10
1373.42
 20
54.3206
 11
1297.62
 21
21.996
  0
LINE
  8
0
 10
1297.62
 20
21.996
 11
1296.83
 21
21.7502
  0
LINE
  8
0
 10
1296.83
 20
21.7502
 11
1295.99
 21
21.6759
  0
LINE
  8
0
 10
1295.99
 20
21.6759
 11
1295.16
 21
21.7764
  0
LINE
  8
0
 10
153.175
 20
21.7502
 11
152.375
 21
21.996
  0
LINE
  8
0
 10
152.375
 20
21.996
 11
76.5814
 21
54.3206
  0
LINE
  8
0
 10
76.5814
 20
54.3206
 11
75.7995
 21
54.7639
  0
LINE
  8
0
 10
75.7995
 20
54.7639
 11
75.178
 21
55.3235
  0
LINE
  8
0
 10
75.178
 20
55.3235
 11
74.6865
 21
56
  0
LINE
  8
0
 10
74.6865
 20
56
 11
74.3464
 21
56.7639
  0
LINE
  8
0
 10
74.3464
 20
56.7639
 11
74.1725
 21
57.5819
  0
LINE
  8
0
 10
74.1725
 20
57.5819
 11
74.1725
 21
58.4181
  0
LINE
  8
0
 10
74.1725
 20
58.4181
 11
74.3464
 21
59.2361
  0
LINE
  8
0
 10
74.3464
 20
59.2361
 11
74.6865
 21
60
  0
LINE
  8
0
 10
74.6865
 20
60
 11
75.178
 21
60.6765
  0
LINE
  8
0
 10
75.178
 20
60.6765
 11
75.7995
 21
61.2361
  0
LINE
  8
0
 10
75.7995
 20
61.2361
 11
76.5237
 21
61.6542
  0
LINE
  8
0
 10
76.5237
 20
61.6542
 11
77.319
 21
61.9126
  0
LINE
  8
0
 10
77.319
 20
61.9126
 11
78.1506
 21
62
  0
LINE
  8
0
 10
78.1506
 20
62
 11
153.944
 21
62
  0
LINE
  8
0
 10
153.944
 20
62
 11
155.181
 21
61.8042
  0
LINE
  8
0
 10
155.181
 20
61.8042
 11
155.944
 21
61.4641
  0
LINE
  8
0
 10
155.944
 20
61.4641
 11
156.621
 21
60.9726
  0
LINE
  8
0
 10
156.621
 20
60.9726
 11
157.181
 21
60.3511
  0
LINE
  8
0
 10
157.181
 20
60.3511
 11
157.599
 21
59.627
  0
LINE
  8
0
 10
157.599
 20
59.627
 11
157.857
 21
58.8316
  0
LINE
  8
0
 10
157.857
 20
58.8316
 11
157.944
 21
58
  0
LINE
  8
0
 10
157.944
 20
58
 11
157.944
 21
25.6754
  0
LINE
  8
0
 10
157.944
 20
25.6754
 11
157.768
 21
24.4994
  0
LINE
  8
0
 10
157.768
 20
24.4994
 11
157.44
 21
23.7302
  0
LINE
  8
0
 10
157.44
 20
23.7302
 11
156.959
 21
23.046
  0
LINE
  8
0
 10
156.959
 20
23.046
 11
156.346
 21
22.4768
  0
LINE
  8
0
 10
156.346
 20
22.4768
 11
155.629
 21
22.0473
  0
LINE
  8
0
 10
155.629
 20
22.0473
 11
154.838
 21
21.7764
  0
LINE
  8
0
 10
154.838
 20
21.7764
 11
154.007
 21
21.6759
  0
LINE
  8
0
 10
154.007
 20
21.6759
 11
153.175
 21
21.7502
  0
LINE
  8
0
 10
1135.72
 20
21.7764
 11
1134.93
 21
22.0473
  0
LINE
  8
0
 10
1134.93
 20
22.0473
 11
1134.21
 21
22.4768
  0
LINE
  8
0
 10
1134.21
 20
22.4768
 11
1133.6
 21
23.046
  0
LINE
  8
0
 10
1133.6
 20
23.046
 11
1133.12
 21
23.7302
  0
LINE
  8
0
 10
1133.12
 20
23.7302
 11
1132.79
 21
24.4994
  0
LINE
  8
0
 10
1132.79
 20
24.4994
 11
1132.61
 21
25.6754
  0
LINE
  8
0
 10
1132.61
 20
25.6754
 11
1132.61
 21
58
  0
LINE
  8
0
 10
1132.61
 20
58
 11
1132.7
 21
58.8316
  0
LINE
  8
0
 10
1132.7
 20
58.8316
 11
1132.96
 21
59.627
  0
LINE
  8
0
 10
1132.96
 20
59.627
 11
1133.38
 21
60.3511
  0
LINE
  8
0
 10
1133.38
 20
60.3511
 11
1133.93
 21
60.9726
  0
LINE
  8
0
 10
1133.93
 20
60.9726
 11
1134.61
 21
61.4641
  0
LINE
  8
0
 10
1134.61
 20
61.4641
 11
1135.38
 21
61.8042
  0
LINE
  8
0
 10
1135.38
 20
61.8042
 11
1136.61
 21
62
  0
LINE
  8
0
 10
1136.61
 20
62
 11
1212.4
 21
62
  0
LINE
  8
0
 10
1212.4
 20
62
 11
1213.24
 21
61.9126
  0
LINE
  8
0
 10
1213.24
 20
61.9126
 11
1214.03
 21
61.6542
  0
LINE
  8
0
 10
1214.03
 20
61.6542
 11
1214.76
 21
61.2361
  0
LINE
  8
0
 10
1214.76
 20
61.2361
 11
1215.38
 21
60.6765
  0
LINE
  8
0
 10
1215.38
 20
60.6765
 11
1215.87
 21
60
  0
LINE
  8
0
 10
1215.87
 20
60
 11
1216.21
 21
59.2361
  0
LINE
  8
0
 10
1216.21
 20
59.2361
 11
1216.38
 21
58.4181
  0
LINE
  8
0
 10
1216.38
 20
58.4181
 11
1216.38
 21
57.5819
  0
LINE
  8
0
 10
1216.38
 20
57.5819
 11
1216.21
 21
56.7639
  0
LINE
  8
0
 10
1216.21
 20
56.7639
 11
1215.87
 21
56
  0
LINE
  8
0
 10
1215.87
 20
56
 11
1215.38
 21
55.3235
  0
LINE
  8
0
 10
1215.38
 20
55.3235
 11
1214.76
 21
54.7639
  0
LINE
  8
0
 10
1214.76
 20
54.7639
 11
1213.97
 21
54.3206
  0
LINE
  8
0
 10
1213.97
 20
54.3206
 11
1138.18
 21
21.996
  0
LINE
  8
0
 10
1138.18
 20
21.996
 11
1137.38
 21
21.7502
  0
LINE
  8
0
 10
1137.38
 20
21.7502
 11
1136.55
 21
21.6759
  0
LINE
  8
0
 10
1136.55
 20
21.6759
 11
1135.72
 21
21.7764
  0
LINE
  8
0
 10
657.86
 20
19.5233
 11
657.042
 21
19.6971
  0
LINE
  8
0
 10
657.042
 20
19.6971
 11
656.278
 21
20.0373
  0
LINE
  8
0
 10
656.278
 20
20.0373
 11
655.601
 21
20.5288
  0
LINE
  8
0
 10
655.601
 20
20.5288
 11
655.042
 21
21.1502
  0
LINE
  8
0
 10
655.042
 20
21.1502
 11
654.624
 21
21.8744
  0
LINE
  8
0
 10
654.624
 20
21.8744
 11
654.365
 21
22.6697
  0
LINE
  8
0
 10
654.365
 20
22.6697
 11
654.278
 21
23.5014
  0
LINE
  8
0
 10
654.278
 20
23.5014
 11
654.278
 21
56.4986
  0
LINE
  8
0
 10
654.278
 20
56.4986
 11
654.455
 21
57.6746
  0
LINE
  8
0
 10
654.455
 20
57.6746
 11
654.783
 21
58.4438
  0
LINE
  8
0
 10
654.783
 20
58.4438
 11
655.263
 21
59.128
  0
LINE
  8
0
 10
655.263
 20
59.128
 11
655.876
 21
59.6973
  0
LINE
  8
0
 10
655.876
 20
59.6973
 11
656.593
 21
60.1267
  0
LINE
  8
0
 10
656.593
 20
60.1267
 11
657.385
 21
60.3976
  0
LINE
  8
0
 10
657.385
 20
60.3976
 11
658.215
 21
60.4981
  0
LINE
  8
0
 10
658.215
 20
60.4981
 11
659.048
 21
60.4238
  0
LINE
  8
0
 10
659.048
 20
60.4238
 11
659.847
 21
60.178
  0
LINE
  8
0
 10
659.847
 20
60.178
 11
698.532
 21
43.6794
  0
LINE
  8
0
 10
698.532
 20
43.6794
 11
699.365
 21
43.1986
  0
LINE
  8
0
 10
699.365
 20
43.1986
 11
699.978
 21
42.6294
  0
LINE
  8
0
 10
699.978
 20
42.6294
 11
700.458
 21
41.9452
  0
LINE
  8
0
 10
700.458
 20
41.9452
 11
700.786
 21
41.176
  0
LINE
  8
0
 10
700.786
 20
41.176
 11
700.947
 21
40.3554
  0
LINE
  8
0
 10
700.947
 20
40.3554
 11
700.934
 21
39.5193
  0
LINE
  8
0
 10
700.934
 20
39.5193
 11
700.748
 21
38.7041
  0
LINE
  8
0
 10
700.748
 20
38.7041
 11
700.395
 21
37.9457
  0
LINE
  8
0
 10
700.395
 20
37.9457
 11
699.893
 21
37.277
  0
LINE
  8
0
 10
699.893
 20
37.277
 11
699.263
 21
36.7273
  0
LINE
  8
0
 10
699.263
 20
36.7273
 11
698.532
 21
36.3206
  0
LINE
  8
0
 10
698.532
 20
36.3206
 11
659.847
 21
19.822
  0
LINE
  8
0
 10
659.847
 20
19.822
 11
658.696
 21
19.5233
  0
LINE
  8
0
 10
658.696
 20
19.5233
 11
657.86
 21
19.5233
  0
LINE
  8
0
 10
790.952
 20
19.5762
 11
790.153
 21
19.822
  0
LINE
  8
0
 10
790.153
 20
19.822
 11
751.467
 21
36.3206
  0
LINE
  8
0
 10
751.467
 20
36.3206
 11
750.635
 21
36.8014
  0
LINE
  8
0
 10
750.635
 20
36.8014
 11
750.022
 21
37.3706
  0
LINE
  8
0
 10
750.022
 20
37.3706
 11
749.542
 21
38.0548
  0
LINE
  8
0
 10
749.542
 20
38.0548
 11
749.213
 21
38.824
  0
LINE
  8
0
 10
749.213
 20
38.824
 11
749.053
 21
39.6446
  0
LINE
  8
0
 10
749.053
 20
39.6446
 11
749.066
 21
40.4807
  0
LINE
  8
0
 10
749.066
 20
40.4807
 11
749.252
 21
41.2959
  0
LINE
  8
0
 10
749.252
 20
41.2959
 11
749.605
 21
42.0543
  0
LINE
  8
0
 10
749.605
 20
42.0543
 11
750.107
 21
42.723
  0
LINE
  8
0
 10
750.107
 20
42.723
 11
750.737
 21
43.2727
  0
LINE
  8
0
 10
750.737
 20
43.2727
 11
751.467
 21
43.6794
  0
LINE
  8
0
 10
751.467
 20
43.6794
 11
790.153
 21
60.178
  0
LINE
  8
0
 10
790.153
 20
60.178
 11
791.304
 21
60.4767
  0
LINE
  8
0
 10
791.304
 20
60.4767
 11
792.14
 21
60.4767
  0
LINE
  8
0
 10
792.14
 20
60.4767
 11
792.958
 21
60.3029
  0
LINE
  8
0
 10
792.958
 20
60.3029
 11
793.722
 21
59.9627
  0
LINE
  8
0
 10
793.722
 20
59.9627
 11
794.399
 21
59.4712
  0
LINE
  8
0
 10
794.399
 20
59.4712
 11
794.958
 21
58.8498
  0
LINE
  8
0
 10
794.958
 20
58.8498
 11
795.376
 21
58.1256
  0
LINE
  8
0
 10
795.376
 20
58.1256
 11
795.635
 21
57.3303
  0
LINE
  8
0
 10
795.635
 20
57.3303
 11
795.722
 21
56.4986
  0
LINE
  8
0
 10
795.722
 20
56.4986
 11
795.722
 21
23.5014
  0
LINE
  8
0
 10
795.722
 20
23.5014
 11
795.545
 21
22.3254
  0
LINE
  8
0
 10
795.545
 20
22.3254
 11
795.217
 21
21.5562
  0
LINE
  8
0
 10
795.217
 20
21.5562
 11
794.737
 21
20.872
  0
LINE
  8
0
 10
794.737
 20
20.872
 11
794.124
 21
20.3027
  0
LINE
  8
0
 10
794.124
 20
20.3027
 11
793.407
 21
19.8733
  0
LINE
  8
0
 10
793.407
 20
19.8733
 11
792.615
 21
19.6024
  0
LINE
  8
0
 10
792.615
 20
19.6024
 11
791.785
 21
19.5019
  0
LINE
  8
0
 10
791.785
 20
19.5019
 11
790.952
 21
19.5762
  0
LINE
  8
0
 10
179.944
 20
18
 11
178.708
 21
18.1958
  0
LINE
  8
0
 10
178.708
 20
18.1958
 11
177.944
 21
18.5359
  0
LINE
  8
0
 10
177.944
 20
18.5359
 11
177.268
 21
19.0274
  0
LINE
  8
0
 10
177.268
 20
19.0274
 11
176.708
 21
19.6489
  0
LINE
  8
0
 10
176.708
 20
19.6489
 11
176.29
 21
20.373
  0
LINE
  8
0
 10
176.29
 20
20.373
 11
176.032
 21
21.1684
  0
LINE
  8
0
 10
176.032
 20
21.1684
 11
175.944
 21
22
  0
LINE
  8
0
 10
175.944
 20
22
 11
175.944
 21
54.3246
  0
LINE
  8
0
 10
175.944
 20
54.3246
 11
176.121
 21
55.5006
  0
LINE
  8
0
 10
176.121
 20
55.5006
 11
176.449
 21
56.2698
  0
LINE
  8
0
 10
176.449
 20
56.2698
 11
176.93
 21
56.954
  0
LINE
  8
0
 10
176.93
 20
56.954
 11
177.543
 21
57.5232
  0
LINE
  8
0
 10
177.543
 20
57.5232
 11
178.26
 21
57.9527
  0
LINE
  8
0
 10
178.26
 20
57.9527
 11
179.051
 21
58.2236
  0
LINE
  8
0
 10
179.051
 20
58.2236
 11
179.881
 21
58.3241
  0
LINE
  8
0
 10
179.881
 20
58.3241
 11
180.714
 21
58.2498
  0
LINE
  8
0
 10
180.714
 20
58.2498
 11
181.514
 21
58.004
  0
LINE
  8
0
 10
181.514
 20
58.004
 11
257.307
 21
25.6794
  0
LINE
  8
0
 10
257.307
 20
25.6794
 11
258.089
 21
25.2361
  0
LINE
  8
0
 10
258.089
 20
25.2361
 11
258.711
 21
24.6765
  0
LINE
  8
0
 10
258.711
 20
24.6765
 11
259.202
 21
24
  0
LINE
  8
0
 10
259.202
 20
24
 11
259.542
 21
23.2361
  0
LINE
  8
0
 10
259.542
 20
23.2361
 11
259.716
 21
22.4181
  0
LINE
  8
0
 10
259.716
 20
22.4181
 11
259.716
 21
21.5819
  0
LINE
  8
0
 10
259.716
 20
21.5819
 11
259.542
 21
20.7639
  0
LINE
  8
0
 10
259.542
 20
20.7639
 11
259.202
 21
20
  0
LINE
  8
0
 10
259.202
 20
20
 11
258.711
 21
19.3235
  0
LINE
  8
0
 10
258.711
 20
19.3235
 11
258.089
 21
18.7639
  0
LINE
  8
0
 10
258.089
 20
18.7639
 11
257.365
 21
18.3458
  0
LINE
  8
0
 10
257.365
 20
18.3458
 11
256.57
 21
18.0874
  0
LINE
  8
0
 10
256.57
 20
18.0874
 11
255.738
 21
18
  0
LINE
  8
0
 10
255.738
 20
18
 11
179.944
 21
18
  0
LINE
  8
0
 10
339.389
 20
18
 11
338.153
 21
18.1958
  0
LINE
  8
0
 10
338.153
 20
18.1958
 11
337.389
 21
18.5359
  0
LINE
  8
0
 10
337.389
 20
18.5359
 11
336.712
 21
19.0274
  0
LINE
  8
0
 10
336.712
 20
19.0274
 11
336.153
 21
19.6489
  0
LINE
  8
0
 10
336.153
 20
19.6489
 11
335.735
 21
20.373
  0
LINE
  8
0
 10
335.735
 20
20.373
 11
335.476
 21
21.1684
  0
LINE
  8
0
 10
335.476
 20
21.1684
 11
335.389
 21
22
  0
LINE
  8
0
 10
335.389
 20
22
 11
335.389
 21
54.3246
  0
LINE
  8
0
 10
335.389
 20
54.3246
 11
335.566
 21
55.5006
  0
LINE
  8
0
 10
335.566
 20
55.5006
 11
335.894
 21
56.2698
  0
LINE
  8
0
 10
335.894
 20
56.2698
 11
336.375
 21
56.954
  0
LINE
  8
0
 10
336.375
 20
56.954
 11
336.987
 21
57.5232
  0
LINE
  8
0
 10
336.987
 20
57.5232
 11
337.705
 21
57.9527
  0
LINE
  8
0
 10
337.705
 20
57.9527
 11
338.496
 21
58.2236
  0
LINE
  8
0
 10
338.496
 20
58.2236
 11
339.326
 21
58.3241
  0
LINE
  8
0
 10
339.326
 20
58.3241
 11
340.159
 21
58.2498
  0
LINE
  8
0
 10
340.159
 20
58.2498
 11
340.958
 21
58.004
  0
LINE
  8
0
 10
340.958
 20
58.004
 11
416.752
 21
25.6794
  0
LINE
  8
0
 10
416.752
 20
25.6794
 11
417.534
 21
25.2361
  0
LINE
  8
0
 10
417.534
 20
25.2361
 11
418.155
 21
24.6765
  0
LINE
  8
0
 10
418.155
 20
24.6765
 11
418.647
 21
24
  0
LINE
  8
0
 10
418.647
 20
24
 11
418.987
 21
23.2361
  0
LINE
  8
0
 10
418.987
 20
23.2361
 11
419.161
 21
22.4181
  0
LINE
  8
0
 10
419.161
 20
22.4181
 11
419.161
 21
21.5819
  0
LINE
  8
0
 10
419.161
 20
21.5819
 11
418.987
 21
20.7639
  0
LINE
  8
0
 10
418.987
 20
20.7639
 11
418.647
 21
20
  0
LINE
  8
0
 10
418.647
 20
20
 11
418.155
 21
19.3235
  0
LINE
  8
0
 10
418.155
 20
19.3235
 11
417.534
 21
18.7639
  0
LINE
  8
0
 10
417.534
 20
18.7639
 11
416.81
 21
18.3458
  0
LINE
  8
0
 10
416.81
 20
18.3458
 11
416.014
 21
18.0874
  0
LINE
  8
0
 10
416.014
 20
18.0874
 11
415.183
 21
18
  0
LINE
  8
0
 10
415.183
 20
18
 11
339.389
 21
18
  0
LINE
  8
0
 10
498.833
 20
18
 11
497.597
 21
18.1958
  0
LINE
  8
0
 10
497.597
 20
18.1958
 11
496.833
 21
18.5359
  0
LINE
  8
0
 10
496.833
 20
18.5359
 11
496.157
 21
19.0274
  0
LINE
  8
0
 10
496.157
 20
19.0274
 11
495.597
 21
19.6489
  0
LINE
  8
0
 10
495.597
 20
19.6489
 11
495.179
 21
20.373
  0
LINE
  8
0
 10
495.179
 20
20.373
 11
494.921
 21
21.1684
  0
LINE
  8
0
 10
494.921
 20
21.1684
 11
494.833
 21
22
  0
LINE
  8
0
 10
494.833
 20
22
 11
494.833
 21
54.3246
  0
LINE
  8
0
 10
494.833
 20
54.3246
 11
495.01
 21
55.5006
  0
LINE
  8
0
 10
495.01
 20
55.5006
 11
495.338
 21
56.2698
  0
LINE
  8
0
 10
495.338
 20
56.2698
 11
495.819
 21
56.954
  0
LINE
  8
0
 10
495.819
 20
56.954
 11
496.432
 21
57.5232
  0
LINE
  8
0
 10
496.432
 20
57.5232
 11
497.149
 21
57.9527
  0
LINE
  8
0
 10
497.149
 20
57.9527
 11
497.94
 21
58.2236
  0
LINE
  8
0
 10
497.94
 20
58.2236
 11
498.77
 21
58.3241
  0
LINE
  8
0
 10
498.77
 20
58.3241
 11
499.603
 21
58.2498
  0
LINE
  8
0
 10
499.603
 20
58.2498
 11
500.403
 21
58.004
  0
LINE
  8
0
 10
500.403
 20
58.004
 11
576.196
 21
25.6794
  0
LINE
  8
0
 10
576.196
 20
25.6794
 11
576.978
 21
25.2361
  0
LINE
  8
0
 10
576.978
 20
25.2361
 11
577.6
 21
24.6765
  0
LINE
  8
0
 10
577.6
 20
24.6765
 11
578.091
 21
24
  0
LINE
  8
0
 10
578.091
 20
24
 11
578.431
 21
23.2361
  0
LINE
  8
0
 10
578.431
 20
23.2361
 11
578.605
 21
22.4181
  0
LINE
  8
0
 10
578.605
 20
22.4181
 11
578.605
 21
21.5819
  0
LINE
  8
0
 10
578.605
 20
21.5819
 11
578.431
 21
20.7639
  0
LINE
  8
0
 10
578.431
 20
20.7639
 11
578.091
 21
20
  0
LINE
  8
0
 10
578.091
 20
20
 11
577.6
 21
19.3235
  0
LINE
  8
0
 10
577.6
 20
19.3235
 11
576.978
 21
18.7639
  0
LINE
  8
0
 10
576.978
 20
18.7639
 11
576.254
 21
18.3458
  0
LINE
  8
0
 10
576.254
 20
18.3458
 11
575.459
 21
18.0874
  0
LINE
  8
0
 10
575.459
 20
18.0874
 11
574.627
 21
18
  0
LINE
  8
0
 10
574.627
 20
18
 11
498.833
 21
18
  0
LINE
  8
0
 10
875.373
 20
18
 11
874.541
 21
18.0874
  0
LINE
  8
0
 10
874.541
 20
18.0874
 11
873.746
 21
18.3458
  0
LINE
  8
0
 10
873.746
 20
18.3458
 11
873.022
 21
18.7639
  0
LINE
  8
0
 10
873.022
 20
18.7639
 11
872.4
 21
19.3235
  0
LINE
  8
0
 10
872.4
 20
19.3235
 11
871.909
 21
20
  0
LINE
  8
0
 10
871.909
 20
20
 11
871.569
 21
20.7639
  0
LINE
  8
0
 10
871.569
 20
20.7639
 11
871.395
 21
21.5819
  0
LINE
  8
0
 10
871.395
 20
21.5819
 11
871.395
 21
22.4181
  0
LINE
  8
0
 10
871.395
 20
22.4181
 11
871.569
 21
23.2361
  0
LINE
  8
0
 10
871.569
 20
23.2361
 11
871.909
 21
24
  0
LINE
  8
0
 10
871.909
 20
24
 11
872.4
 21
24.6765
  0
LINE
  8
0
 10
872.4
 20
24.6765
 11
873.022
 21
25.2361
  0
LINE
  8
0
 10
873.022
 20
25.2361
 11
873.804
 21
25.6794
  0
LINE
  8
0
 10
873.804
 20
25.6794
 11
949.597
 21
58.004
  0
LINE
  8
0
 10
949.597
 20
58.004
 11
950.397
 21
58.2498
  0
LINE
  8
0
 10
950.397
 20
58.2498
 11
951.23
 21
58.3241
  0
LINE
  8
0
 10
951.23
 20
58.3241
 11
952.06
 21
58.2236
  0
LINE
  8
0
 10
952.06
 20
58.2236
 11
952.851
 21
57.9527
  0
LINE
  8
0
 10
952.851
 20
57.9527
 11
953.568
 21
57.5232
  0
LINE
  8
0
 10
953.568
 20
57.5232
 11
954.181
 21
56.954
  0
LINE
  8
0
 10
954.181
 20
56.954
 11
954.662
 21
56.2698
  0
LINE
  8
0
 10
954.662
 20
56.2698
 11
954.99
 21
55.5006
  0
LINE
  8
0
 10
954.99
 20
55.5006
 11
955.167
 21
54.3246
  0
LINE
  8
0
 10
955.167
 20
54.3246
 11
955.167
 21
22
  0
LINE
  8
0
 10
955.167
 20
22
 11
955.079
 21
21.1684
  0
LINE
  8
0
 10
955.079
 20
21.1684
 11
954.821
 21
20.373
  0
LINE
  8
0
 10
954.821
 20
20.373
 11
954.403
 21
19.6489
  0
LINE
  8
0
 10
954.403
 20
19.6489
 11
953.843
 21
19.0274
  0
LINE
  8
0
 10
953.843
 20
19.0274
 11
953.167
 21
18.5359
  0
LINE
  8
0
 10
953.167
 20
18.5359
 11
952.403
 21
18.1958
  0
LINE
  8
0
 10
952.403
 20
18.1958
 11
951.167
 21
18
  0
LINE
  8
0
 10
951.167
 20
18
 11
875.373
 21
18
  0
LINE
  8
0
 10
1034.82
 20
18
 11
1033.99
 21
18.0874
  0
LINE
  8
0
 10
1033.99
 20
18.0874
 11
1033.19
 21
18.3458
  0
LINE
  8
0
 10
1033.19
 20
18.3458
 11
1032.47
 21
18.7639
  0
LINE
  8
0
 10
1032.47
 20
18.7639
 11
1031.84
 21
19.3235
  0
LINE
  8
0
 10
1031.84
 20
19.3235
 11
1031.35
 21
20
  0
LINE
  8
0
 10
1031.35
 20
20
 11
1031.01
 21
20.7639
  0
LINE
  8
0
 10
1031.01
 20
20.7639
 11
1030.84
 21
21.5819
  0
LINE
  8
0
 10
1030.84
 20
21.5819
 11
1030.84
 21
22.4181
  0
LINE
  8
0
 10
1030.84
 20
22.4181
 11
1031.01
 21
23.2361
  0
LINE
  8
0
 10
1031.01
 20
23.2361
 11
1031.35
 21
24
  0
LINE
  8
0
 10
1031.35
 20
24
 11
1031.84
 21
24.6765
  0
LINE
  8
0
 10
1031.84
 20
24.6765
 11
1032.47
 21
25.2361
  0
LINE
  8
0
 10
1032.47
 20
25.2361
 11
1033.25
 21
25.6794
  0
LINE
  8
0
 10
1033.25
 20
25.6794
 11
1109.04
 21
58.004
  0
LINE
  8
0
 10
1109.04
 20
58.004
 11
1109.84
 21
58.2498
  0
LINE
  8
0
 10
1109.84
 20
58.2498
 11
1110.67
 21
58.3241
  0
LINE
  8
0
 10
1110.67
 20
58.3241
 11
1111.5
 21
58.2236
  0
LINE
  8
0
 10
1111.5
 20
58.2236
 11
1112.3
 21
57.9527
  0
LINE
  8
0
 10
1112.3
 20
57.9527
 11
1113.01
 21
57.5232
  0
LINE
  8
0
 10
1113.01
 20
57.5232
 11
1113.63
 21
56.954
  0
LINE
  8
0
 10
1113.63
 20
56.954
 11
1114.11
 21
56.2698
  0
LINE
  8
0
 10
1114.11
 20
56.2698
 11
1114.43
 21
55.5006
  0
LINE
  8
0
 10
1114.43
 20
55.5006
 11
1114.61
 21
54.3246
  0
LINE
  8
0
 10
1114.61
 20
54.3246
 11
1114.61
 21
22
  0
LINE
  8
0
 10
1114.61
 20
22
 11
1114.52
 21
21.1684
  0
LINE
  8
0
 10
1114.52
 20
21.1684
 11
1114.27
 21
20.373
  0
LINE
  8
0
 10
1114.27
 20
20.373
 11
1113.85
 21
19.6489
  0
LINE
  8
0
 10
1113.85
 20
19.6489
 11
1113.29
 21
19.0274
  0
LINE
  8
0
 10
1113.29
 20
19.0274
 11
1112.61
 21
18.5359
  0
LINE
  8
0
 10
1112.61
 20
18.5359
 11
1111.85
 21
18.1958
  0
LINE
  8
0
 10
1111.85
 20
18.1958
 11
1110.61
 21
18
  0
LINE
  8
0
 10
1110.61
 20
18
 11
1034.82
 21
18
  0
LINE
  8
0
 10
1194.26
 20
18
 11
1193.43
 21
18.0874
  0
LINE
  8
0
 10
1193.43
 20
18.0874
 11
1192.63
 21
18.3458
  0
LINE
  8
0
 10
1192.63
 20
18.3458
 11
1191.91
 21
18.7639
  0
LINE
  8
0
 10
1191.91
 20
18.7639
 11
1191.29
 21
19.3235
  0
LINE
  8
0
 10
1191.29
 20
19.3235
 11
1190.8
 21
20
  0
LINE
  8
0
 10
1190.8
 20
20
 11
1190.46
 21
20.7639
  0
LINE
  8
0
 10
1190.46
 20
20.7639
 11
1190.28
 21
21.5819
  0
LINE
  8
0
 10
1190.28
 20
21.5819
 11
1190.28
 21
22.4181
  0
LINE
  8
0
 10
1190.28
 20
22.4181
 11
1190.46
 21
23.2361
  0
LINE
  8
0
 10
1190.46
 20
23.2361
 11
1190.8
 21
24
  0
LINE
  8
0
 10
1190.8
 20
24
 11
1191.29
 21
24.6765
  0
LINE
  8
0
 10
1191.29
 20
24.6765
 11
1191.91
 21
25.2361
  0
LINE
  8
0
 10
1191.91
 20
25.2361
 11
1192.69
 21
25.6794
  0
LINE
  8
0
 10
1192.69
 20
25.6794
 11
1268.49
 21
58.004
  0
LINE
  8
0
 10
1268.49
 20
58.004
 11
1269.29
 21
58.2498
  0
LINE
  8
0
 10
1269.29
 20
58.2498
 11
1270.12
 21
58.3241
  0
LINE
  8
0
 10
1270.12
 20
58.3241
 11
1270.95
 21
58.2236
  0
LINE
  8
0
 10
1270.95
 20
58.2236
 11
1271.74
 21
57.9527
  0
LINE
  8
0
 10
1271.74
 20
57.9527
 11
1272.46
 21
57.5232
  0
LINE
  8
0
 10
1272.46
 20
57.5232
 11
1273.07
 21
56.954
  0
LINE
  8
0
 10
1273.07
 20
56.954
 11
1273.55
 21
56.2698
  0
LINE
  8
0
 10
1273.55
 20
56.2698
 11
1273.88
 21
55.5006
  0
LINE
  8
0
 10
1273.88
 20
55.5006
 11
1274.06
 21
54.3246
  0
LINE
  8
0
 10
1274.06
 20
54.3246
 11
1274.06
 21
22
  0
LINE
  8
0
 10
1274.06
 20
22
 11
1273.97
 21
21.1684
  0
LINE
  8
0
 10
1273.97
 20
21.1684
 11
1273.71
 21
20.373
  0
LINE
  8
0
 10
1273.71
 20
20.373
 11
1273.29
 21
19.6489
  0
LINE
  8
0
 10
1273.29
 20
19.6489
 11
1272.73
 21
19.0274
  0
LINE
  8
0
 10
1272.73
 20
19.0274
 11
1272.06
 21
18.5359
  0
LINE
  8
0
 10
1272.06
 20
18.5359
 11
1271.29
 21
18.1958
  0
LINE
  8
0
 10
1271.29
 20
18.1958
 11
1270.06
 21
18
  0
LINE
  8
0
 10
1270.06
 20
18
 11
1194.26
 21
18
  0
LINE
  8
0
 10
22
 20
18
 11
20.7639
 21
18.1958
  0
LINE
  8
0
 10
20.7639
 20
18.1958
 11
20
 21
18.5359
  0
LINE
  8
0
 10
20
 20
18.5359
 11
19.3235
 21
19.0274
  0
LINE
  8
0
 10
19.3235
 20
19.0274
 11
18.7639
 21
19.6489
  0
LINE
  8
0
 10
18.7639
 20
19.6489
 11
18.3458
 21
20.373
  0
LINE
  8
0
 10
18.3458
 20
20.373
 11
18.0874
 21
21.1684
  0
LINE
  8
0
 10
18.0874
 20
21.1684
 11
18
 21
22
  0
LINE
  8
0
 10
18
 20
22
 11
18
 21
53.6849
  0
LINE
  8
0
 10
18
 20
53.6849
 11
18.1768
 21
54.8609
  0
LINE
  8
0
 10
18.1768
 20
54.8609
 11
18.5048
 21
55.6301
  0
LINE
  8
0
 10
18.5048
 20
55.6301
 11
18.9856
 21
56.3143
  0
LINE
  8
0
 10
18.9856
 20
56.3143
 11
19.5982
 21
56.8835
  0
LINE
  8
0
 10
19.5982
 20
56.8835
 11
20.3157
 21
57.313
  0
LINE
  8
0
 10
20.3157
 20
57.313
 11
21.1068
 21
57.5839
  0
LINE
  8
0
 10
21.1068
 20
57.5839
 11
21.937
 21
57.6844
  0
LINE
  8
0
 10
21.937
 20
57.6844
 11
22.7699
 21
57.6101
  0
LINE
  8
0
 10
22.7699
 20
57.6101
 11
23.5692
 21
57.3642
  0
LINE
  8
0
 10
23.5692
 20
57.3642
 11
97.863
 21
25.6794
  0
LINE
  8
0
 10
97.863
 20
25.6794
 11
98.6449
 21
25.2361
  0
LINE
  8
0
 10
98.6449
 20
25.2361
 11
99.2664
 21
24.6765
  0
LINE
  8
0
 10
99.2664
 20
24.6765
 11
99.7579
 21
24
  0
LINE
  8
0
 10
99.7579
 20
24
 11
100.098
 21
23.2361
  0
LINE
  8
0
 10
100.098
 20
23.2361
 11
100.272
 21
22.4181
  0
LINE
  8
0
 10
100.272
 20
22.4181
 11
100.272
 21
21.5819
  0
LINE
  8
0
 10
100.272
 20
21.5819
 11
100.098
 21
20.7639
  0
LINE
  8
0
 10
100.098
 20
20.7639
 11
99.7579
 21
20
  0
LINE
  8
0
 10
99.7579
 20
20
 11
99.2664
 21
19.3235
  0
LINE
  8
0
 10
99.2664
 20
19.3235
 11
98.6449
 21
18.7639
  0
LINE
  8
0
 10
98.6449
 20
18.7639
 11
97.9208
 21
18.3458
  0
LINE
  8
0
 10
97.9208
 20
18.3458
 11
97.1255
 21
18.0874
  0
LINE
  8
0
 10
97.1255
 20
18.0874
 11
96.2938
 21
18
  0
LINE
  8
0
 10
96.2938
 20
18
 11
22
 21
18
  0
LINE
  8
0
 10
1353.71
 20
18
 11
1352.87
 21
18.0874
  0
LINE
  8
0
 10
1352.87
 20
18.0874
 11
1352.08
 21
18.3458
  0
LINE
  8
0
 10
1352.08
 20
18.3458
 11
1351.36
 21
18.7639
  0
LINE
  8
0
 10
1351.36
 20
18.7639
 11
1350.73
 21
19.3235
  0
LINE
  8
0
 10
1350.73
 20
19.3235
 11
1350.24
 21
20
  0
LINE
  8
0
 10
1350.24
 20
20
 11
1349.9
 21
20.7639
  0
LINE
  8
0
 10
1349.9
 20
20.7639
 11
1349.73
 21
21.5819
  0
LINE
  8
0
 10
1349.73
 20
21.5819
 11
1349.73
 21
22.4181
  0
LINE
  8
0
 10
1349.73
 20
22.4181
 11
1349.9
 21
23.2361
  0
LINE
  8
0
 10
1349.9
 20
23.2361
 11
1350.24
 21
24
  0
LINE
  8
0
 10
1350.24
 20
24
 11
1350.73
 21
24.6765
  0
LINE
  8
0
 10
1350.73
 20
24.6765
 11
1351.36
 21
25.2361
  0
LINE
  8
0
 10
1351.36
 20
25.2361
 11
1352.14
 21
25.6794
  0
LINE
  8
0
 10
1352.14
 20
25.6794
 11
1426.43
 21
57.3642
  0
LINE
  8
0
 10
1426.43
 20
57.3642
 11
1427.23
 21
57.6101
  0
LINE
  8
0
 10
1427.23
 20
57.6101
 11
1428.06
 21
57.6844
  0
LINE
  8
0
 10
1428.06
 20
57.6844
 11
1428.89
 21
57.5839
  0
LINE
  8
0
 10
1428.89
 20
57.5839
 11
1429.68
 21
57.313
  0
LINE
  8
0
 10
1429.68
 20
57.313
 11
1430.4
 21
56.8835
  0
LINE
  8
0
 10
1430.4
 20
56.8835
 11
1431.01
 21
56.3143
  0
LINE
  8
0
 10
1431.01
 20
56.3143
 11
1431.5
 21
55.6301
  0
LINE
  8
0
 10
1431.5
 20
55.6301
 11
1431.82
 21
54.8609
  0
LINE
  8
0
 10
1431.82
 20
54.8609
 11
1432
 21
53.6849
  0
LINE
  8
0
 10
1432
 20
53.6849
 11
1432
 21
22
  0
LINE
  8
0
 10
1432
 20
22
 11
1431.91
 21
21.1684
  0
LINE
  8
0
 10
1431.91
 20
21.1684
 11
1431.65
 21
20.373
  0
LINE
  8
0
 10
1431.65
 20
20.373
 11
1431.24
 21
19.6489
  0
LINE
  8
0
 10
1431.24
 20
19.6489
 11
1430.68
 21
19.0274
  0
LINE
  8
0
 10
1430.68
 20
19.0274
 11
1430
 21
18.5359
  0
LINE
  8
0
 10
1430
 20
18.5359
 11
1429.24
 21
18.1958
  0
LINE
  8
0
 10
1429.24
 20
18.1958
 11
1428
 21
18
  0
LINE
  8
0
 10
1428
 20
18
 11
1353.71
 21
18
  0
LINE
  8
0
 10
710.831
 20
18
 11
709.938
 21
18.101
  0
LINE
  8
0
 10
709.938
 20
18.101
 11
709.146
 21
18.3719
  0
LINE
  8
0
 10
709.146
 20
18.3719
 11
708.429
 21
18.8014
  0
LINE
  8
0
 10
708.429
 20
18.8014
 11
707.816
 21
19.3706
  0
LINE
  8
0
 10
707.816
 20
19.3706
 11
707.336
 21
20.0548
  0
LINE
  8
0
 10
707.336
 20
20.0548
 11
707.008
 21
20.824
  0
LINE
  8
0
 10
707.008
 20
20.824
 11
706.847
 21
21.6446
  0
LINE
  8
0
 10
706.847
 20
21.6446
 11
706.86
 21
22.4807
  0
LINE
  8
0
 10
706.86
 20
22.4807
 11
707.047
 21
23.2959
  0
LINE
  8
0
 10
707.047
 20
23.2959
 11
707.399
 21
24.0543
  0
LINE
  8
0
 10
707.399
 20
24.0543
 11
707.901
 21
24.723
  0
LINE
  8
0
 10
707.901
 20
24.723
 11
708.531
 21
25.2727
  0
LINE
  8
0
 10
708.531
 20
25.2727
 11
709.262
 21
25.6794
  0
LINE
  8
0
 10
709.262
 20
25.6794
 11
723.431
 21
31.7222
  0
LINE
  8
0
 10
723.431
 20
31.7222
 11
724.107
 21
31.9419
  0
LINE
  8
0
 10
724.107
 20
31.9419
 11
724.937
 21
32.0424
  0
LINE
  8
0
 10
724.937
 20
32.0424
 11
725.77
 21
31.9681
  0
LINE
  8
0
 10
725.77
 20
31.9681
 11
726.569
 21
31.7222
  0
LINE
  8
0
 10
726.569
 20
31.7222
 11
740.738
 21
25.6794
  0
LINE
  8
0
 10
740.738
 20
25.6794
 11
741.52
 21
25.2361
  0
LINE
  8
0
 10
741.52
 20
25.2361
 11
742.142
 21
24.6765
  0
LINE
  8
0
 10
742.142
 20
24.6765
 11
742.633
 21
24
  0
LINE
  8
0
 10
742.633
 20
24
 11
742.973
 21
23.2361
  0
LINE
  8
0
 10
742.973
 20
23.2361
 11
743.147
 21
22.4181
  0
LINE
  8
0
 10
743.147
 20
22.4181
 11
743.147
 21
21.5819
  0
LINE
  8
0
 10
743.147
 20
21.5819
 11
742.973
 21
20.7639
  0
LINE
  8
0
 10
742.973
 20
20.7639
 11
742.633
 21
20
  0
LINE
  8
0
 10
742.633
 20
20
 11
742.142
 21
19.3235
  0
LINE
  8
0
 10
742.142
 20
19.3235
 11
741.52
 21
18.7639
  0
LINE
  8
0
 10
741.52
 20
18.7639
 11
740.796
 21
18.3458
  0
LINE
  8
0
 10
740.796
 20
18.3458
 11
740.001
 21
18.0874
  0
LINE
  8
0
 10
740.001
 20
18.0874
 11
739.169
 21
18
  0
LINE
  8
0
 10
739.169
 20
18
 11
710.831
 21
18
  0
ENDSEC
  0
SECTION
  2
OBJECTS
  0
DICTIONARY
  0
ENDSEC
  0
EOF
