999
"DXF R12 Output" (www.mydxf.blogspot.com)
 0 
SECTION
 2 
HEADER
 9 
$ACADVER
 1 
AC1009
 9 
$EXTMIN
 10 
 0 
 20 
 0 
 9 
$EXTMAX
 10 
 8.5 
 20 
 11 
 0 
ENDSEC
 0 
SECTION
 2 
ENTITIES
0
LINE
8
Layer 1
10
161.471000
20
177.137000
11
160.821922
21
177.052376
0
LINE
8
Layer 1
10
160.821922
20
177.052376
11
160.154020
21
176.798410
0
LINE
8
Layer 1
10
160.154020
20
176.798410
11
158.912230
21
176.045822
0
LINE
8
Layer 1
10
158.912230
20
176.045822
11
157.783230
21
175.067428
0
LINE
8
Layer 1
10
157.783230
20
175.067428
11
156.955447
21
174.126631
0
LINE
8
Layer 1
10
156.955447
20
174.126631
11
159.213000
21
174.126000
0
LINE
8
Layer 1
10
159.213000
20
174.126000
11
159.250589
21
173.937800
0
LINE
8
Layer 1
10
159.250589
20
173.937800
11
159.363594
21
173.523794
0
LINE
8
Layer 1
10
159.363594
20
173.523794
11
159.476387
21
173.034601
0
LINE
8
Layer 1
10
159.476387
20
173.034601
11
159.589396
21
172.620595
0
LINE
8
Layer 1
10
159.589396
20
172.620595
11
159.590000
21
172.094000
0
LINE
8
Layer 1
10
159.590000
20
172.094000
11
159.326380
21
167.615820
0
LINE
8
Layer 1
10
159.326380
20
167.615820
11
158.799594
21
163.175450
0
LINE
8
Layer 1
10
158.799594
20
163.175450
11
158.272795
21
158.734870
0
LINE
8
Layer 1
10
158.272795
20
158.734870
11
158.046997
21
154.332100
0
LINE
8
Layer 1
10
158.046997
20
154.332100
11
159.110077
21
154.557799
0
LINE
8
Layer 1
10
159.110077
20
154.557799
11
159.966187
21
155.235078
0
LINE
8
Layer 1
10
159.966187
20
155.235078
11
160.700033
21
156.251183
0
LINE
8
Layer 1
10
160.700033
20
156.251183
11
161.320977
21
157.493078
0
LINE
8
Layer 1
10
161.320977
20
157.493078
11
162.412167
21
160.465858
0
LINE
8
Layer 1
10
162.412167
20
160.465858
11
163.541167
21
163.438858
0
LINE
8
Layer 1
10
163.541167
20
163.438858
11
164.227920
21
164.708852
0
LINE
8
Layer 1
10
164.227920
20
164.708852
11
165.008757
21
165.734228
0
LINE
8
Layer 1
10
165.008757
20
165.734228
11
165.977764
21
166.411619
0
LINE
8
Layer 1
10
165.977764
20
166.411619
11
167.153737
21
166.637432
0
LINE
8
Layer 1
10
167.153737
20
166.637432
11
167.642930
21
166.487046
0
LINE
8
Layer 1
10
167.642930
20
166.487046
11
167.868732
21
165.847242
0
LINE
8
Layer 1
10
167.868732
20
165.847242
11
167.906321
21
165.358045
0
LINE
8
Layer 1
10
167.906321
20
165.358045
11
167.981737
21
164.417253
0
LINE
8
Layer 1
10
167.981737
20
164.417253
11
168.132132
21
163.325843
0
LINE
8
Layer 1
10
168.132132
20
163.325843
11
168.245141
21
162.460462
0
LINE
8
Layer 1
10
168.245141
20
162.460462
11
168.245000
21
162.272000
0
LINE
8
Layer 1
10
168.245000
20
162.272000
11
168.245000
21
162.084000
0
LINE
8
Layer 1
10
168.245000
20
162.084000
11
168.019198
21
161.030410
0
LINE
8
Layer 1
10
168.019198
20
161.030410
11
167.680608
21
159.449810
0
LINE
8
Layer 1
10
167.680608
20
159.449810
11
167.341801
21
157.869200
0
LINE
8
Layer 1
10
167.341801
20
157.869200
11
167.115999
21
156.815620
0
LINE
8
Layer 1
10
167.115999
20
156.815620
11
167.285319
21
155.658493
0
LINE
8
Layer 1
10
167.285319
20
155.658493
11
167.642785
21
154.821240
0
LINE
8
Layer 1
10
167.642785
20
154.821240
11
168.310812
21
154.313200
0
LINE
8
Layer 1
10
168.310812
20
154.313200
11
169.411595
21
154.143843
0
LINE
8
Layer 1
10
169.411595
20
154.143843
11
170.578195
21
154.369641
0
LINE
8
Layer 1
10
170.578195
20
154.369641
11
171.857575
21
155.009220
0
LINE
8
Layer 1
10
171.857575
20
155.009220
11
172.911165
21
155.950017
0
LINE
8
Layer 1
10
172.911165
20
155.950017
11
173.249860
21
156.486311
0
LINE
8
Layer 1
10
173.249860
20
156.486311
11
173.362765
21
157.041417
0
LINE
8
Layer 1
10
173.362765
20
157.041417
11
172.874000
21
157.041000
0
LINE
8
Layer 1
10
172.874000
20
157.041000
11
172.121403
21
157.116191
0
LINE
8
Layer 1
10
172.121403
20
157.116191
11
171.331213
21
157.153780
0
LINE
8
Layer 1
10
171.331213
20
157.153780
11
170.879613
21
157.191585
0
LINE
8
Layer 1
10
170.879613
20
157.191585
11
170.653815
21
157.341971
0
LINE
8
Layer 1
10
170.653815
20
157.341971
11
170.503213
21
157.567773
0
LINE
8
Layer 1
10
170.503213
20
157.567773
11
170.503000
21
157.907000
0
LINE
8
Layer 1
10
170.503000
20
157.907000
11
170.465411
21
158.396193
0
LINE
8
Layer 1
10
170.465411
20
158.396193
11
170.465000
21
158.923000
0
LINE
8
Layer 1
10
170.465000
20
158.923000
11
170.465000
21
159.262000
0
LINE
8
Layer 1
10
170.465000
20
159.262000
11
170.690802
21
162.799390
0
LINE
8
Layer 1
10
170.690802
20
162.799390
11
170.916600
21
166.336780
0
LINE
8
Layer 1
10
170.916600
20
166.336780
11
170.917000
21
167.089000
0
LINE
8
Layer 1
10
170.917000
20
167.089000
11
170.841814
21
167.917008
0
LINE
8
Layer 1
10
170.841814
20
167.917008
11
170.653609
21
168.744791
0
LINE
8
Layer 1
10
170.653609
20
168.744791
11
170.239603
21
169.347006
0
LINE
8
Layer 1
10
170.239603
20
169.347006
11
169.600024
21
169.610401
0
LINE
8
Layer 1
10
169.600024
20
169.610401
11
168.555760
21
169.450431
0
LINE
8
Layer 1
10
168.555760
20
169.450431
11
167.455044
21
168.970593
0
LINE
8
Layer 1
10
167.455044
20
168.970593
11
165.272234
21
167.503003
0
LINE
8
Layer 1
10
165.272234
20
167.503003
11
163.315454
21
165.772013
0
LINE
8
Layer 1
10
163.315454
20
165.772013
11
161.847864
21
164.342023
0
LINE
8
Layer 1
10
161.847864
20
164.342023
11
161.810276
21
165.094615
0
LINE
8
Layer 1
10
161.810276
20
165.094615
11
161.810000
21
165.847000
0
LINE
8
Layer 1
10
161.810000
20
165.847000
11
162.035798
21
169.497180
0
LINE
8
Layer 1
10
162.035798
20
169.497180
11
162.261600
21
173.185170
0
LINE
8
Layer 1
10
162.261600
20
173.185170
11
162.262000
21
173.712000
0
LINE
8
Layer 1
10
162.262000
20
173.712000
11
162.224411
21
174.577606
0
LINE
8
Layer 1
10
162.224411
20
174.577606
11
162.224000
21
175.443000
0
LINE
8
Layer 1
10
162.224000
20
175.443000
11
162.224000
21
175.932000
0
LINE
8
Layer 1
10
162.224000
20
175.932000
11
162.110991
21
176.270811
0
LINE
8
Layer 1
10
162.110991
20
176.270811
11
161.810007
21
176.835199
0
LINE
8
Layer 1
10
161.810007
20
176.835199
11
161.471187
21
177.136192
0
LINE
8
Layer 1
10
161.471187
20
177.136192
11
161.471000
21
177.137000
0
LINE
8
Layer 1
10
44.024000
20
173.844440
11
43.459612
21
173.825429
0
LINE
8
Layer 1
10
43.459612
20
173.825429
11
42.669600
21
173.825000
0
LINE
8
Layer 1
10
42.669600
20
173.825000
11
40.044734
21
173.571018
0
LINE
8
Layer 1
10
40.044734
20
173.571018
11
37.589210
21
172.809010
0
LINE
8
Layer 1
10
37.589210
20
172.809010
11
35.406596
21
171.642480
0
LINE
8
Layer 1
10
35.406596
20
171.642480
11
33.525040
21
170.099640
0
LINE
8
Layer 1
10
33.525040
20
170.099640
11
31.982194
21
168.218075
0
LINE
8
Layer 1
10
31.982194
20
168.218075
11
30.815660
21
166.035460
0
LINE
8
Layer 1
10
30.815660
20
166.035460
11
30.081861
21
163.655240
0
LINE
8
Layer 1
10
30.081861
20
163.655240
11
29.837269
21
161.105670
0
LINE
8
Layer 1
10
29.837269
20
161.105670
11
30.063068
21
158.998280
0
LINE
8
Layer 1
10
30.063068
20
158.998280
11
30.364100
21
157.822365
0
LINE
8
Layer 1
10
30.364100
20
157.822365
11
30.815660
21
156.702910
0
LINE
8
Layer 1
10
30.815660
20
156.702910
11
31.427188
21
155.724446
0
LINE
8
Layer 1
10
31.427188
20
155.724446
11
32.208060
21
154.896510
0
LINE
8
Layer 1
10
32.208060
20
154.896510
11
33.186458
21
154.360261
0
LINE
8
Layer 1
10
33.186458
20
154.360261
11
34.390640
21
154.181511
0
LINE
8
Layer 1
10
34.390640
20
154.181511
11
37.288220
21
154.294299
0
LINE
8
Layer 1
10
37.288220
20
154.294299
11
39.809610
21
154.821315
0
LINE
8
Layer 1
10
39.809610
20
154.821315
11
40.976129
21
155.310444
0
LINE
8
Layer 1
10
40.976129
20
155.310444
11
42.067390
21
155.950095
0
LINE
8
Layer 1
10
42.067390
20
155.950095
11
43.139902
21
156.787389
0
LINE
8
Layer 1
10
43.139902
20
156.787389
11
44.174780
21
157.869285
0
LINE
8
Layer 1
10
44.174780
20
157.869285
11
43.798596
21
158.208096
0
LINE
8
Layer 1
10
43.798596
20
158.208096
11
42.406196
21
157.681306
0
LINE
8
Layer 1
10
42.406196
20
157.681306
11
41.202006
21
157.342495
0
LINE
8
Layer 1
10
41.202006
20
157.342495
11
39.997816
21
157.116697
0
LINE
8
Layer 1
10
39.997816
20
157.116697
11
38.530006
21
157.079108
0
LINE
8
Layer 1
10
38.530006
20
157.079108
11
38.078700
21
157.079000
0
LINE
8
Layer 1
10
38.078700
20
157.079000
11
37.401300
21
157.079000
0
LINE
8
Layer 1
10
37.401300
20
157.079000
11
36.686305
21
157.116589
0
LINE
8
Layer 1
10
36.686305
20
157.116589
11
36.272300
21
157.117000
0
LINE
8
Layer 1
10
36.272300
20
157.117000
11
35.312710
21
157.667378
0
LINE
8
Layer 1
10
35.312710
20
157.667378
11
34.503661
21
158.302457
0
LINE
8
Layer 1
10
34.503661
20
158.302457
11
33.845139
21
159.022207
0
LINE
8
Layer 1
10
33.845139
20
159.022207
11
33.337130
21
159.826600
0
LINE
8
Layer 1
10
33.337130
20
159.826600
11
32.687948
21
161.661101
0
LINE
8
Layer 1
10
32.687948
20
161.661101
11
32.471526
21
163.702580
0
LINE
8
Layer 1
10
32.471526
20
163.702580
11
32.612602
21
165.245511
0
LINE
8
Layer 1
10
32.612602
20
165.245511
11
33.035914
21
166.713180
0
LINE
8
Layer 1
10
33.035914
20
166.713180
11
33.713356
21
168.030262
0
LINE
8
Layer 1
10
33.713356
20
168.030262
11
34.541324
21
169.121560
0
LINE
8
Layer 1
10
34.541324
20
169.121560
11
35.557316
21
170.052930
0
LINE
8
Layer 1
10
35.557316
20
170.052930
11
36.799094
21
170.814950
0
LINE
8
Layer 1
10
36.799094
20
170.814950
11
38.276188
21
171.473493
0
LINE
8
Layer 1
10
38.276188
20
171.473493
11
39.997884
21
172.019140
0
LINE
8
Layer 1
10
39.997884
20
172.019140
11
42.180464
21
171.793338
0
LINE
8
Layer 1
10
42.180464
20
171.793338
11
44.400644
21
171.605134
0
LINE
8
Layer 1
10
44.400644
20
171.605134
11
44.965033
21
171.755745
0
LINE
8
Layer 1
10
44.965033
20
171.755745
11
45.529644
21
172.169526
0
LINE
8
Layer 1
10
45.529644
20
172.169526
11
46.056436
21
172.658944
0
LINE
8
Layer 1
10
46.056436
20
172.658944
11
46.432843
21
173.072725
0
LINE
8
Layer 1
10
46.432843
20
173.072725
11
46.131698
21
173.392565
0
LINE
8
Layer 1
10
46.131698
20
173.392565
11
45.680028
21
173.599515
0
LINE
8
Layer 1
10
45.680028
20
173.599515
11
44.588848
21
173.825313
0
LINE
8
Layer 1
10
44.588848
20
173.825313
11
44.024237
21
173.844324
0
LINE
8
Layer 1
10
44.024237
20
173.844324
11
44.024000
21
173.844440
0
LINE
8
Layer 1
10
76.537600
20
171.116040
11
75.747311
21
171.003134
0
LINE
8
Layer 1
10
75.747311
20
171.003134
11
75.182800
21
170.664445
0
LINE
8
Layer 1
10
75.182800
20
170.664445
11
74.825251
21
170.156390
0
LINE
8
Layer 1
10
74.825251
20
170.156390
11
74.580589
21
169.535445
0
LINE
8
Layer 1
10
74.580589
20
169.535445
11
74.354791
21
168.180865
0
LINE
8
Layer 1
10
74.354791
20
168.180865
11
74.279605
21
166.976675
0
LINE
8
Layer 1
10
74.279605
20
166.976675
11
73.715213
21
164.568285
0
LINE
8
Layer 1
10
73.715213
20
164.568285
11
72.586213
21
162.159675
0
LINE
8
Layer 1
10
72.586213
20
162.159675
11
71.118623
21
159.977085
0
LINE
8
Layer 1
10
71.118623
20
159.977085
11
69.387642
21
158.321285
0
LINE
8
Layer 1
10
69.387642
20
158.321285
11
69.011229
21
158.697698
0
LINE
8
Layer 1
10
69.011229
20
158.697698
11
67.506050
21
166.976668
0
LINE
8
Layer 1
10
67.506050
20
166.976668
11
67.204836
21
167.315254
0
LINE
8
Layer 1
10
67.204836
20
167.315254
11
66.753452
21
167.390445
0
LINE
8
Layer 1
10
66.753452
20
167.390445
11
66.188843
21
167.315254
0
LINE
8
Layer 1
10
66.188843
20
167.315254
11
65.624455
21
166.976668
0
LINE
8
Layer 1
10
65.624455
20
166.976668
11
64.834266
21
166.261665
0
LINE
8
Layer 1
10
64.834266
20
166.261665
11
63.705266
21
165.132665
0
LINE
8
Layer 1
10
63.705266
20
165.132665
11
62.576266
21
163.966065
0
LINE
8
Layer 1
10
62.576266
20
163.966065
11
61.861271
21
163.213473
0
LINE
8
Layer 1
10
61.861271
20
163.213473
11
62.011873
21
163.175884
0
LINE
8
Layer 1
10
62.011873
20
163.175884
11
62.237900
21
163.175000
0
LINE
8
Layer 1
10
62.237900
20
163.175000
11
63.178701
21
163.363200
0
LINE
8
Layer 1
10
63.178701
20
163.363200
11
64.119493
21
163.965190
0
LINE
8
Layer 1
10
64.119493
20
163.965190
11
64.307468
21
163.776981
0
LINE
8
Layer 1
10
64.307468
20
163.776981
11
64.495677
21
163.588777
0
LINE
8
Layer 1
10
64.495677
20
163.588777
11
65.097888
21
161.406197
0
LINE
8
Layer 1
10
65.097888
20
161.406197
11
65.511665
21
159.035407
0
LINE
8
Layer 1
10
65.511665
20
159.035407
11
65.737467
21
156.664617
0
LINE
8
Layer 1
10
65.737467
20
156.664617
11
66.000858
21
154.557447
0
LINE
8
Layer 1
10
66.000858
20
154.557447
11
66.151469
21
154.331649
0
LINE
8
Layer 1
10
66.151469
20
154.331649
11
66.377271
21
154.181042
0
LINE
8
Layer 1
10
66.377271
20
154.181042
11
66.565500
21
154.181000
0
LINE
8
Layer 1
10
66.565500
20
154.181000
11
67.581529
21
154.322076
0
LINE
8
Layer 1
10
67.581529
20
154.322076
11
68.522290
21
154.745384
0
LINE
8
Layer 1
10
68.522290
20
154.745384
11
69.303117
21
155.469778
0
LINE
8
Layer 1
10
69.303117
20
155.469778
11
69.764080
21
156.438774
0
LINE
8
Layer 1
10
69.764080
20
156.438774
11
72.398260
21
159.411774
0
LINE
8
Layer 1
10
72.398260
20
159.411774
11
74.957250
21
162.535164
0
LINE
8
Layer 1
10
74.957250
20
162.535164
11
76.020331
21
164.228628
0
LINE
8
Layer 1
10
76.020331
20
164.228628
11
76.876440
21
165.997354
0
LINE
8
Layer 1
10
76.876440
20
165.997354
11
77.469101
21
167.916472
0
LINE
8
Layer 1
10
77.469101
20
167.916472
11
77.666630
21
169.986114
0
LINE
8
Layer 1
10
77.666630
20
169.986114
11
77.572613
21
170.362410
0
LINE
8
Layer 1
10
77.572613
20
170.362410
11
77.290446
21
170.738706
0
LINE
8
Layer 1
10
77.290446
20
170.738706
11
76.914147
21
171.020989
0
LINE
8
Layer 1
10
76.914147
20
171.020989
11
76.537849
21
171.115115
0
LINE
8
Layer 1
10
76.537849
20
171.115115
11
76.537600
21
171.116040
0
LINE
8
Layer 1
10
140.134400
20
170.062460
11
138.911282
21
169.827257
0
LINE
8
Layer 1
10
138.911282
20
169.827257
11
137.951590
21
169.121661
0
LINE
8
Layer 1
10
137.951590
20
169.121661
11
137.180148
21
168.124450
0
LINE
8
Layer 1
10
137.180148
20
168.124450
11
136.521600
21
166.939081
0
LINE
8
Layer 1
10
136.521600
20
166.939081
11
135.468020
21
164.304891
0
LINE
8
Layer 1
10
135.468020
20
164.304891
11
134.969360
21
163.072384
0
LINE
8
Layer 1
10
134.969360
20
163.072384
11
134.376610
21
162.084481
0
LINE
8
Layer 1
10
134.376610
20
162.084481
11
133.849824
21
161.444677
0
LINE
8
Layer 1
10
133.849824
20
161.444677
11
132.984439
21
160.353497
0
LINE
8
Layer 1
10
132.984439
20
160.353497
11
132.043647
21
159.149307
0
LINE
8
Layer 1
10
132.043647
20
159.149307
11
131.366250
21
158.321294
0
LINE
8
Layer 1
10
131.366250
20
158.321294
11
131.065253
21
157.907513
0
LINE
8
Layer 1
10
131.065253
20
157.907513
11
130.839451
21
157.681715
0
LINE
8
Layer 1
10
130.839451
20
157.681715
11
130.575844
21
157.568701
0
LINE
8
Layer 1
10
130.575844
20
157.568701
11
130.237254
21
157.531112
0
LINE
8
Layer 1
10
130.237254
20
157.531112
11
129.785654
21
157.568701
0
LINE
8
Layer 1
10
129.785654
20
157.568701
11
129.484657
21
157.945110
0
LINE
8
Layer 1
10
129.484657
20
157.945110
11
129.485000
21
158.283000
0
LINE
8
Layer 1
10
129.485000
20
158.283000
11
129.447411
21
158.772202
0
LINE
8
Layer 1
10
129.447411
20
158.772202
11
129.447000
21
159.299000
0
LINE
8
Layer 1
10
129.447000
20
159.299000
11
129.447000
21
159.638000
0
LINE
8
Layer 1
10
129.447000
20
159.638000
11
129.672798
21
161.933600
0
LINE
8
Layer 1
10
129.672798
20
161.933600
11
130.237190
21
164.153780
0
LINE
8
Layer 1
10
130.237190
20
164.153780
11
130.763976
21
166.411560
0
LINE
8
Layer 1
10
130.763976
20
166.411560
11
131.027380
21
168.669560
0
LINE
8
Layer 1
10
131.027380
20
168.669560
11
130.989791
21
169.233952
0
LINE
8
Layer 1
10
130.989791
20
169.233952
11
130.876967
21
169.478605
0
LINE
8
Layer 1
10
130.876967
20
169.478605
11
130.613607
21
169.610361
0
LINE
8
Layer 1
10
130.613607
20
169.610361
11
129.098857
21
168.895320
0
LINE
8
Layer 1
10
129.098857
20
168.895320
11
127.715807
21
168.029751
0
LINE
8
Layer 1
10
127.715807
20
168.029751
11
126.483373
21
167.032539
0
LINE
8
Layer 1
10
126.483373
20
167.032539
11
125.345017
21
165.847161
0
LINE
8
Layer 1
10
125.345017
20
165.847161
11
125.721430
21
165.470752
0
LINE
8
Layer 1
10
125.721430
20
165.470752
11
126.474014
21
165.847161
0
LINE
8
Layer 1
10
126.474014
20
165.847161
11
127.226611
21
166.223570
0
LINE
8
Layer 1
10
127.226611
20
166.223570
11
127.377213
21
166.185765
0
LINE
8
Layer 1
10
127.377213
20
166.185765
11
127.527828
21
166.148176
0
LINE
8
Layer 1
10
127.527828
20
166.148176
11
127.339619
21
163.814976
0
LINE
8
Layer 1
10
127.339619
20
163.814976
11
126.963219
21
161.444186
0
LINE
8
Layer 1
10
126.963219
20
161.444186
11
126.587035
21
159.111216
0
LINE
8
Layer 1
10
126.587035
20
159.111216
11
126.436424
21
156.778026
0
LINE
8
Layer 1
10
126.436424
20
156.778026
11
126.511619
21
156.100624
0
LINE
8
Layer 1
10
126.511619
20
156.100624
11
126.812833
21
155.385629
0
LINE
8
Layer 1
10
126.812833
20
155.385629
11
127.264433
21
154.783643
0
LINE
8
Layer 1
10
127.264433
20
154.783643
11
127.979428
21
154.557845
0
LINE
8
Layer 1
10
127.979428
20
154.557845
11
129.014230
21
154.708310
0
LINE
8
Layer 1
10
129.014230
20
154.708310
11
130.011408
21
155.159826
0
LINE
8
Layer 1
10
130.011408
20
155.159826
11
131.892998
21
156.665006
0
LINE
8
Layer 1
10
131.892998
20
156.665006
11
133.473598
21
158.509006
0
LINE
8
Layer 1
10
133.473598
20
158.509006
11
134.752978
21
160.202396
0
LINE
8
Layer 1
10
134.752978
20
160.202396
11
135.130000
21
160.202000
0
LINE
8
Layer 1
10
135.130000
20
160.202000
11
135.130000
21
154.558000
0
LINE
8
Layer 1
10
135.130000
20
154.558000
11
135.280386
21
154.256782
0
LINE
8
Layer 1
10
135.280386
20
154.256782
11
135.619206
21
154.143994
0
LINE
8
Layer 1
10
135.619206
20
154.143994
11
135.995390
21
154.143994
0
LINE
8
Layer 1
10
135.995390
20
154.143994
11
136.258000
21
154.144000
0
LINE
8
Layer 1
10
136.258000
20
154.144000
11
137.612800
21
154.444993
0
LINE
8
Layer 1
10
137.612800
20
154.444993
11
139.005200
21
155.235183
0
LINE
8
Layer 1
10
139.005200
20
155.235183
11
140.134200
21
156.364183
0
LINE
8
Layer 1
10
140.134200
20
156.364183
11
140.472773
21
157.003986
0
LINE
8
Layer 1
10
140.472773
20
157.003986
11
140.585566
21
157.643793
0
LINE
8
Layer 1
10
140.585566
20
157.643793
11
140.284582
21
157.605988
0
LINE
8
Layer 1
10
140.284582
20
157.605988
11
140.021191
21
157.568399
0
LINE
8
Layer 1
10
140.021191
20
157.568399
11
138.516001
21
156.815807
0
LINE
8
Layer 1
10
138.516001
20
156.815807
11
138.440585
21
156.778218
0
LINE
8
Layer 1
10
138.440585
20
156.778218
11
138.328000
21
156.778000
0
LINE
8
Layer 1
10
138.328000
20
156.778000
11
137.989336
21
156.853233
0
LINE
8
Layer 1
10
137.989336
20
156.853233
11
137.801205
21
157.078993
0
LINE
8
Layer 1
10
137.801205
20
157.078993
11
137.725789
21
157.718797
0
LINE
8
Layer 1
10
137.725789
20
157.718797
11
137.819914
21
159.327495
0
LINE
8
Layer 1
10
137.819914
20
159.327495
11
138.102202
21
160.917367
0
LINE
8
Layer 1
10
138.102202
20
160.917367
11
138.929981
21
164.078577
0
LINE
8
Layer 1
10
138.929981
20
164.078577
11
139.757985
21
167.126547
0
LINE
8
Layer 1
10
139.757985
20
167.126547
11
140.040272
21
168.613061
0
LINE
8
Layer 1
10
140.040272
20
168.613061
11
140.134398
21
170.061947
0
LINE
8
Layer 1
10
140.134398
20
170.061947
11
140.134400
21
170.062460
0
LINE
8
Layer 1
10
57.947900
20
169.610000
11
55.755856
21
169.355904
0
LINE
8
Layer 1
10
55.755856
20
169.355904
11
53.695520
21
168.593780
0
LINE
8
Layer 1
10
53.695520
20
168.593780
11
51.861036
21
167.455530
0
LINE
8
Layer 1
10
51.861036
20
167.455530
11
50.271150
21
165.997410
0
LINE
8
Layer 1
10
50.271150
20
165.997410
11
48.954028
21
164.266305
0
LINE
8
Layer 1
10
48.954028
20
164.266305
11
47.937960
21
162.309420
0
LINE
8
Layer 1
10
47.937960
20
162.309420
11
47.316984
21
160.220839
0
LINE
8
Layer 1
10
47.316984
20
160.220839
11
47.109952
21
158.094630
0
LINE
8
Layer 1
10
47.109952
20
158.094630
11
47.072354
21
157.266842
0
LINE
8
Layer 1
10
47.072354
20
157.266842
11
47.147546
21
156.062652
0
LINE
8
Layer 1
10
47.147546
20
156.062652
11
47.486358
21
154.971252
0
LINE
8
Layer 1
10
47.486358
20
154.971252
11
47.815598
21
154.632557
0
LINE
8
Layer 1
10
47.815598
20
154.632557
11
48.276547
21
154.519652
0
LINE
8
Layer 1
10
48.276547
20
154.519652
11
49.170278
21
154.641946
0
LINE
8
Layer 1
10
49.170278
20
154.641946
11
49.969937
21
155.008845
0
LINE
8
Layer 1
10
49.969937
20
155.008845
11
51.399927
21
156.175435
0
LINE
8
Layer 1
10
51.399927
20
156.175435
11
52.792317
21
157.455045
0
LINE
8
Layer 1
10
52.792317
20
157.455045
11
53.535597
21
157.991221
0
LINE
8
Layer 1
10
53.535597
20
157.991221
11
54.335317
21
158.320426
0
LINE
8
Layer 1
10
54.335317
20
158.320426
11
54.485703
21
156.363646
0
LINE
8
Layer 1
10
54.485703
20
156.363646
11
54.673913
21
155.422931
0
LINE
8
Layer 1
10
54.673913
20
155.422931
11
55.087909
21
154.557476
0
LINE
8
Layer 1
10
55.087909
20
154.557476
11
55.276113
21
154.331674
0
LINE
8
Layer 1
10
55.276113
20
154.331674
11
55.464092
21
154.181067
0
LINE
8
Layer 1
10
55.464092
20
154.181067
11
55.878098
21
154.218656
0
LINE
8
Layer 1
10
55.878098
20
154.218656
11
56.517898
21
154.406860
0
LINE
8
Layer 1
10
56.517898
20
154.406860
11
57.232897
21
154.632658
0
LINE
8
Layer 1
10
57.232897
20
154.632658
11
57.722090
21
154.933651
0
LINE
8
Layer 1
10
57.722090
20
154.933651
11
58.662887
21
155.836850
0
LINE
8
Layer 1
10
58.662887
20
155.836850
11
59.791667
21
156.928250
0
LINE
8
Layer 1
10
59.791667
20
156.928250
11
60.694866
21
157.868822
0
LINE
8
Layer 1
10
60.694866
20
157.868822
11
61.108868
21
158.320422
0
LINE
8
Layer 1
10
61.108868
20
158.320422
11
61.108900
21
159.186000
0
LINE
8
Layer 1
10
61.108900
20
159.186000
11
60.920696
21
159.148411
0
LINE
8
Layer 1
10
60.920696
20
159.148411
11
60.732496
21
159.073216
0
LINE
8
Layer 1
10
60.732496
20
159.073216
11
58.474716
21
157.567806
0
LINE
8
Layer 1
10
58.474716
20
157.567806
11
58.399525
21
157.530217
0
LINE
8
Layer 1
10
58.399525
20
157.530217
11
58.286500
21
157.531000
0
LINE
8
Layer 1
10
58.286500
20
157.531000
11
58.173700
21
157.531000
0
LINE
8
Layer 1
10
58.173700
20
157.531000
11
58.098280
21
157.568589
0
LINE
8
Layer 1
10
58.098280
20
157.568589
11
57.872482
21
157.719196
0
LINE
8
Layer 1
10
57.872482
20
157.719196
11
57.722096
21
157.944998
0
LINE
8
Layer 1
10
57.722096
20
157.944998
11
57.684507
21
158.584577
0
LINE
8
Layer 1
10
57.684507
20
158.584577
11
57.684500
21
159.262000
0
LINE
8
Layer 1
10
57.684500
20
159.262000
11
57.797288
21
161.294200
0
LINE
8
Layer 1
10
57.797288
20
161.294200
11
58.098276
21
163.288580
0
LINE
8
Layer 1
10
58.098276
20
163.288580
11
58.361676
21
165.320780
0
LINE
8
Layer 1
10
58.361676
20
165.320780
11
58.512283
21
167.352760
0
LINE
8
Layer 1
10
58.512283
20
167.352760
11
58.512300
21
167.729000
0
LINE
8
Layer 1
10
58.512300
20
167.729000
11
58.474711
21
168.293388
0
LINE
8
Layer 1
10
58.474711
20
168.293388
11
58.474700
21
168.858000
0
LINE
8
Layer 1
10
58.474700
20
168.858000
11
58.474700
21
169.234000
0
LINE
8
Layer 1
10
58.474700
20
169.234000
11
58.286496
21
169.422204
0
LINE
8
Layer 1
10
58.286496
20
169.422204
11
58.098292
21
169.610408
0
LINE
8
Layer 1
10
58.098292
20
169.610408
11
57.947900
21
169.610000
0
LINE
8
Layer 1
10
87.939900
20
169.610000
11
85.747849
21
169.355904
0
LINE
8
Layer 1
10
85.747849
20
169.355904
11
83.687520
21
168.593780
0
LINE
8
Layer 1
10
83.687520
20
168.593780
11
81.853029
21
167.455530
0
LINE
8
Layer 1
10
81.853029
20
167.455530
11
80.263150
21
165.997410
0
LINE
8
Layer 1
10
80.263150
20
165.997410
11
78.946032
21
164.266305
0
LINE
8
Layer 1
10
78.946032
20
164.266305
11
77.929960
21
162.309420
0
LINE
8
Layer 1
10
77.929960
20
162.309420
11
77.309100
21
160.220839
0
LINE
8
Layer 1
10
77.309100
20
160.220839
11
77.102181
21
158.094630
0
LINE
8
Layer 1
10
77.102181
20
158.094630
11
77.064376
21
157.266842
0
LINE
8
Layer 1
10
77.064376
20
157.266842
11
77.139787
21
156.062652
0
LINE
8
Layer 1
10
77.139787
20
156.062652
11
77.478382
21
154.971252
0
LINE
8
Layer 1
10
77.478382
20
154.971252
11
77.807619
21
154.632557
0
LINE
8
Layer 1
10
77.807619
20
154.632557
11
78.268568
21
154.519652
0
LINE
8
Layer 1
10
78.268568
20
154.519652
11
79.162415
21
154.641946
0
LINE
8
Layer 1
10
79.162415
20
154.641946
11
79.962178
21
155.008845
0
LINE
8
Layer 1
10
79.962178
20
155.008845
11
81.392178
21
156.175435
0
LINE
8
Layer 1
10
81.392178
20
156.175435
11
82.784348
21
157.455045
0
LINE
8
Layer 1
10
82.784348
20
157.455045
11
83.527624
21
157.991221
0
LINE
8
Layer 1
10
83.527624
20
157.991221
11
84.327348
21
158.320426
0
LINE
8
Layer 1
10
84.327348
20
158.320426
11
84.477950
21
156.363646
0
LINE
8
Layer 1
10
84.477950
20
156.363646
11
84.666051
21
155.422931
0
LINE
8
Layer 1
10
84.666051
20
155.422931
11
85.079931
21
154.557476
0
LINE
8
Layer 1
10
85.079931
20
154.557476
11
85.268140
21
154.331674
0
LINE
8
Layer 1
10
85.268140
20
154.331674
11
85.456344
21
154.181067
0
LINE
8
Layer 1
10
85.456344
20
154.181067
11
85.870121
21
154.218656
0
LINE
8
Layer 1
10
85.870121
20
154.218656
11
86.509929
21
154.406860
0
LINE
8
Layer 1
10
86.509929
20
154.406860
11
87.224920
21
154.632658
0
LINE
8
Layer 1
10
87.224920
20
154.632658
11
87.714122
21
154.933651
0
LINE
8
Layer 1
10
87.714122
20
154.933651
11
88.654914
21
155.836850
0
LINE
8
Layer 1
10
88.654914
20
155.836850
11
89.783914
21
156.928250
0
LINE
8
Layer 1
10
89.783914
20
156.928250
11
90.687113
21
157.868822
0
LINE
8
Layer 1
10
90.687113
20
157.868822
11
91.100903
21
158.320422
0
LINE
8
Layer 1
10
91.100903
20
158.320422
11
91.100900
21
159.186000
0
LINE
8
Layer 1
10
91.100900
20
159.186000
11
90.912908
21
159.148411
0
LINE
8
Layer 1
10
90.912908
20
159.148411
11
90.724717
21
159.073216
0
LINE
8
Layer 1
10
90.724717
20
159.073216
11
88.466707
21
157.567806
0
LINE
8
Layer 1
10
88.466707
20
157.567806
11
88.391520
21
157.530217
0
LINE
8
Layer 1
10
88.391520
20
157.530217
11
88.278500
21
157.531000
0
LINE
8
Layer 1
10
88.278500
20
157.531000
11
88.165800
21
157.531000
0
LINE
8
Layer 1
10
88.165800
20
157.531000
11
88.090605
21
157.568589
0
LINE
8
Layer 1
10
88.090605
20
157.568589
11
87.864803
21
157.719196
0
LINE
8
Layer 1
10
87.864803
20
157.719196
11
87.714201
21
157.944998
0
LINE
8
Layer 1
10
87.714201
20
157.944998
11
87.676612
21
158.584577
0
LINE
8
Layer 1
10
87.676612
20
158.584577
11
87.676600
21
159.262000
0
LINE
8
Layer 1
10
87.676600
20
159.262000
11
87.789388
21
161.294200
0
LINE
8
Layer 1
10
87.789388
20
161.294200
11
88.090606
21
163.288580
0
LINE
8
Layer 1
10
88.090606
20
163.288580
11
88.354010
21
165.320780
0
LINE
8
Layer 1
10
88.354010
20
165.320780
11
88.504392
21
167.352760
0
LINE
8
Layer 1
10
88.504392
20
167.352760
11
88.504400
21
167.729000
0
LINE
8
Layer 1
10
88.504400
20
167.729000
11
88.466811
21
168.293388
0
LINE
8
Layer 1
10
88.466811
20
168.293388
11
88.466800
21
168.858000
0
LINE
8
Layer 1
10
88.466800
20
168.858000
11
88.466800
21
169.234000
0
LINE
8
Layer 1
10
88.466800
20
169.234000
11
88.278604
21
169.422204
0
LINE
8
Layer 1
10
88.278604
20
169.422204
11
88.090616
21
169.610408
0
LINE
8
Layer 1
10
88.090616
20
169.610408
11
87.939900
21
169.610000
0
LINE
8
Layer 1
10
121.431700
20
169.610000
11
119.239649
21
169.355904
0
LINE
8
Layer 1
10
119.239649
20
169.355904
11
117.179320
21
168.593780
0
LINE
8
Layer 1
10
117.179320
20
168.593780
11
115.344829
21
167.455530
0
LINE
8
Layer 1
10
115.344829
20
167.455530
11
113.754950
21
165.997410
0
LINE
8
Layer 1
10
113.754950
20
165.997410
11
112.437826
21
164.266305
0
LINE
8
Layer 1
10
112.437826
20
164.266305
11
111.421760
21
162.309420
0
LINE
8
Layer 1
10
111.421760
20
162.309420
11
110.800897
21
160.220839
0
LINE
8
Layer 1
10
110.800897
20
160.220839
11
110.593977
21
158.094630
0
LINE
8
Layer 1
10
110.593977
20
158.094630
11
110.556388
21
157.266842
0
LINE
8
Layer 1
10
110.556388
20
157.266842
11
110.631575
21
156.062652
0
LINE
8
Layer 1
10
110.631575
20
156.062652
11
110.970165
21
154.971252
0
LINE
8
Layer 1
10
110.970165
20
154.971252
11
111.299514
21
154.632557
0
LINE
8
Layer 1
10
111.299514
20
154.632557
11
111.760572
21
154.519652
0
LINE
8
Layer 1
10
111.760572
20
154.519652
11
112.654306
21
154.641946
0
LINE
8
Layer 1
10
112.654306
20
154.641946
11
113.453962
21
155.008845
0
LINE
8
Layer 1
10
113.453962
20
155.008845
11
114.883952
21
156.175435
0
LINE
8
Layer 1
10
114.883952
20
156.175435
11
116.276342
21
157.455045
0
LINE
8
Layer 1
10
116.276342
20
157.455045
11
117.019513
21
157.991221
0
LINE
8
Layer 1
10
117.019513
20
157.991221
11
117.819122
21
158.320426
0
LINE
8
Layer 1
10
117.819122
20
158.320426
11
117.969724
21
156.363646
0
LINE
8
Layer 1
10
117.969724
20
156.363646
11
118.157825
21
155.422931
0
LINE
8
Layer 1
10
118.157825
20
155.422931
11
118.571710
21
154.557476
0
LINE
8
Layer 1
10
118.571710
20
154.557476
11
118.759914
21
154.331674
0
LINE
8
Layer 1
10
118.759914
20
154.331674
11
118.948123
21
154.181067
0
LINE
8
Layer 1
10
118.948123
20
154.181067
11
119.361900
21
154.218656
0
LINE
8
Layer 1
10
119.361900
20
154.218656
11
120.001704
21
154.406860
0
LINE
8
Layer 1
10
120.001704
20
154.406860
11
120.716695
21
154.632658
0
LINE
8
Layer 1
10
120.716695
20
154.632658
11
121.205901
21
154.933651
0
LINE
8
Layer 1
10
121.205901
20
154.933651
11
122.146689
21
155.836850
0
LINE
8
Layer 1
10
122.146689
20
155.836850
11
123.275689
21
156.928250
0
LINE
8
Layer 1
10
123.275689
20
156.928250
11
124.178884
21
157.868822
0
LINE
8
Layer 1
10
124.178884
20
157.868822
11
124.592674
21
158.320422
0
LINE
8
Layer 1
10
124.592674
20
158.320422
11
124.593000
21
159.186000
0
LINE
8
Layer 1
10
124.593000
20
159.186000
11
124.405012
21
159.148411
0
LINE
8
Layer 1
10
124.405012
20
159.148411
11
124.216816
21
159.073216
0
LINE
8
Layer 1
10
124.216816
20
159.073216
11
121.958806
21
157.567806
0
LINE
8
Layer 1
10
121.958806
20
157.567806
11
121.883619
21
157.530217
0
LINE
8
Layer 1
10
121.883619
20
157.530217
11
121.771000
21
157.531000
0
LINE
8
Layer 1
10
121.771000
20
157.531000
11
121.658000
21
157.531000
0
LINE
8
Layer 1
10
121.658000
20
157.531000
11
121.582801
21
157.568589
0
LINE
8
Layer 1
10
121.582801
20
157.568589
11
121.357003
21
157.719196
0
LINE
8
Layer 1
10
121.357003
20
157.719196
11
121.206401
21
157.944998
0
LINE
8
Layer 1
10
121.206401
20
157.944998
11
121.168812
21
158.584577
0
LINE
8
Layer 1
10
121.168812
20
158.584577
11
121.168000
21
159.262000
0
LINE
8
Layer 1
10
121.168000
20
159.262000
11
121.281022
21
161.294200
0
LINE
8
Layer 1
10
121.281022
20
161.294200
11
121.582006
21
163.288580
0
LINE
8
Layer 1
10
121.582006
20
163.288580
11
121.845397
21
165.320780
0
LINE
8
Layer 1
10
121.845397
20
165.320780
11
121.996012
21
167.352760
0
LINE
8
Layer 1
10
121.996012
20
167.352760
11
121.996000
21
167.729000
0
LINE
8
Layer 1
10
121.996000
20
167.729000
11
121.958195
21
168.293388
0
LINE
8
Layer 1
10
121.958195
20
168.293388
11
121.959000
21
168.858000
0
LINE
8
Layer 1
10
121.959000
20
168.858000
11
121.959000
21
169.234000
0
LINE
8
Layer 1
10
121.959000
20
169.234000
11
121.771021
21
169.422204
0
LINE
8
Layer 1
10
121.771021
20
169.422204
11
121.582817
21
169.610408
0
LINE
8
Layer 1
10
121.582817
20
169.610408
11
121.431700
21
169.610000
0
LINE
8
Layer 1
10
106.040600
20
168.970192
11
104.648249
21
168.819726
0
LINE
8
Layer 1
10
104.648249
20
168.819726
11
103.406420
21
168.368206
0
LINE
8
Layer 1
10
103.406420
20
168.368206
11
102.305705
21
167.690766
0
LINE
8
Layer 1
10
102.305705
20
167.690766
11
101.261440
21
166.862796
0
LINE
8
Layer 1
10
101.261440
20
166.862796
11
99.379850
21
164.981206
0
LINE
8
Layer 1
10
99.379850
20
164.981206
11
97.498270
21
163.137426
0
LINE
8
Layer 1
10
97.498270
20
163.137426
11
97.498300
21
168.180000
0
LINE
8
Layer 1
10
97.498300
20
168.180000
11
97.347689
21
168.556184
0
LINE
8
Layer 1
10
97.347689
20
168.556184
11
97.122117
21
168.932588
0
LINE
8
Layer 1
10
97.122117
20
168.932588
11
96.971500
21
168.933000
0
LINE
8
Layer 1
10
96.971500
20
168.933000
11
96.218910
21
168.838875
0
LINE
8
Layer 1
10
96.218910
20
168.838875
11
95.466320
21
168.556596
0
LINE
8
Layer 1
10
95.466320
20
168.556596
11
94.073910
21
167.691215
0
LINE
8
Layer 1
10
94.073910
20
167.691215
11
92.794310
21
166.562205
0
LINE
8
Layer 1
10
92.794310
20
166.562205
11
91.853509
21
165.470805
0
LINE
8
Layer 1
10
91.853509
20
165.470805
11
92.530906
21
165.583819
0
LINE
8
Layer 1
10
92.530906
20
165.583819
11
93.396512
21
165.621408
0
LINE
8
Layer 1
10
93.396512
20
165.621408
11
94.149109
21
165.395606
0
LINE
8
Layer 1
10
94.149109
20
165.395606
11
94.403075
21
165.132171
0
LINE
8
Layer 1
10
94.403075
20
165.132171
11
94.487699
21
164.718209
0
LINE
8
Layer 1
10
94.487699
20
164.718209
11
94.337313
21
162.084019
0
LINE
8
Layer 1
10
94.337313
20
162.084019
11
94.036316
21
159.412239
0
LINE
8
Layer 1
10
94.036316
20
159.412239
11
93.735102
21
156.778049
0
LINE
8
Layer 1
10
93.735102
20
156.778049
11
93.622309
21
154.106269
0
LINE
8
Layer 1
10
93.622309
20
154.106269
11
94.807644
21
154.303800
0
LINE
8
Layer 1
10
94.807644
20
154.303800
11
95.654289
21
154.896459
0
LINE
8
Layer 1
10
95.654289
20
154.896459
11
96.256456
21
155.799585
0
LINE
8
Layer 1
10
96.256456
20
155.799585
11
96.708099
21
156.853239
0
LINE
8
Layer 1
10
96.708099
20
156.853239
11
97.385501
21
159.186429
0
LINE
8
Layer 1
10
97.385501
20
159.186429
11
97.752332
21
160.287104
0
LINE
8
Layer 1
10
97.752332
20
160.287104
11
98.250877
21
161.180809
0
LINE
8
Layer 1
10
98.250877
20
161.180809
11
99.191665
21
162.686219
0
LINE
8
Layer 1
10
99.191665
20
162.686219
11
100.433455
21
164.342019
0
LINE
8
Layer 1
10
100.433455
20
164.342019
11
101.901275
21
165.658999
0
LINE
8
Layer 1
10
101.901275
20
165.658999
11
102.766732
21
166.082421
0
LINE
8
Layer 1
10
102.766732
20
166.082421
11
103.707455
21
166.223608
0
LINE
8
Layer 1
10
103.707455
20
166.223608
11
103.896000
21
166.224000
0
LINE
8
Layer 1
10
103.896000
20
166.224000
11
104.084209
21
166.035796
0
LINE
8
Layer 1
10
104.084209
20
166.035796
11
104.272413
21
165.847592
0
LINE
8
Layer 1
10
104.272413
20
165.847592
11
104.272000
21
165.057000
0
LINE
8
Layer 1
10
104.272000
20
165.057000
11
104.309589
21
164.304408
0
LINE
8
Layer 1
10
104.309589
20
164.304408
11
104.083791
21
160.992818
0
LINE
8
Layer 1
10
104.083791
20
160.992818
11
103.857989
21
157.681228
0
LINE
8
Layer 1
10
103.857989
20
157.681228
11
103.858000
21
157.230000
0
LINE
8
Layer 1
10
103.858000
20
157.230000
11
103.858000
21
156.515000
0
LINE
8
Layer 1
10
103.858000
20
156.515000
11
103.895589
21
155.800005
0
LINE
8
Layer 1
10
103.895589
20
155.800005
11
103.896000
21
155.386000
0
LINE
8
Layer 1
10
103.896000
20
155.386000
11
104.385206
21
154.407606
0
LINE
8
Layer 1
10
104.385206
20
154.407606
11
104.780317
21
154.238260
0
LINE
8
Layer 1
10
104.780317
20
154.238260
11
105.363587
21
154.181808
0
LINE
8
Layer 1
10
105.363587
20
154.181808
11
106.793587
21
154.445203
0
LINE
8
Layer 1
10
106.793587
20
154.445203
11
108.374187
21
155.235389
0
LINE
8
Layer 1
10
108.374187
20
155.235389
11
109.615977
21
156.364389
0
LINE
8
Layer 1
10
109.615977
20
156.364389
11
110.011085
21
157.032363
0
LINE
8
Layer 1
10
110.011085
20
157.032363
11
110.142772
21
157.756789
0
LINE
8
Layer 1
10
110.142772
20
157.756789
11
109.512463
21
157.672165
0
LINE
8
Layer 1
10
109.512463
20
157.672165
11
108.900982
21
157.418199
0
LINE
8
Layer 1
10
108.900982
20
157.418199
11
107.659192
21
156.929002
0
LINE
8
Layer 1
10
107.659192
20
156.929002
11
107.471000
21
156.929000
0
LINE
8
Layer 1
10
107.471000
20
156.929000
11
107.282000
21
156.929000
0
LINE
8
Layer 1
10
107.282000
20
156.929000
11
107.056198
21
157.079386
0
LINE
8
Layer 1
10
107.056198
20
157.079386
11
106.905816
21
157.305188
0
LINE
8
Layer 1
10
106.905816
20
157.305188
11
106.906000
21
157.681000
0
LINE
8
Layer 1
10
106.906000
20
157.681000
11
106.868195
21
158.282981
0
LINE
8
Layer 1
10
106.868195
20
158.282981
11
106.868000
21
158.848000
0
LINE
8
Layer 1
10
106.868000
20
158.848000
11
106.868000
21
159.262000
0
LINE
8
Layer 1
10
106.868000
20
159.262000
11
107.093811
21
162.724190
0
LINE
8
Layer 1
10
107.093811
20
162.724190
11
107.319609
21
166.223980
0
LINE
8
Layer 1
10
107.319609
20
166.223980
11
107.320000
21
166.637000
0
LINE
8
Layer 1
10
107.320000
20
166.637000
11
107.282411
21
167.201613
0
LINE
8
Layer 1
10
107.282411
20
167.201613
11
107.282000
21
167.804000
0
LINE
8
Layer 1
10
107.282000
20
167.804000
11
107.282000
21
168.180000
0
LINE
8
Layer 1
10
107.282000
20
168.180000
11
107.037420
21
168.650409
0
LINE
8
Layer 1
10
107.037420
20
168.650409
11
106.755214
21
168.857397
0
LINE
8
Layer 1
10
106.755214
20
168.857397
11
106.040211
21
168.970185
0
LINE
8
Layer 1
10
106.040211
20
168.970185
11
106.040600
21
168.970192
0
LINE
8
Layer 1
10
148.601500
20
168.217600
11
147.387916
21
168.076524
0
LINE
8
Layer 1
10
147.387916
20
168.076524
11
146.155510
21
167.653212
0
LINE
8
Layer 1
10
146.155510
20
167.653212
11
144.998273
21
166.994587
0
LINE
8
Layer 1
10
144.998273
20
166.994587
11
143.935110
21
166.147802
0
LINE
8
Layer 1
10
143.935110
20
166.147802
11
143.041343
21
165.178870
0
LINE
8
Layer 1
10
143.041343
20
165.178870
11
142.316920
21
164.078232
0
LINE
8
Layer 1
10
142.316920
20
164.078232
11
141.837190
21
162.902243
0
LINE
8
Layer 1
10
141.837190
20
162.902243
11
141.677333
21
161.707442
0
LINE
8
Layer 1
10
141.677333
20
161.707442
11
141.837191
21
160.710195
0
LINE
8
Layer 1
10
141.837191
20
160.710195
11
142.316920
21
159.825852
0
LINE
8
Layer 1
10
142.316920
20
159.825852
11
143.060233
21
159.167235
0
LINE
8
Layer 1
10
143.060233
20
159.167235
11
144.010530
21
158.772042
0
LINE
8
Layer 1
10
144.010530
20
158.772042
11
143.445921
21
158.132459
0
LINE
8
Layer 1
10
143.445921
20
158.132459
11
142.693324
21
157.191662
0
LINE
8
Layer 1
10
142.693324
20
157.191662
11
142.015927
21
156.100262
0
LINE
8
Layer 1
10
142.015927
20
156.100262
11
141.752532
21
155.197063
0
LINE
8
Layer 1
10
141.752532
20
155.197063
11
141.865437
21
154.444514
0
LINE
8
Layer 1
10
141.865437
20
154.444514
11
142.204132
21
153.842493
0
LINE
8
Layer 1
10
142.204132
20
153.842493
11
143.408332
21
152.939294
0
LINE
8
Layer 1
10
143.408332
20
152.939294
11
144.951102
21
152.224295
0
LINE
8
Layer 1
10
144.951102
20
152.224295
11
146.531702
21
151.546898
0
LINE
8
Layer 1
10
146.531702
20
151.546898
11
147.698302
21
150.606101
0
LINE
8
Layer 1
10
147.698302
20
150.606101
11
148.065199
21
149.966368
0
LINE
8
Layer 1
10
148.065199
20
149.966368
11
148.187495
21
149.176111
0
LINE
8
Layer 1
10
148.187495
20
149.176111
11
147.980575
21
148.461154
0
LINE
8
Layer 1
10
147.980575
20
148.461154
11
147.359712
21
147.896721
0
LINE
8
Layer 1
10
147.359712
20
147.896721
11
146.503569
21
147.463980
0
LINE
8
Layer 1
10
146.503569
20
147.463980
11
145.515712
21
147.144133
0
LINE
8
Layer 1
10
145.515712
20
147.144133
11
143.408332
21
146.805317
0
LINE
8
Layer 1
10
143.408332
20
146.805317
11
141.940742
21
146.730126
0
LINE
8
Layer 1
10
141.940742
20
146.730126
11
141.753000
21
146.731000
0
LINE
8
Layer 1
10
141.753000
20
146.731000
11
140.360600
21
147.295388
0
LINE
8
Layer 1
10
140.360600
20
147.295388
11
138.742410
21
148.198587
0
LINE
8
Layer 1
10
138.742410
20
148.198587
11
137.237230
21
149.026370
0
LINE
8
Layer 1
10
137.237230
20
149.026370
11
136.296425
21
149.402779
0
LINE
8
Layer 1
10
136.296425
20
149.402779
11
135.694444
21
149.176981
0
LINE
8
Layer 1
10
135.694444
20
149.176981
11
135.280438
21
148.574770
0
LINE
8
Layer 1
10
135.280438
20
148.574770
11
135.017047
21
147.897594
0
LINE
8
Layer 1
10
135.017047
20
147.897594
11
134.941631
21
147.257794
0
LINE
8
Layer 1
10
134.941631
20
147.257794
11
135.101597
21
146.608675
0
LINE
8
Layer 1
10
135.101597
20
146.608675
11
135.581435
21
146.016004
0
LINE
8
Layer 1
10
135.581435
20
146.016004
11
136.249375
21
145.460860
0
LINE
8
Layer 1
10
136.249375
20
145.460860
11
137.049025
21
144.999794
0
LINE
8
Layer 1
10
137.049025
20
144.999794
11
138.780235
21
144.360215
0
LINE
8
Layer 1
10
138.780235
20
144.360215
11
140.247825
21
144.096811
0
LINE
8
Layer 1
10
140.247825
20
144.096811
11
141.894115
21
144.200224
0
LINE
8
Layer 1
10
141.894115
20
144.200224
11
143.747375
21
144.510597
0
LINE
8
Layer 1
10
143.747375
20
144.510597
11
145.676029
21
145.046893
0
LINE
8
Layer 1
10
145.676029
20
145.046893
11
147.472975
21
145.827797
0
LINE
8
Layer 1
10
147.472975
20
145.827797
11
149.062876
21
146.824972
0
LINE
8
Layer 1
10
149.062876
20
146.824972
11
150.370545
21
148.085577
0
LINE
8
Layer 1
10
150.370545
20
148.085577
11
150.897385
21
148.819416
0
LINE
8
Layer 1
10
150.897385
20
148.819416
11
151.273697
21
149.628551
0
LINE
8
Layer 1
10
151.273697
20
149.628551
11
151.499483
21
150.512950
0
LINE
8
Layer 1
10
151.499483
20
150.512950
11
151.574745
21
151.472577
0
LINE
8
Layer 1
10
151.574745
20
151.472577
11
151.452449
21
152.356840
0
LINE
8
Layer 1
10
151.452449
20
152.356840
11
151.085552
21
153.052957
0
LINE
8
Layer 1
10
151.085552
20
153.052957
11
150.558716
21
153.608100
0
LINE
8
Layer 1
10
150.558716
20
153.608100
11
149.881362
21
154.069167
0
LINE
8
Layer 1
10
149.881362
20
154.069167
11
148.338572
21
154.708746
0
LINE
8
Layer 1
10
148.338572
20
154.708746
11
146.757972
21
155.235541
0
LINE
8
Layer 1
10
146.757972
20
155.235541
11
145.553782
21
155.912938
0
LINE
8
Layer 1
10
145.553782
20
155.912938
11
145.215085
21
156.345687
0
LINE
8
Layer 1
10
145.215085
20
156.345687
11
145.102187
21
156.891332
0
LINE
8
Layer 1
10
145.102187
20
156.891332
11
145.102000
21
157.079000
0
LINE
8
Layer 1
10
145.102000
20
157.079000
11
145.139589
21
157.267204
0
LINE
8
Layer 1
10
145.139589
20
157.267204
11
146.193389
21
158.358604
0
LINE
8
Layer 1
10
146.193389
20
158.358604
11
147.773769
21
160.089594
0
LINE
8
Layer 1
10
147.773769
20
160.089594
11
149.354369
21
161.782984
0
LINE
8
Layer 1
10
149.354369
20
161.782984
11
150.407949
21
162.911984
0
LINE
8
Layer 1
10
150.407949
20
162.911984
11
150.596158
21
163.212977
0
LINE
8
Layer 1
10
150.596158
20
163.212977
11
150.972571
21
163.814958
0
LINE
8
Layer 1
10
150.972571
20
163.814958
11
151.311161
21
164.417173
0
LINE
8
Layer 1
10
151.311161
20
164.417173
11
151.536959
21
164.793577
0
LINE
8
Layer 1
10
151.536959
20
164.793577
11
152.628349
21
165.357965
0
LINE
8
Layer 1
10
152.628349
20
165.357965
11
154.171139
21
166.110557
0
LINE
8
Layer 1
10
154.171139
20
166.110557
11
155.563529
21
167.051358
0
LINE
8
Layer 1
10
155.563529
20
167.051358
11
156.015163
21
167.606429
0
LINE
8
Layer 1
10
156.015163
20
167.606429
11
156.165744
21
168.217948
0
LINE
8
Layer 1
10
156.165744
20
168.217948
11
154.810944
21
167.992150
0
LINE
8
Layer 1
10
154.810944
20
167.992150
11
153.456144
21
167.766348
0
LINE
8
Layer 1
10
153.456144
20
167.766348
11
151.010164
21
167.992150
0
LINE
8
Layer 1
10
151.010164
20
167.992150
11
148.601784
21
168.217948
0
LINE
8
Layer 1
10
148.601784
20
168.217948
11
148.601500
21
168.217600
0
LINE
8
Layer 1
10
55.652300
20
166.674600
11
55.567618
21
165.341047
0
LINE
8
Layer 1
10
55.567618
20
165.341047
11
55.313582
21
164.049844
0
LINE
8
Layer 1
10
55.313582
20
164.049844
11
54.890205
21
162.800976
0
LINE
8
Layer 1
10
54.890205
20
162.800976
11
54.297500
21
161.594430
0
LINE
8
Layer 1
10
54.297500
20
161.594430
11
52.801659
21
159.421205
0
LINE
8
Layer 1
10
52.801659
20
159.421205
11
50.948320
21
157.567840
0
LINE
8
Layer 1
10
50.948320
20
157.567840
11
50.760341
21
157.530251
0
LINE
8
Layer 1
10
50.760341
20
157.530251
11
50.572200
21
157.531000
0
LINE
8
Layer 1
10
50.572200
20
157.531000
11
50.233466
21
157.606233
0
LINE
8
Layer 1
10
50.233466
20
157.606233
11
49.969995
21
157.831993
0
LINE
8
Layer 1
10
49.969995
20
157.831993
11
49.593807
21
158.622404
0
LINE
8
Layer 1
10
49.593807
20
158.622404
11
49.443201
21
159.525387
0
LINE
8
Layer 1
10
49.443201
20
159.525387
11
49.405603
21
160.240382
0
LINE
8
Layer 1
10
49.405603
20
160.240382
11
49.518510
21
161.604529
0
LINE
8
Layer 1
10
49.518510
20
161.604529
11
49.857206
21
162.836972
0
LINE
8
Layer 1
10
49.857206
20
162.836972
11
50.402820
21
163.947152
0
LINE
8
Layer 1
10
50.402820
20
163.947152
11
51.136586
21
164.869172
0
LINE
8
Layer 1
10
51.136586
20
164.869172
11
52.039714
21
165.631149
0
LINE
8
Layer 1
10
52.039714
20
165.631149
11
53.093366
21
166.186152
0
LINE
8
Layer 1
10
53.093366
20
166.186152
11
54.316414
21
166.553055
0
LINE
8
Layer 1
10
54.316414
20
166.553055
11
55.652356
21
166.675354
0
LINE
8
Layer 1
10
55.652356
20
166.675354
11
55.652300
21
166.674600
0
LINE
8
Layer 1
10
85.644300
20
166.674600
11
85.559653
21
165.341047
0
LINE
8
Layer 1
10
85.559653
20
165.341047
11
85.305694
21
164.049844
0
LINE
8
Layer 1
10
85.305694
20
164.049844
11
84.882395
21
162.800976
0
LINE
8
Layer 1
10
84.882395
20
162.800976
11
84.289730
21
161.594430
0
LINE
8
Layer 1
10
84.289730
20
161.594430
11
82.793884
21
159.421205
0
LINE
8
Layer 1
10
82.793884
20
159.421205
11
80.940550
21
157.567840
0
LINE
8
Layer 1
10
80.940550
20
157.567840
11
80.752341
21
157.530251
0
LINE
8
Layer 1
10
80.752341
20
157.530251
11
80.564200
21
157.531000
0
LINE
8
Layer 1
10
80.564200
20
157.531000
11
80.225577
21
157.606233
0
LINE
8
Layer 1
10
80.225577
20
157.606233
11
79.962214
21
157.831993
0
LINE
8
Layer 1
10
79.962214
20
157.831993
11
79.585814
21
158.622404
0
LINE
8
Layer 1
10
79.585814
20
158.622404
11
79.435203
21
159.525387
0
LINE
8
Layer 1
10
79.435203
20
159.525387
11
79.397614
21
160.240382
0
LINE
8
Layer 1
10
79.397614
20
160.240382
11
79.510517
21
161.604529
0
LINE
8
Layer 1
10
79.510517
20
161.604529
11
79.849209
21
162.836972
0
LINE
8
Layer 1
10
79.849209
20
162.836972
11
80.394825
21
163.947152
0
LINE
8
Layer 1
10
80.394825
20
163.947152
11
81.128589
21
164.869172
0
LINE
8
Layer 1
10
81.128589
20
164.869172
11
82.031830
21
165.631149
0
LINE
8
Layer 1
10
82.031830
20
165.631149
11
83.085599
21
166.186152
0
LINE
8
Layer 1
10
83.085599
20
166.186152
11
84.308537
21
166.553055
0
LINE
8
Layer 1
10
84.308537
20
166.553055
11
85.644369
21
166.675354
0
LINE
8
Layer 1
10
85.644369
20
166.675354
11
85.644300
21
166.674600
0
LINE
8
Layer 1
10
119.136300
20
166.674600
11
119.051617
21
165.341047
0
LINE
8
Layer 1
10
119.051617
20
165.341047
11
118.797578
21
164.049844
0
LINE
8
Layer 1
10
118.797578
20
164.049844
11
118.374197
21
162.800976
0
LINE
8
Layer 1
10
118.374197
20
162.800976
11
117.781490
21
161.594430
0
LINE
8
Layer 1
10
117.781490
20
161.594430
11
116.285656
21
159.421205
0
LINE
8
Layer 1
10
116.285656
20
159.421205
11
114.432320
21
157.567840
0
LINE
8
Layer 1
10
114.432320
20
157.567840
11
114.244116
21
157.530251
0
LINE
8
Layer 1
10
114.244116
20
157.530251
11
114.056000
21
157.531000
0
LINE
8
Layer 1
10
114.056000
20
157.531000
11
113.717379
21
157.606233
0
LINE
8
Layer 1
10
113.717379
20
157.606233
11
113.454019
21
157.831993
0
LINE
8
Layer 1
10
113.454019
20
157.831993
11
113.077615
21
158.622404
0
LINE
8
Layer 1
10
113.077615
20
158.622404
11
112.927004
21
159.525387
0
LINE
8
Layer 1
10
112.927004
20
159.525387
11
112.889415
21
160.240382
0
LINE
8
Layer 1
10
112.889415
20
160.240382
11
113.002320
21
161.604529
0
LINE
8
Layer 1
10
113.002320
20
161.604529
11
113.341015
21
162.836972
0
LINE
8
Layer 1
10
113.341015
20
162.836972
11
113.886739
21
163.947152
0
LINE
8
Layer 1
10
113.886739
20
163.947152
11
114.620625
21
164.869172
0
LINE
8
Layer 1
10
114.620625
20
164.869172
11
115.523749
21
165.631149
0
LINE
8
Layer 1
10
115.523749
20
165.631149
11
116.577405
21
166.186152
0
LINE
8
Layer 1
10
116.577405
20
166.186152
11
117.800447
21
166.553055
0
LINE
8
Layer 1
10
117.800447
20
166.553055
11
119.136395
21
166.675354
0
LINE
8
Layer 1
10
119.136395
20
166.675354
11
119.136300
21
166.674600
0
LINE
8
Layer 1
10
146.983300
20
165.959601
11
147.585511
21
165.846813
0
LINE
8
Layer 1
10
147.585511
20
165.846813
11
148.149903
21
165.470404
0
LINE
8
Layer 1
10
148.149903
20
165.470404
11
148.309855
21
165.112961
0
LINE
8
Layer 1
10
148.309855
20
165.112961
11
148.338099
21
164.642621
0
LINE
8
Layer 1
10
148.338099
20
164.642621
11
148.300510
21
163.927626
0
LINE
8
Layer 1
10
148.300510
20
163.927626
11
148.074708
21
162.986825
0
LINE
8
Layer 1
10
148.074708
20
162.986825
11
147.472510
21
162.196639
0
LINE
8
Layer 1
10
147.472510
20
162.196639
11
146.644714
21
161.632026
0
LINE
8
Layer 1
10
146.644714
20
161.632026
11
145.816714
21
161.443822
0
LINE
8
Layer 1
10
145.816714
20
161.443822
11
145.205229
21
161.556729
0
LINE
8
Layer 1
10
145.205229
20
161.556729
11
144.800724
21
161.895422
0
LINE
8
Layer 1
10
144.800724
20
161.895422
11
144.574960
21
162.403476
0
LINE
8
Layer 1
10
144.574960
20
162.403476
11
144.499727
21
163.024422
0
LINE
8
Layer 1
10
144.499727
20
163.024422
11
144.650109
21
164.115832
0
LINE
8
Layer 1
10
144.650109
20
164.115832
11
145.139315
21
165.056624
0
LINE
8
Layer 1
10
145.139315
20
165.056624
11
145.929722
21
165.696207
0
LINE
8
Layer 1
10
145.929722
20
165.696207
11
146.983302
21
165.959602
0
LINE
8
Layer 1
10
146.983302
20
165.959602
11
146.983300
21
165.959601
0
LINE
8
Layer 1
10
114.482000
20
67.867200
11
113.247370
21
67.825887
0
LINE
8
Layer 1
10
113.247370
20
67.825887
11
111.519000
21
67.825900
0
LINE
8
Layer 1
10
111.519000
20
67.825900
11
108.602041
21
67.687013
0
LINE
8
Layer 1
10
108.602041
20
67.687013
11
105.777684
21
67.270340
0
LINE
8
Layer 1
10
105.777684
20
67.270340
11
103.045935
21
66.575862
0
LINE
8
Layer 1
10
103.045935
20
66.575862
11
100.406800
21
65.603560
0
LINE
8
Layer 1
10
100.406800
20
65.603560
11
97.937431
21
64.430593
0
LINE
8
Layer 1
10
97.937431
20
64.430593
11
95.632695
21
63.051828
0
LINE
8
Layer 1
10
95.632695
20
63.051828
11
93.492584
21
61.467281
0
LINE
8
Layer 1
10
93.492584
20
61.467281
11
91.517090
21
59.676970
0
LINE
8
Layer 1
10
91.517090
20
59.676970
11
89.726779
21
57.701475
0
LINE
8
Layer 1
10
89.726779
20
57.701475
11
88.142233
21
55.561361
0
LINE
8
Layer 1
10
88.142233
20
55.561361
11
86.763467
21
53.256625
0
LINE
8
Layer 1
10
86.763467
20
53.256625
11
85.590500
21
50.787260
0
LINE
8
Layer 1
10
85.590500
20
50.787260
11
84.654205
21
48.230440
0
LINE
8
Layer 1
10
84.654205
20
48.230440
11
83.985428
21
45.581026
0
LINE
8
Layer 1
10
83.985428
20
45.581026
11
83.584164
21
42.839004
0
LINE
8
Layer 1
10
83.584164
20
42.839004
11
83.450410
21
40.004360
0
LINE
8
Layer 1
10
83.450410
20
40.004360
11
83.573870
21
37.864224
0
LINE
8
Layer 1
10
83.573870
20
37.864224
11
83.944271
21
35.394830
0
LINE
8
Layer 1
10
83.944271
20
35.394830
11
84.602762
21
32.822614
0
LINE
8
Layer 1
10
84.602762
20
32.822614
11
85.590501
21
30.373870
0
LINE
8
Layer 1
10
85.590501
20
30.373870
11
86.928077
21
28.233749
0
LINE
8
Layer 1
10
86.928077
20
28.233749
11
88.636051
21
26.422870
0
LINE
8
Layer 1
10
88.636051
20
26.422870
11
89.644394
21
25.738643
0
LINE
8
Layer 1
10
89.644394
20
25.738643
11
90.776220
21
25.249898
0
LINE
8
Layer 1
10
90.776220
20
25.249898
11
92.031516
21
24.956643
0
LINE
8
Layer 1
10
92.031516
20
24.956643
11
93.410271
21
24.858890
0
LINE
8
Layer 1
10
93.410271
20
24.858890
11
99.748281
21
25.105821
0
LINE
8
Layer 1
10
99.748281
20
25.105821
11
102.608665
21
25.558540
0
LINE
8
Layer 1
10
102.608665
20
25.558540
11
105.263271
21
26.258201
0
LINE
8
Layer 1
10
105.263271
20
26.258201
11
107.814935
21
27.328207
0
LINE
8
Layer 1
10
107.814935
20
27.328207
11
110.201981
21
28.727461
0
LINE
8
Layer 1
10
110.201981
20
28.727461
11
112.547899
21
30.558912
0
LINE
8
Layer 1
10
112.547899
20
30.558912
11
114.811511
21
32.925391
0
LINE
8
Layer 1
10
114.811511
20
32.925391
11
113.988305
21
33.666347
0
LINE
8
Layer 1
10
113.988305
20
33.666347
11
110.942765
21
32.513957
0
LINE
8
Layer 1
10
110.942765
20
32.513957
11
108.308815
21
31.773178
0
LINE
8
Layer 1
10
108.308815
20
31.773178
11
105.674875
21
31.279148
0
LINE
8
Layer 1
10
105.674875
20
31.279148
11
102.464655
21
31.196898
0
LINE
8
Layer 1
10
102.464655
20
31.196898
11
101.476000
21
31.196900
0
LINE
8
Layer 1
10
101.476000
20
31.196900
11
99.994900
21
31.196900
0
LINE
8
Layer 1
10
99.994900
20
31.196900
11
98.430920
21
31.279150
0
LINE
8
Layer 1
10
98.430920
20
31.279150
11
97.525500
21
31.279200
0
LINE
8
Layer 1
10
97.525500
20
31.279200
11
95.426550
21
32.483036
0
LINE
8
Layer 1
10
95.426550
20
32.483036
11
93.656869
21
33.872089
0
LINE
8
Layer 1
10
93.656869
20
33.872089
11
92.216435
21
35.446345
0
LINE
8
Layer 1
10
92.216435
20
35.446345
11
91.105230
21
37.205790
0
LINE
8
Layer 1
10
91.105230
20
37.205790
11
90.276967
21
39.155556
0
LINE
8
Layer 1
10
90.276967
20
39.155556
11
89.685355
21
41.218488
0
LINE
8
Layer 1
10
89.685355
20
41.218488
11
89.330391
21
43.394598
0
LINE
8
Layer 1
10
89.330391
20
43.394598
11
89.212070
21
45.683900
0
LINE
8
Layer 1
10
89.212070
20
45.683900
11
89.289230
21
47.391903
0
LINE
8
Layer 1
10
89.289230
20
47.391903
11
89.520715
21
49.058772
0
LINE
8
Layer 1
10
89.520715
20
49.058772
11
89.906539
21
50.684486
0
LINE
8
Layer 1
10
89.906539
20
50.684486
11
90.446710
21
52.269020
0
LINE
8
Layer 1
10
90.446710
20
52.269020
11
91.928318
21
55.149899
0
LINE
8
Layer 1
10
91.928318
20
55.149899
11
93.739180
21
57.536910
0
LINE
8
Layer 1
10
93.739180
20
57.536910
11
94.788658
21
58.601827
0
LINE
8
Layer 1
10
94.788658
20
58.601827
11
95.961597
21
59.574146
0
LINE
8
Layer 1
10
95.961597
20
59.574146
11
98.677890
21
61.240980
0
LINE
8
Layer 1
10
98.677890
20
61.240980
11
101.908737
21
62.681422
0
LINE
8
Layer 1
10
101.908737
20
62.681422
11
105.674620
21
63.874920
0
LINE
8
Layer 1
10
105.674620
20
63.874920
11
108.061636
21
63.751462
0
LINE
8
Layer 1
10
108.061636
20
63.751462
11
110.448660
21
63.381067
0
LINE
8
Layer 1
10
110.448660
20
63.381067
11
112.856305
21
63.072465
0
LINE
8
Layer 1
10
112.856305
20
63.072465
11
115.305110
21
62.969642
0
LINE
8
Layer 1
10
115.305110
20
62.969642
11
116.539750
21
63.298818
0
LINE
8
Layer 1
10
116.539750
20
63.298818
11
117.774390
21
64.204278
0
LINE
8
Layer 1
10
117.774390
20
64.204278
11
118.926780
21
65.274228
0
LINE
8
Layer 1
10
118.926780
20
65.274228
11
119.749986
21
66.179683
0
LINE
8
Layer 1
10
119.749986
20
66.179683
11
119.091488
21
66.879344
0
LINE
8
Layer 1
10
119.091488
20
66.879344
11
118.103746
21
67.332063
0
LINE
8
Layer 1
10
118.103746
20
67.332063
11
116.971970
21
67.661304
0
LINE
8
Layer 1
10
116.971970
20
67.661304
11
115.716726
21
67.825916
0
LINE
8
Layer 1
10
115.716726
20
67.825916
11
114.481916
21
67.867229
0
LINE
8
Layer 1
10
114.481916
20
67.867229
11
114.482000
21
67.867200
0
LINE
8
Layer 1
10
153.568000
20
133.876000
11
151.942630
21
133.737462
0
LINE
8
Layer 1
10
151.942630
20
133.737462
11
148.926681
21
132.936314
0
LINE
8
Layer 1
10
148.926681
20
132.936314
11
147.692623
21
132.455146
0
LINE
8
Layer 1
10
147.692623
20
132.455146
11
147.198610
21
132.111322
0
LINE
8
Layer 1
10
147.198610
20
132.111322
11
147.670533
21
131.791110
0
LINE
8
Layer 1
10
147.670533
20
131.791110
11
148.197497
21
131.642885
0
LINE
8
Layer 1
10
148.197497
20
131.642885
11
149.055973
21
131.944558
0
LINE
8
Layer 1
10
149.055973
20
131.944558
11
150.823176
21
132.553638
0
LINE
8
Layer 1
10
150.823176
20
132.553638
11
152.548610
21
132.896989
0
LINE
8
Layer 1
10
152.548610
20
132.896989
11
154.173533
21
132.967341
0
LINE
8
Layer 1
10
154.173533
20
132.967341
11
155.639203
21
132.757427
0
LINE
8
Layer 1
10
155.639203
20
132.757427
11
157.279653
21
132.078108
0
LINE
8
Layer 1
10
157.279653
20
132.078108
11
158.443103
21
131.141447
0
LINE
8
Layer 1
10
158.443103
20
131.141447
11
158.830862
21
130.106733
0
LINE
8
Layer 1
10
158.830862
20
130.106733
11
158.728380
21
128.999047
0
LINE
8
Layer 1
10
158.728380
20
128.999047
11
158.361408
21
128.447368
0
LINE
8
Layer 1
10
158.361408
20
128.447368
11
157.738816
21
127.873956
0
LINE
8
Layer 1
10
157.738816
20
127.873956
11
156.969588
21
127.363670
0
LINE
8
Layer 1
10
156.969588
20
127.363670
11
156.162710
21
127.001367
0
LINE
8
Layer 1
10
156.162710
20
127.001367
11
154.237522
21
126.642324
0
LINE
8
Layer 1
10
154.237522
20
126.642324
11
152.092874
21
126.796908
0
LINE
8
Layer 1
10
152.092874
20
126.796908
11
149.624209
21
127.484202
0
LINE
8
Layer 1
10
149.624209
20
127.484202
11
146.726970
21
128.723287
0
LINE
8
Layer 1
10
146.726970
20
128.723287
11
145.329498
21
129.338342
0
LINE
8
Layer 1
10
145.329498
20
129.338342
11
145.000874
21
129.354585
0
LINE
8
Layer 1
10
145.000874
20
129.354585
11
144.663830
21
129.240615
0
LINE
8
Layer 1
10
144.663830
20
129.240615
11
144.121761
21
128.940198
0
LINE
8
Layer 1
10
144.121761
20
128.940198
11
148.536001
21
126.817708
0
LINE
8
Layer 1
10
148.536001
20
126.817708
11
150.424242
21
126.210531
0
LINE
8
Layer 1
10
150.424242
20
126.210531
11
152.278501
21
125.803368
0
LINE
8
Layer 1
10
152.278501
20
125.803368
11
154.154888
21
125.727964
0
LINE
8
Layer 1
10
154.154888
20
125.727964
11
156.015441
21
126.010216
0
LINE
8
Layer 1
10
156.015441
20
126.010216
11
157.696841
21
126.609465
0
LINE
8
Layer 1
10
157.696841
20
126.609465
11
159.035771
21
127.485048
0
LINE
8
Layer 1
10
159.035771
20
127.485048
11
159.910790
21
128.571323
0
LINE
8
Layer 1
10
159.910790
20
128.571323
11
160.221578
21
129.680333
0
LINE
8
Layer 1
10
160.221578
20
129.680333
11
160.027609
21
130.759652
0
LINE
8
Layer 1
10
160.027609
20
130.759652
11
159.388357
21
131.756854
0
LINE
8
Layer 1
10
159.388357
20
131.756854
11
158.363295
21
132.619515
0
LINE
8
Layer 1
10
158.363295
20
132.619515
11
157.011899
21
133.295208
0
LINE
8
Layer 1
10
157.011899
20
133.295208
11
155.393643
21
133.731507
0
LINE
8
Layer 1
10
155.393643
20
133.731507
11
153.568001
21
133.875988
0
LINE
8
Layer 1
10
153.568001
20
133.875988
11
153.568000
21
133.876000
0
LINE
8
Layer 1
10
49.293000
20
133.627164
11
47.443752
21
133.435656
0
LINE
8
Layer 1
10
47.443752
20
133.435656
11
45.841276
21
132.939498
0
LINE
8
Layer 1
10
45.841276
20
132.939498
11
44.541294
21
132.198858
0
LINE
8
Layer 1
10
44.541294
20
132.198858
11
43.599525
21
131.273901
0
LINE
8
Layer 1
10
43.599525
20
131.273901
11
43.071691
21
130.224792
0
LINE
8
Layer 1
10
43.071691
20
130.224792
11
43.013512
21
129.111700
0
LINE
8
Layer 1
10
43.013512
20
129.111700
11
43.480708
21
127.994788
0
LINE
8
Layer 1
10
43.480708
20
127.994788
11
44.529000
21
126.934224
0
LINE
8
Layer 1
10
44.529000
20
126.934224
11
45.973813
21
126.093131
0
LINE
8
Layer 1
10
45.973813
20
126.093131
11
47.776760
21
125.595704
0
LINE
8
Layer 1
10
47.776760
20
125.595704
11
49.376214
21
125.436312
0
LINE
8
Layer 1
10
49.376214
20
125.436312
11
51.178130
21
125.611770
0
LINE
8
Layer 1
10
51.178130
20
125.611770
11
54.223901
21
126.414027
0
LINE
8
Layer 1
10
54.223901
20
126.414027
11
55.505362
21
126.894036
0
LINE
8
Layer 1
10
55.505362
20
126.894036
11
56.023330
21
127.225900
0
LINE
8
Layer 1
10
56.023330
20
127.225900
11
55.556647
21
127.541097
0
LINE
8
Layer 1
10
55.556647
20
127.541097
11
54.969084
21
127.669520
0
LINE
8
Layer 1
10
54.969084
20
127.669520
11
53.688237
21
127.251896
0
LINE
8
Layer 1
10
53.688237
20
127.251896
11
51.092848
21
126.534899
0
LINE
8
Layer 1
10
51.092848
20
126.534899
11
48.886687
21
126.376087
0
LINE
8
Layer 1
10
48.886687
20
126.376087
11
47.637352
21
126.569513
0
LINE
8
Layer 1
10
47.637352
20
126.569513
11
46.554492
21
126.919102
0
LINE
8
Layer 1
10
46.554492
20
126.919102
11
45.660758
21
127.399711
0
LINE
8
Layer 1
10
45.660758
20
127.399711
11
44.978802
21
127.986199
0
LINE
8
Layer 1
10
44.978802
20
127.986199
11
44.531275
21
128.653423
0
LINE
8
Layer 1
10
44.531275
20
128.653423
11
44.340829
21
129.376243
0
LINE
8
Layer 1
10
44.340829
20
129.376243
11
44.430116
21
130.129514
0
LINE
8
Layer 1
10
44.430116
20
130.129514
11
44.821787
21
130.888097
0
LINE
8
Layer 1
10
44.821787
20
130.888097
11
45.297259
21
131.417385
0
LINE
8
Layer 1
10
45.297259
20
131.417385
11
45.890543
21
131.846680
0
LINE
8
Layer 1
10
45.890543
20
131.846680
11
47.575507
21
132.489557
0
LINE
8
Layer 1
10
47.575507
20
132.489557
11
49.364250
21
132.731245
0
LINE
8
Layer 1
10
49.364250
20
132.731245
11
51.321100
21
132.538451
0
LINE
8
Layer 1
10
51.321100
20
132.538451
11
53.559728
21
131.888323
0
LINE
8
Layer 1
10
53.559728
20
131.888323
11
56.193807
21
130.758007
0
LINE
8
Layer 1
10
56.193807
20
130.758007
11
58.009077
21
129.886295
0
LINE
8
Layer 1
10
58.009077
20
129.886295
11
58.562063
21
130.164951
0
LINE
8
Layer 1
10
58.562063
20
130.164951
11
59.115044
21
130.443598
0
LINE
8
Layer 1
10
59.115044
20
130.443598
11
58.675721
21
130.674757
0
LINE
8
Layer 1
10
58.675721
20
130.674757
11
55.860423
21
131.989738
0
LINE
8
Layer 1
10
55.860423
20
131.989738
11
53.280791
21
133.002147
0
LINE
8
Layer 1
10
53.280791
20
133.002147
11
50.658731
21
133.553119
0
LINE
8
Layer 1
10
50.658731
20
133.553119
11
49.292991
21
133.627136
0
LINE
8
Layer 1
10
49.292991
20
133.627136
11
49.293000
21
133.627164
0
LINE
8
Layer 1
10
107.605400
20
133.005604
11
107.486354
21
133.004738
0
LINE
8
Layer 1
10
107.486354
20
133.004738
11
106.343330
21
132.814325
0
LINE
8
Layer 1
10
106.343330
20
132.814325
11
105.095004
21
132.313652
0
LINE
8
Layer 1
10
105.095004
20
132.313652
11
104.548531
21
132.051755
0
LINE
8
Layer 1
10
104.548531
20
132.051755
11
105.125469
21
131.802655
0
LINE
8
Layer 1
10
105.125469
20
131.802655
11
105.710788
21
131.620611
0
LINE
8
Layer 1
10
105.710788
20
131.620611
11
106.343679
21
131.820193
0
LINE
8
Layer 1
10
106.343679
20
131.820193
11
107.238164
21
132.059528
0
LINE
8
Layer 1
10
107.238164
20
132.059528
11
108.180714
21
131.999580
0
LINE
8
Layer 1
10
108.180714
20
131.999580
11
109.300654
21
131.612319
0
LINE
8
Layer 1
10
109.300654
20
131.612319
11
110.727309
21
130.869713
0
LINE
8
Layer 1
10
110.727309
20
130.869713
11
111.974859
21
130.155268
0
LINE
8
Layer 1
10
111.974859
20
130.155268
11
112.533656
21
130.425878
0
LINE
8
Layer 1
10
112.533656
20
130.425878
11
113.092445
21
130.696613
0
LINE
8
Layer 1
10
113.092445
20
130.696613
11
112.437709
21
131.078699
0
LINE
8
Layer 1
10
112.437709
20
131.078699
11
109.633920
21
132.534873
0
LINE
8
Layer 1
10
109.633920
20
132.534873
11
108.561723
21
132.886882
0
LINE
8
Layer 1
10
108.561723
20
132.886882
11
107.605399
21
133.005659
0
LINE
8
Layer 1
10
107.605399
20
133.005659
11
107.605400
21
133.005604
0
LINE
8
Layer 1
10
71.495700
20
133.003439
11
70.269795
21
132.766463
0
LINE
8
Layer 1
10
70.269795
20
132.766463
11
69.026690
21
132.246113
0
LINE
8
Layer 1
10
69.026690
20
132.246113
11
68.816474
21
132.035013
0
LINE
8
Layer 1
10
68.816474
20
132.035013
11
69.249188
21
131.797125
0
LINE
8
Layer 1
10
69.249188
20
131.797125
11
69.823162
21
131.621315
0
LINE
8
Layer 1
10
69.823162
20
131.621315
11
70.454068
21
131.820380
0
LINE
8
Layer 1
10
70.454068
20
131.820380
11
71.347966
21
132.059600
0
LINE
8
Layer 1
10
71.347966
20
132.059600
11
72.289934
21
132.000039
0
LINE
8
Layer 1
10
72.289934
20
132.000039
11
73.408814
21
131.613820
0
LINE
8
Layer 1
10
73.408814
20
131.613820
11
74.833448
21
130.873066
0
LINE
8
Layer 1
10
74.833448
20
130.873066
11
76.076468
21
130.161661
0
LINE
8
Layer 1
10
76.076468
20
130.161661
11
76.621512
21
130.436355
0
LINE
8
Layer 1
10
76.621512
20
130.436355
11
77.166560
21
130.710919
0
LINE
8
Layer 1
10
77.166560
20
130.710919
11
76.338080
21
131.207664
0
LINE
8
Layer 1
10
76.338080
20
131.207664
11
73.632775
21
132.549794
0
LINE
8
Layer 1
10
73.632775
20
132.549794
11
72.488428
21
132.889463
0
LINE
8
Layer 1
10
72.488428
20
132.889463
11
71.495700
21
133.003474
0
LINE
8
Layer 1
10
71.495700
20
133.003474
11
71.495700
21
133.003439
0
LINE
8
Layer 1
10
62.570160
20
133.001707
11
60.281570
21
132.825426
0
LINE
8
Layer 1
10
60.281570
20
132.825426
11
57.948730
21
132.268792
0
LINE
8
Layer 1
10
57.948730
20
132.268792
11
56.893070
21
131.937628
0
LINE
8
Layer 1
10
56.893070
20
131.937628
11
57.468865
21
131.620184
0
LINE
8
Layer 1
10
57.468865
20
131.620184
11
58.332496
21
131.389558
0
LINE
8
Layer 1
10
58.332496
20
131.389558
11
61.067972
21
131.980247
0
LINE
8
Layer 1
10
61.067972
20
131.980247
11
63.672855
21
132.030740
0
LINE
8
Layer 1
10
63.672855
20
132.030740
11
66.270483
21
131.530377
0
LINE
8
Layer 1
10
66.270483
20
131.530377
11
68.984196
21
130.468500
0
LINE
8
Layer 1
10
68.984196
20
130.468500
11
70.180793
21
130.028947
0
LINE
8
Layer 1
10
70.180793
20
130.028947
11
70.585670
21
130.053576
0
LINE
8
Layer 1
10
70.585670
20
130.053576
11
70.990916
21
130.225471
0
LINE
8
Layer 1
10
70.990916
20
130.225471
11
71.202054
21
130.371889
0
LINE
8
Layer 1
10
71.202054
20
130.371889
11
71.122449
21
130.532214
0
LINE
8
Layer 1
10
71.122449
20
130.532214
11
69.560276
21
131.289281
0
LINE
8
Layer 1
10
69.560276
20
131.289281
11
67.720609
21
132.032825
0
LINE
8
Layer 1
10
67.720609
20
132.032825
11
65.957691
21
132.564786
0
LINE
8
Layer 1
10
65.957691
20
132.564786
11
64.248541
21
132.887098
0
LINE
8
Layer 1
10
64.248541
20
132.887098
11
62.570176
21
133.001701
0
LINE
8
Layer 1
10
62.570176
20
133.001701
11
62.570160
21
133.001707
0
LINE
8
Layer 1
10
122.164560
20
132.999974
11
121.946315
21
132.999974
0
LINE
8
Layer 1
10
121.946315
20
132.999974
11
120.352302
21
132.893557
0
LINE
8
Layer 1
10
120.352302
20
132.893557
11
118.727045
21
132.605875
0
LINE
8
Layer 1
10
118.727045
20
132.605875
11
117.418555
21
132.306909
0
LINE
8
Layer 1
10
117.418555
20
132.306909
11
117.959359
21
131.942361
0
LINE
8
Layer 1
10
117.959359
20
131.942361
11
118.500154
21
131.577943
0
LINE
8
Layer 1
10
118.500154
20
131.577943
11
119.555814
21
131.828632
0
LINE
8
Layer 1
10
119.555814
20
131.828632
11
121.651402
21
132.098080
0
LINE
8
Layer 1
10
121.651402
20
132.098080
11
123.884455
21
131.950660
0
LINE
8
Layer 1
10
123.884455
20
131.950660
11
126.228795
21
131.390413
0
LINE
8
Layer 1
10
126.228795
20
131.390413
11
128.658244
21
130.421382
0
LINE
8
Layer 1
10
128.658244
20
130.421382
11
129.934134
21
129.865400
0
LINE
8
Layer 1
10
129.934134
20
129.865400
11
130.475497
21
130.176639
0
LINE
8
Layer 1
10
130.475497
20
130.176639
11
130.906319
21
130.489203
0
LINE
8
Layer 1
10
130.906319
20
130.489203
11
129.288179
21
131.223040
0
LINE
8
Layer 1
10
129.288179
20
131.223040
11
127.390148
21
131.998391
0
LINE
8
Layer 1
10
127.390148
20
131.998391
11
125.592458
21
132.550135
0
LINE
8
Layer 1
10
125.592458
20
132.550135
11
123.861726
21
132.882632
0
LINE
8
Layer 1
10
123.861726
20
132.882632
11
122.164569
21
133.000240
0
LINE
8
Layer 1
10
122.164569
20
133.000240
11
122.164560
21
132.999974
0
LINE
8
Layer 1
10
134.454960
20
132.997376
11
132.124982
21
132.829903
0
LINE
8
Layer 1
10
132.124982
20
132.829903
11
129.775700
21
132.285049
0
LINE
8
Layer 1
10
129.775700
20
132.285049
11
128.768080
21
131.907705
0
LINE
8
Layer 1
10
128.768080
20
131.907705
11
129.323612
21
131.574294
0
LINE
8
Layer 1
10
129.323612
20
131.574294
11
129.879144
21
131.304749
0
LINE
8
Layer 1
10
129.879144
20
131.304749
11
130.980014
21
131.648185
0
LINE
8
Layer 1
10
130.980014
20
131.648185
11
132.296985
21
131.940936
0
LINE
8
Layer 1
10
132.296985
20
131.940936
11
133.785379
21
132.074708
0
LINE
8
Layer 1
10
133.785379
20
132.074708
11
135.315803
21
132.045024
0
LINE
8
Layer 1
10
135.315803
20
132.045024
11
136.758864
21
131.847411
0
LINE
8
Layer 1
10
136.758864
20
131.847411
11
139.071011
21
131.159655
0
LINE
8
Layer 1
10
139.071011
20
131.159655
11
141.282224
21
130.208871
0
LINE
8
Layer 1
10
141.282224
20
130.208871
11
141.887866
21
129.962380
0
LINE
8
Layer 1
10
141.887866
20
129.962380
11
142.522264
21
130.096853
0
LINE
8
Layer 1
10
142.522264
20
130.096853
11
143.160704
21
130.378675
0
LINE
8
Layer 1
10
143.160704
20
130.378675
11
141.561853
21
131.173462
0
LINE
8
Layer 1
10
141.561853
20
131.173462
11
139.027774
21
132.200465
0
LINE
8
Layer 1
10
139.027774
20
132.200465
11
136.758325
21
132.787538
0
LINE
8
Layer 1
10
136.758325
20
132.787538
11
134.454954
21
132.997372
0
LINE
8
Layer 1
10
134.454954
20
132.997372
11
134.454960
21
132.997376
0
LINE
8
Layer 1
10
78.044560
20
132.989061
11
76.661110
21
132.748007
0
LINE
8
Layer 1
10
76.661110
20
132.748007
11
75.519167
21
132.299297
0
LINE
8
Layer 1
10
75.519167
20
132.299297
11
75.510860
21
132.130353
0
LINE
8
Layer 1
10
75.510860
20
132.130353
11
75.779615
21
131.904530
0
LINE
8
Layer 1
10
75.779615
20
131.904530
11
76.231557
21
131.576666
0
LINE
8
Layer 1
10
76.231557
20
131.576666
11
76.966507
21
131.832232
0
LINE
8
Layer 1
10
76.966507
20
131.832232
11
77.729599
21
132.039133
0
LINE
8
Layer 1
10
77.729599
20
132.039133
11
78.404506
21
132.063639
0
LINE
8
Layer 1
10
78.404506
20
132.063639
11
79.106455
21
131.893574
0
LINE
8
Layer 1
10
79.106455
20
131.893574
11
79.950677
21
131.516762
0
LINE
8
Layer 1
10
79.950677
20
131.516762
11
81.639107
21
130.535674
0
LINE
8
Layer 1
10
81.639107
20
130.535674
11
82.310714
21
130.128380
0
LINE
8
Layer 1
10
82.310714
20
130.128380
11
82.898556
21
130.393577
0
LINE
8
Layer 1
10
82.898556
20
130.393577
11
83.378417
21
130.655868
0
LINE
8
Layer 1
10
83.378417
20
130.655868
11
82.130877
21
131.452251
0
LINE
8
Layer 1
10
82.130877
20
131.452251
11
79.899987
21
132.628473
0
LINE
8
Layer 1
10
79.899987
20
132.628473
11
78.944016
21
132.906307
0
LINE
8
Layer 1
10
78.944016
20
132.906307
11
78.044577
21
132.989061
0
LINE
8
Layer 1
10
78.044577
20
132.989061
11
78.044560
21
132.989061
0
LINE
8
Layer 1
10
86.368520
20
132.988195
11
85.703296
21
132.970137
0
LINE
8
Layer 1
10
85.703296
20
132.970137
11
83.321696
21
132.684104
0
LINE
8
Layer 1
10
83.321696
20
132.684104
11
81.708966
21
132.245004
0
LINE
8
Layer 1
10
81.708966
20
132.245004
11
81.760384
21
132.088121
0
LINE
8
Layer 1
10
81.760384
20
132.088121
11
82.103654
21
131.860675
0
LINE
8
Layer 1
10
82.103654
20
131.860675
11
82.694689
21
131.650893
0
LINE
8
Layer 1
10
82.694689
20
131.650893
11
83.496314
21
131.798532
0
LINE
8
Layer 1
10
83.496314
20
131.798532
11
84.619194
21
131.962688
0
LINE
8
Layer 1
10
84.619194
20
131.962688
11
86.353214
21
132.015175
0
LINE
8
Layer 1
10
86.353214
20
132.015175
11
88.238945
21
131.954563
0
LINE
8
Layer 1
10
88.238945
20
131.954563
11
89.625634
21
131.656166
0
LINE
8
Layer 1
10
89.625634
20
131.656166
11
92.408404
21
130.596836
0
LINE
8
Layer 1
10
92.408404
20
130.596836
11
93.934154
21
129.897700
0
LINE
8
Layer 1
10
93.934154
20
129.897700
11
94.464179
21
130.152473
0
LINE
8
Layer 1
10
94.464179
20
130.152473
11
94.903645
21
130.507121
0
LINE
8
Layer 1
10
94.903645
20
130.507121
11
93.213046
21
131.329231
0
LINE
8
Layer 1
10
93.213046
20
131.329231
11
90.718005
21
132.276671
0
LINE
8
Layer 1
10
90.718005
20
132.276671
11
88.467871
21
132.835543
0
LINE
8
Layer 1
10
88.467871
20
132.835543
11
86.368525
21
132.988214
0
LINE
8
Layer 1
10
86.368525
20
132.988214
11
86.368520
21
132.988195
0
LINE
8
Layer 1
10
113.948020
20
132.986463
11
112.550670
21
132.748185
0
LINE
8
Layer 1
10
112.550670
20
132.748185
11
111.408666
21
132.299471
0
LINE
8
Layer 1
10
111.408666
20
132.299471
11
111.400314
21
132.130528
0
LINE
8
Layer 1
10
111.400314
20
132.130528
11
111.669050
21
131.904708
0
LINE
8
Layer 1
10
111.669050
20
131.904708
11
112.120987
21
131.576844
0
LINE
8
Layer 1
10
112.120987
20
131.576844
11
112.855937
21
131.832410
0
LINE
8
Layer 1
10
112.855937
20
131.832410
11
114.141467
21
132.087971
0
LINE
8
Layer 1
10
114.141467
20
132.087971
11
115.513755
21
131.705439
0
LINE
8
Layer 1
10
115.513755
20
131.705439
11
117.244667
21
130.722151
0
LINE
8
Layer 1
10
117.244667
20
130.722151
11
118.204245
21
130.126583
0
LINE
8
Layer 1
10
118.204245
20
130.126583
11
118.843962
21
130.368161
0
LINE
8
Layer 1
10
118.843962
20
130.368161
11
119.379656
21
130.608947
0
LINE
8
Layer 1
10
119.379656
20
130.608947
11
118.116806
21
131.414034
0
LINE
8
Layer 1
10
118.116806
20
131.414034
11
115.841136
21
132.612344
0
LINE
8
Layer 1
10
115.841136
20
132.612344
11
114.864411
21
132.898199
0
LINE
8
Layer 1
10
114.864411
20
132.898199
11
113.948026
21
132.986464
0
LINE
8
Layer 1
10
113.948026
20
132.986464
11
113.948020
21
132.986463
0
LINE
8
Layer 1
10
143.412220
20
132.985597
11
142.176251
21
132.797600
0
LINE
8
Layer 1
10
142.176251
20
132.797600
11
140.894030
21
132.248196
0
LINE
8
Layer 1
10
140.894030
20
132.248196
11
140.449182
21
132.007406
0
LINE
8
Layer 1
10
140.449182
20
132.007406
11
141.111570
21
131.764377
0
LINE
8
Layer 1
10
141.111570
20
131.764377
11
141.756570
21
131.589266
0
LINE
8
Layer 1
10
141.756570
20
131.589266
11
142.302000
21
131.804348
0
LINE
8
Layer 1
10
142.302000
20
131.804348
11
142.908575
21
132.032091
0
LINE
8
Layer 1
10
142.908575
20
132.032091
11
143.563661
21
132.072009
0
LINE
8
Layer 1
10
143.563661
20
132.072009
11
145.203540
21
131.573717
0
LINE
8
Layer 1
10
145.203540
20
131.573717
11
146.990330
21
130.592495
0
LINE
8
Layer 1
10
146.990330
20
130.592495
11
147.758019
21
130.129528
0
LINE
8
Layer 1
10
147.758019
20
130.129528
11
148.344164
21
130.406460
0
LINE
8
Layer 1
10
148.344164
20
130.406460
11
148.823877
21
130.678659
0
LINE
8
Layer 1
10
148.823877
20
130.678659
11
147.768367
21
131.327003
0
LINE
8
Layer 1
10
147.768367
20
131.327003
11
145.357872
21
132.580000
0
LINE
8
Layer 1
10
145.357872
20
132.580000
11
144.347866
21
132.885825
0
LINE
8
Layer 1
10
144.347866
20
132.885825
11
143.412227
21
132.985333
0
LINE
8
Layer 1
10
143.412227
20
132.985333
11
143.412220
21
132.985597
0
LINE
8
Layer 1
10
98.444320
20
132.930045
11
96.332891
21
132.863971
0
LINE
8
Layer 1
10
96.332891
20
132.863971
11
94.657460
21
132.499929
0
LINE
8
Layer 1
10
94.657460
20
132.499929
11
92.978240
21
131.960836
0
LINE
8
Layer 1
10
92.978240
20
131.960836
11
93.469854
21
131.596418
0
LINE
8
Layer 1
10
93.469854
20
131.596418
11
94.060680
21
131.341381
0
LINE
8
Layer 1
10
94.060680
20
131.341381
11
95.244870
21
131.671098
0
LINE
8
Layer 1
10
95.244870
20
131.671098
11
97.525198
21
132.059253
0
LINE
8
Layer 1
10
97.525198
20
132.059253
11
99.903041
21
131.986513
0
LINE
8
Layer 1
10
99.903041
20
131.986513
11
102.358992
21
131.455313
0
LINE
8
Layer 1
10
102.358992
20
131.455313
11
104.873640
21
130.468088
0
LINE
8
Layer 1
10
104.873640
20
130.468088
11
106.070244
21
130.028535
0
LINE
8
Layer 1
10
106.070244
20
130.028535
11
106.475127
21
130.053164
0
LINE
8
Layer 1
10
106.475127
20
130.053164
11
106.880380
21
130.225059
0
LINE
8
Layer 1
10
106.880380
20
130.225059
11
107.091513
21
130.371477
0
LINE
8
Layer 1
10
107.091513
20
130.371477
11
107.011906
21
130.531802
0
LINE
8
Layer 1
10
107.011906
20
130.531802
11
105.449730
21
131.288869
0
LINE
8
Layer 1
10
105.449730
20
131.288869
11
102.126430
21
132.526319
0
LINE
8
Layer 1
10
102.126430
20
132.526319
11
100.536815
21
132.867219
0
LINE
8
Layer 1
10
100.536815
20
132.867219
11
98.444310
21
132.930040
0
LINE
8
Layer 1
10
98.444310
20
132.930040
11
98.444320
21
132.930045
0
LINE
8
Layer 1
10
153.012620
20
131.567005
11
151.290180
21
131.368169
0
LINE
8
Layer 1
10
151.290180
20
131.368169
11
148.585910
21
130.170839
0
LINE
8
Layer 1
10
148.585910
20
130.170839
11
146.569820
21
129.169429
0
LINE
8
Layer 1
10
146.569820
20
129.169429
11
147.025161
21
128.930757
0
LINE
8
Layer 1
10
147.025161
20
128.930757
11
147.686557
21
128.689175
0
LINE
8
Layer 1
10
147.686557
20
128.689175
11
149.318017
21
129.416815
0
LINE
8
Layer 1
10
149.318017
20
129.416815
11
151.510827
21
130.418485
0
LINE
8
Layer 1
10
151.510827
20
130.418485
11
152.567447
21
130.644574
0
LINE
8
Layer 1
10
152.567447
20
130.644574
11
153.686446
21
130.660092
0
LINE
8
Layer 1
10
153.686446
20
130.660092
11
154.653012
21
130.481812
0
LINE
8
Layer 1
10
154.653012
20
130.481812
11
155.252337
21
130.126508
0
LINE
8
Layer 1
10
155.252337
20
130.126508
11
155.383632
21
129.773818
0
LINE
8
Layer 1
10
155.383632
20
129.773818
11
155.227936
21
129.468646
0
LINE
8
Layer 1
10
155.227936
20
129.468646
11
154.269226
21
129.046460
0
LINE
8
Layer 1
10
154.269226
20
129.046460
11
152.803524
21
128.951152
0
LINE
8
Layer 1
10
152.803524
20
128.951152
11
151.258147
21
129.273924
0
LINE
8
Layer 1
10
151.258147
20
129.273924
11
150.483198
21
129.518112
0
LINE
8
Layer 1
10
150.483198
20
129.518112
11
149.962697
21
129.388046
0
LINE
8
Layer 1
10
149.962697
20
129.388046
11
149.495598
21
129.077336
0
LINE
8
Layer 1
10
149.495598
20
129.077336
11
151.606778
21
128.123426
0
LINE
8
Layer 1
10
151.606778
20
128.123426
11
153.069425
21
128.047393
0
LINE
8
Layer 1
10
153.069425
20
128.047393
11
154.710408
21
128.167095
0
LINE
8
Layer 1
10
154.710408
20
128.167095
11
155.504980
21
128.399049
0
LINE
8
Layer 1
10
155.504980
20
128.399049
11
156.103097
21
128.737055
0
LINE
8
Layer 1
10
156.103097
20
128.737055
11
156.499302
21
129.150358
0
LINE
8
Layer 1
10
156.499302
20
129.150358
11
156.688140
21
129.608202
0
LINE
8
Layer 1
10
156.688140
20
129.608202
11
156.664154
21
130.079831
0
LINE
8
Layer 1
10
156.664154
20
130.079831
11
156.421890
21
130.534491
0
LINE
8
Layer 1
10
156.421890
20
130.534491
11
155.955890
21
130.941424
0
LINE
8
Layer 1
10
155.955890
20
130.941424
11
155.260700
21
131.269875
0
LINE
8
Layer 1
10
155.260700
20
131.269875
11
154.228331
21
131.493786
0
LINE
8
Layer 1
10
154.228331
20
131.493786
11
153.012620
21
131.567005
0
LINE
8
Layer 1
10
153.012620
20
131.567005
11
153.012620
21
131.567005
0
LINE
8
Layer 1
10
79.449320
20
131.453537
11
77.143560
21
130.317417
0
LINE
8
Layer 1
10
77.143560
20
130.317417
11
74.837810
21
129.134197
0
LINE
8
Layer 1
10
74.837810
20
129.134197
11
75.365566
21
128.891961
0
LINE
8
Layer 1
10
75.365566
20
128.891961
11
76.012797
21
128.691549
0
LINE
8
Layer 1
10
76.012797
20
128.691549
11
78.123977
21
129.681870
0
LINE
8
Layer 1
10
78.123977
20
129.681870
11
80.348947
21
130.740680
0
LINE
8
Layer 1
10
80.348947
20
130.740680
11
80.370588
21
130.873086
0
LINE
8
Layer 1
10
80.370588
20
130.873086
11
80.015770
21
131.128708
0
LINE
8
Layer 1
10
80.015770
20
131.128708
11
79.449320
21
131.453537
0
LINE
8
Layer 1
10
115.340220
20
131.437817
11
113.465570
21
130.518071
0
LINE
8
Layer 1
10
113.465570
20
130.518071
11
111.127080
21
129.354121
0
LINE
8
Layer 1
10
111.127080
20
129.354121
11
110.663099
21
129.110036
0
LINE
8
Layer 1
10
110.663099
20
129.110036
11
111.223022
21
128.903418
0
LINE
8
Layer 1
10
111.223022
20
128.903418
11
111.898739
21
128.691530
0
LINE
8
Layer 1
10
111.898739
20
128.691530
11
113.947279
21
129.634618
0
LINE
8
Layer 1
10
113.947279
20
129.634618
11
116.197909
21
130.714138
0
LINE
8
Layer 1
10
116.197909
20
130.714138
11
116.360848
21
130.873514
0
LINE
8
Layer 1
10
116.360848
20
130.873514
11
115.928074
21
131.141487
0
LINE
8
Layer 1
10
115.928074
20
131.141487
11
115.340220
21
131.437817
0
LINE
8
Layer 1
10
123.070660
20
131.432664
11
121.663175
21
131.193675
0
LINE
8
Layer 1
10
121.663175
20
131.193675
11
119.742690
21
130.449987
0
LINE
8
Layer 1
10
119.742690
20
130.449987
11
117.451816
21
129.596453
0
LINE
8
Layer 1
10
117.451816
20
129.596453
11
116.614483
21
129.498845
0
LINE
8
Layer 1
10
116.614483
20
129.498845
11
115.791010
21
129.578409
0
LINE
8
Layer 1
10
115.791010
20
129.578409
11
115.005301
21
129.667146
0
LINE
8
Layer 1
10
115.005301
20
129.667146
11
114.457160
21
129.518903
0
LINE
8
Layer 1
10
114.457160
20
129.518903
11
114.117288
21
129.318295
0
LINE
8
Layer 1
10
114.117288
20
129.318295
11
114.093299
21
129.143110
0
LINE
8
Layer 1
10
114.093299
20
129.143110
11
115.058189
21
128.790085
0
LINE
8
Layer 1
10
115.058189
20
128.790085
11
116.498189
21
128.561169
0
LINE
8
Layer 1
10
116.498189
20
128.561169
11
118.266846
21
128.842127
0
LINE
8
Layer 1
10
118.266846
20
128.842127
11
120.408909
21
129.658359
0
LINE
8
Layer 1
10
120.408909
20
129.658359
11
122.322887
21
130.407400
0
LINE
8
Layer 1
10
122.322887
20
130.407400
11
123.000015
21
130.479136
0
LINE
8
Layer 1
10
123.000015
20
130.479136
11
123.670839
21
130.389424
0
LINE
8
Layer 1
10
123.670839
20
130.389424
11
124.300329
21
130.309796
0
LINE
8
Layer 1
10
124.300329
20
130.309796
11
124.823009
21
130.459488
0
LINE
8
Layer 1
10
124.823009
20
130.459488
11
125.313349
21
130.778249
0
LINE
8
Layer 1
10
125.313349
20
130.778249
11
124.359520
21
131.155066
0
LINE
8
Layer 1
10
124.359520
20
131.155066
11
123.070659
21
131.432660
0
LINE
8
Layer 1
10
123.070659
20
131.432660
11
123.070660
21
131.432664
0
LINE
8
Layer 1
10
98.636160
20
131.426298
11
96.971855
21
131.027316
0
LINE
8
Layer 1
10
96.971855
20
131.027316
11
94.749830
21
129.935128
0
LINE
8
Layer 1
10
94.749830
20
129.935128
11
93.262350
21
128.954044
0
LINE
8
Layer 1
10
93.262350
20
128.954044
11
93.694163
21
128.643593
0
LINE
8
Layer 1
10
93.694163
20
128.643593
11
94.180680
21
128.431441
0
LINE
8
Layer 1
10
94.180680
20
128.431441
11
95.716060
21
129.291404
0
LINE
8
Layer 1
10
95.716060
20
129.291404
11
97.094635
21
130.041501
0
LINE
8
Layer 1
10
97.094635
20
130.041501
11
98.115823
21
130.421389
0
LINE
8
Layer 1
10
98.115823
20
130.421389
11
98.979536
21
130.477271
0
LINE
8
Layer 1
10
98.979536
20
130.477271
11
99.885690
21
130.255347
0
LINE
8
Layer 1
10
99.885690
20
130.255347
11
100.640621
21
129.992922
0
LINE
8
Layer 1
10
100.640621
20
129.992922
11
101.101492
21
130.307067
0
LINE
8
Layer 1
10
101.101492
20
130.307067
11
101.562355
21
130.621212
0
LINE
8
Layer 1
10
101.562355
20
130.621212
11
101.057135
21
130.846958
0
LINE
8
Layer 1
10
101.057135
20
130.846958
11
99.821973
21
131.245940
0
LINE
8
Layer 1
10
99.821973
20
131.245940
11
98.636155
21
131.426299
0
LINE
8
Layer 1
10
98.636155
20
131.426299
11
98.636160
21
131.426298
0
LINE
8
Layer 1
10
62.746760
20
131.425432
11
62.016910
21
131.326451
0
LINE
8
Layer 1
10
62.016910
20
131.326451
11
61.081070
21
131.021964
0
LINE
8
Layer 1
10
61.081070
20
131.021964
11
58.636940
21
129.814342
0
LINE
8
Layer 1
10
58.636940
20
129.814342
11
56.830320
21
128.784562
0
LINE
8
Layer 1
10
56.830320
20
128.784562
11
57.341499
21
128.483881
0
LINE
8
Layer 1
10
57.341499
20
128.483881
11
57.674432
21
128.297549
0
LINE
8
Layer 1
10
57.674432
20
128.297549
11
57.978151
21
128.294333
0
LINE
8
Layer 1
10
57.978151
20
128.294333
11
59.484129
21
129.138686
0
LINE
8
Layer 1
10
59.484129
20
129.138686
11
61.422888
21
130.149299
0
LINE
8
Layer 1
10
61.422888
20
130.149299
11
62.743789
21
130.517176
0
LINE
8
Layer 1
10
62.743789
20
130.517176
11
63.996289
21
130.254881
0
LINE
8
Layer 1
10
63.996289
20
130.254881
11
64.751077
21
129.992456
0
LINE
8
Layer 1
10
64.751077
20
129.992456
11
65.212083
21
130.306601
0
LINE
8
Layer 1
10
65.212083
20
130.306601
11
65.672954
21
130.620746
0
LINE
8
Layer 1
10
65.672954
20
130.620746
11
65.167730
21
130.846492
0
LINE
8
Layer 1
10
65.167730
20
130.846492
11
63.932061
21
131.245588
0
LINE
8
Layer 1
10
63.932061
20
131.245588
11
62.746760
21
131.425435
0
LINE
8
Layer 1
10
62.746760
20
131.425435
11
62.746760
21
131.425432
0
LINE
8
Layer 1
10
134.524660
20
131.385461
11
134.047774
21
131.359088
0
LINE
8
Layer 1
10
134.047774
20
131.359088
11
132.369564
21
130.778512
0
LINE
8
Layer 1
10
132.369564
20
130.778512
11
130.133804
21
129.579768
0
LINE
8
Layer 1
10
130.133804
20
129.579768
11
129.146307
21
128.969429
0
LINE
8
Layer 1
10
129.146307
20
128.969429
11
129.658478
21
128.694735
0
LINE
8
Layer 1
10
129.658478
20
128.694735
11
130.133291
21
128.501823
0
LINE
8
Layer 1
10
130.133291
20
128.501823
11
130.477046
21
128.594722
0
LINE
8
Layer 1
10
130.477046
20
128.594722
11
131.934756
21
129.431604
0
LINE
8
Layer 1
10
131.934756
20
129.431604
11
133.559831
21
130.243295
0
LINE
8
Layer 1
10
133.559831
20
130.243295
11
134.660146
21
130.514284
0
LINE
8
Layer 1
10
134.660146
20
130.514284
11
135.821386
21
130.258983
0
LINE
8
Layer 1
10
135.821386
20
130.258983
11
136.637117
21
130.006587
0
LINE
8
Layer 1
10
136.637117
20
130.006587
11
137.143615
21
130.303583
0
LINE
8
Layer 1
10
137.143615
20
130.303583
11
137.650117
21
130.600574
0
LINE
8
Layer 1
10
137.650117
20
130.600574
11
136.954566
21
130.880282
0
LINE
8
Layer 1
10
136.954566
20
130.880282
11
135.720263
21
131.249808
0
LINE
8
Layer 1
10
135.720263
20
131.249808
11
134.524666
21
131.385472
0
LINE
8
Layer 1
10
134.524666
20
131.385472
11
134.524660
21
131.385461
0
LINE
8
Layer 1
10
86.956460
20
131.381131
11
85.474940
21
131.124900
0
LINE
8
Layer 1
10
85.474940
20
131.124900
11
83.595760
21
130.383288
0
LINE
8
Layer 1
10
83.595760
20
130.383288
11
81.456543
21
129.584950
0
LINE
8
Layer 1
10
81.456543
20
129.584950
11
80.632561
21
129.497191
0
LINE
8
Layer 1
10
80.632561
20
129.497191
11
79.788640
21
129.578197
0
LINE
8
Layer 1
10
79.788640
20
129.578197
11
79.031401
21
129.645344
0
LINE
8
Layer 1
10
79.031401
20
129.645344
11
78.428290
21
129.443232
0
LINE
8
Layer 1
10
78.428290
20
129.443232
11
78.004603
21
129.190631
0
LINE
8
Layer 1
10
78.004603
20
129.190631
11
78.222937
21
129.032768
0
LINE
8
Layer 1
10
78.222937
20
129.032768
11
79.252097
21
128.723110
0
LINE
8
Layer 1
10
79.252097
20
128.723110
11
80.380007
21
128.572366
0
LINE
8
Layer 1
10
80.380007
20
128.572366
11
81.621186
21
128.691301
0
LINE
8
Layer 1
10
81.621186
20
128.691301
11
83.045295
21
129.093546
0
LINE
8
Layer 1
10
83.045295
20
129.093546
11
84.721997
21
129.792730
0
LINE
8
Layer 1
10
84.721997
20
129.792730
11
86.439476
21
130.416362
0
LINE
8
Layer 1
10
86.439476
20
130.416362
11
87.106512
21
130.471981
0
LINE
8
Layer 1
10
87.106512
20
130.471981
11
87.754197
21
130.377740
0
LINE
8
Layer 1
10
87.754197
20
130.377740
11
88.378259
21
130.289991
0
LINE
8
Layer 1
10
88.378259
20
130.289991
11
88.933577
21
130.458881
0
LINE
8
Layer 1
10
88.933577
20
130.458881
11
89.469977
21
130.698346
0
LINE
8
Layer 1
10
89.469977
20
130.698346
11
89.044962
21
130.932935
0
LINE
8
Layer 1
10
89.044962
20
130.932935
11
87.847312
21
131.309357
0
LINE
8
Layer 1
10
87.847312
20
131.309357
11
86.956463
21
131.381131
0
LINE
8
Layer 1
10
86.956463
20
131.381131
11
86.956460
21
131.381131
0
LINE
8
Layer 1
10
49.995260
20
131.290229
11
48.602280
21
131.186881
0
LINE
8
Layer 1
10
48.602280
20
131.186881
11
47.531316
21
130.879199
0
LINE
8
Layer 1
10
47.531316
20
130.879199
11
46.817640
21
130.381350
0
LINE
8
Layer 1
10
46.817640
20
130.381350
11
46.496520
21
129.707499
0
LINE
8
Layer 1
10
46.496520
20
129.707499
11
46.534773
21
129.179291
0
LINE
8
Layer 1
10
46.534773
20
129.179291
11
46.808645
21
128.715287
0
LINE
8
Layer 1
10
46.808645
20
128.715287
11
47.307499
21
128.327199
0
LINE
8
Layer 1
10
47.307499
20
128.327199
11
48.020700
21
128.026739
0
LINE
8
Layer 1
10
48.020700
20
128.026739
11
49.986106
21
127.776700
0
LINE
8
Layer 1
10
49.986106
20
127.776700
11
51.954640
21
128.028904
0
LINE
8
Layer 1
10
51.954640
20
128.028904
11
54.695190
21
129.232574
0
LINE
8
Layer 1
10
54.695190
20
129.232574
11
56.616600
21
130.182794
0
LINE
8
Layer 1
10
56.616600
20
130.182794
11
56.179118
21
130.412364
0
LINE
8
Layer 1
10
56.179118
20
130.412364
11
55.500002
21
130.644709
0
LINE
8
Layer 1
10
55.500002
20
130.644709
11
53.419152
21
129.735651
0
LINE
8
Layer 1
10
53.419152
20
129.735651
11
51.215990
21
128.826936
0
LINE
8
Layer 1
10
51.215990
20
128.826936
11
50.350414
21
128.696991
0
LINE
8
Layer 1
10
50.350414
20
128.696991
11
49.388412
21
128.719331
0
LINE
8
Layer 1
10
49.388412
20
128.719331
11
48.183756
21
129.013314
0
LINE
8
Layer 1
10
48.183756
20
129.013314
11
47.882353
21
129.270127
0
LINE
8
Layer 1
10
47.882353
20
129.270127
11
47.815762
21
129.581412
0
LINE
8
Layer 1
10
47.815762
20
129.581412
11
47.968481
21
129.870666
0
LINE
8
Layer 1
10
47.968481
20
129.870666
11
48.291319
21
130.103249
0
LINE
8
Layer 1
10
48.291319
20
130.103249
11
49.310124
21
130.381732
0
LINE
8
Layer 1
10
49.310124
20
130.381732
11
50.597723
21
130.383517
0
LINE
8
Layer 1
10
50.597723
20
130.383517
11
51.879662
21
130.075260
0
LINE
8
Layer 1
10
51.879662
20
130.075260
11
52.742865
21
129.730507
0
LINE
8
Layer 1
10
52.742865
20
129.730507
11
53.259855
21
130.033565
0
LINE
8
Layer 1
10
53.259855
20
130.033565
11
53.776841
21
130.336623
0
LINE
8
Layer 1
10
53.776841
20
130.336623
11
52.754911
21
130.784243
0
LINE
8
Layer 1
10
52.754911
20
130.784243
11
51.677922
21
131.157104
0
LINE
8
Layer 1
10
51.677922
20
131.157104
11
50.416561
21
131.281911
0
LINE
8
Layer 1
10
50.416561
20
131.281911
11
49.995236
21
131.290745
0
LINE
8
Layer 1
10
49.995236
20
131.290745
11
49.995260
21
131.290229
0
LINE
8
Layer 1
10
109.467060
20
131.098123
11
108.299730
21
130.572086
0
LINE
8
Layer 1
10
108.299730
20
130.572086
11
107.048728
21
129.954377
0
LINE
8
Layer 1
10
107.048728
20
129.954377
11
105.966610
21
129.596443
0
LINE
8
Layer 1
10
105.966610
20
129.596443
11
104.996384
21
129.485247
0
LINE
8
Layer 1
10
104.996384
20
129.485247
11
104.081060
21
129.607753
0
LINE
8
Layer 1
10
104.081060
20
129.607753
11
103.564574
21
129.671432
0
LINE
8
Layer 1
10
103.564574
20
129.671432
11
103.088747
21
129.509593
0
LINE
8
Layer 1
10
103.088747
20
129.509593
11
102.738535
21
129.293417
0
LINE
8
Layer 1
10
102.738535
20
129.293417
11
102.673624
21
129.120772
0
LINE
8
Layer 1
10
102.673624
20
129.120772
11
103.462744
21
128.783668
0
LINE
8
Layer 1
10
103.462744
20
128.783668
11
105.252819
21
128.602279
0
LINE
8
Layer 1
10
105.252819
20
128.602279
11
107.096114
21
128.920491
0
LINE
8
Layer 1
10
107.096114
20
128.920491
11
109.002190
21
129.786772
0
LINE
8
Layer 1
10
109.002190
20
129.786772
11
110.293134
21
130.606651
0
LINE
8
Layer 1
10
110.293134
20
130.606651
11
109.889092
21
130.975421
0
LINE
8
Layer 1
10
109.889092
20
130.975421
11
109.467057
21
131.098122
0
LINE
8
Layer 1
10
109.467057
20
131.098122
11
109.467060
21
131.098123
0
LINE
8
Layer 1
10
73.573760
20
131.097257
11
72.410110
21
130.572013
0
LINE
8
Layer 1
10
72.410110
20
130.572013
11
71.153374
21
129.948820
0
LINE
8
Layer 1
10
71.153374
20
129.948820
11
70.078889
21
129.594998
0
LINE
8
Layer 1
10
70.078889
20
129.594998
11
69.100184
21
129.491272
0
LINE
8
Layer 1
10
69.100184
20
129.491272
11
68.130790
21
129.618368
0
LINE
8
Layer 1
10
68.130790
20
129.618368
11
67.530226
21
129.688786
0
LINE
8
Layer 1
10
67.530226
20
129.688786
11
67.022560
21
129.435503
0
LINE
8
Layer 1
10
67.022560
20
129.435503
11
66.537178
21
129.104599
0
LINE
8
Layer 1
10
66.537178
20
129.104599
11
66.993086
21
128.937696
0
LINE
8
Layer 1
10
66.993086
20
128.937696
11
68.024656
21
128.668940
0
LINE
8
Layer 1
10
68.024656
20
128.668940
11
69.638738
21
128.639406
0
LINE
8
Layer 1
10
69.638738
20
128.639406
11
71.332206
21
128.994825
0
LINE
8
Layer 1
10
71.332206
20
128.994825
11
73.279892
21
129.885223
0
LINE
8
Layer 1
10
73.279892
20
129.885223
11
74.453976
21
130.651835
0
LINE
8
Layer 1
10
74.453976
20
130.651835
11
73.987722
21
130.980760
0
LINE
8
Layer 1
10
73.987722
20
130.980760
11
73.573763
21
131.097260
0
LINE
8
Layer 1
10
73.573763
20
131.097260
11
73.573760
21
131.097257
0
LINE
8
Layer 1
10
145.512760
20
131.082620
11
144.077440
21
130.453144
0
LINE
8
Layer 1
10
144.077440
20
130.453144
11
142.024140
21
129.620369
0
LINE
8
Layer 1
10
142.024140
20
129.620369
11
141.164680
21
129.511624
0
LINE
8
Layer 1
10
141.164680
20
129.511624
11
140.283350
21
129.577205
0
LINE
8
Layer 1
10
140.283350
20
129.577205
11
139.491347
21
129.644564
0
LINE
8
Layer 1
10
139.491347
20
129.644564
11
138.987910
21
129.437879
0
LINE
8
Layer 1
10
138.987910
20
129.437879
11
138.556092
21
129.074128
0
LINE
8
Layer 1
10
138.556092
20
129.074128
11
139.467770
21
128.770273
0
LINE
8
Layer 1
10
139.467770
20
128.770273
11
141.408445
21
128.617927
0
LINE
8
Layer 1
10
141.408445
20
128.617927
11
143.321790
21
129.013172
0
LINE
8
Layer 1
10
143.321790
20
129.013172
11
145.165872
21
129.874365
0
LINE
8
Layer 1
10
145.165872
20
129.874365
11
146.370430
21
130.615562
0
LINE
8
Layer 1
10
146.370430
20
130.615562
11
145.942163
21
130.946202
0
LINE
8
Layer 1
10
145.942163
20
130.946202
11
145.512749
21
131.082622
0
LINE
8
Layer 1
10
145.512749
20
131.082622
11
145.512760
21
131.082620
0
LINE
8
Layer 1
10
90.602060
20
130.949097
11
88.813580
21
130.054957
0
LINE
8
Layer 1
10
88.813580
20
130.054957
11
86.850210
21
129.059223
0
LINE
8
Layer 1
10
86.850210
20
129.059223
11
86.860082
21
128.911002
0
LINE
8
Layer 1
10
86.860082
20
128.911002
11
87.138181
21
128.695070
0
LINE
8
Layer 1
10
87.138181
20
128.695070
11
87.720216
21
128.428163
0
LINE
8
Layer 1
10
87.720216
20
128.428163
11
91.894676
21
130.457233
0
LINE
8
Layer 1
10
91.894676
20
130.457233
11
91.284298
21
130.727444
0
LINE
8
Layer 1
10
91.284298
20
130.727444
11
90.602060
21
130.949097
0
LINE
8
Layer 1
10
126.510060
20
130.943164
11
124.558460
21
129.993347
0
LINE
8
Layer 1
10
124.558460
20
129.993347
11
122.606850
21
129.043655
0
LINE
8
Layer 1
10
122.606850
20
129.043655
11
123.033995
21
128.733733
0
LINE
8
Layer 1
10
123.033995
20
128.733733
11
123.554381
21
128.423811
0
LINE
8
Layer 1
10
123.554381
20
128.423811
11
127.395231
21
130.275431
0
LINE
8
Layer 1
10
127.395231
20
130.275431
11
127.845614
21
130.509084
0
LINE
8
Layer 1
10
127.845614
20
130.509084
11
127.177830
21
130.726121
0
LINE
8
Layer 1
10
127.177830
20
130.726121
11
126.510060
21
130.943164
0
LINE
8
Layer 1
10
138.836760
20
130.909256
11
137.007740
21
129.833036
0
LINE
8
Layer 1
10
137.007740
20
129.833036
11
135.295640
21
128.756816
0
LINE
8
Layer 1
10
135.295640
20
128.756816
11
135.914948
21
128.538458
0
LINE
8
Layer 1
10
135.914948
20
128.538458
11
136.534403
21
128.320234
0
LINE
8
Layer 1
10
136.534403
20
128.320234
11
137.998773
21
129.220047
0
LINE
8
Layer 1
10
137.998773
20
129.220047
11
139.686057
21
130.328436
0
LINE
8
Layer 1
10
139.686057
20
130.328436
11
139.731072
21
130.533010
0
LINE
8
Layer 1
10
139.731072
20
130.533010
11
139.429843
21
130.696567
0
LINE
8
Layer 1
10
139.429843
20
130.696567
11
138.836757
21
130.909256
0
LINE
8
Layer 1
10
138.836757
20
130.909256
11
138.836760
21
130.909256
0
LINE
8
Layer 1
10
66.936160
20
130.888686
11
66.873515
21
130.884788
0
LINE
8
Layer 1
10
66.873515
20
130.884788
11
65.078900
21
129.824692
0
LINE
8
Layer 1
10
65.078900
20
129.824692
11
63.557175
21
128.752008
0
LINE
8
Layer 1
10
63.557175
20
128.752008
11
63.994376
21
128.577986
0
LINE
8
Layer 1
10
63.994376
20
128.577986
11
64.444333
21
128.459122
0
LINE
8
Layer 1
10
64.444333
20
128.459122
11
64.897794
21
128.527404
0
LINE
8
Layer 1
10
64.897794
20
128.527404
11
66.496546
21
129.467639
0
LINE
8
Layer 1
10
66.496546
20
129.467639
11
68.065516
21
130.511399
0
LINE
8
Layer 1
10
68.065516
20
130.511399
11
67.601951
21
130.718541
0
LINE
8
Layer 1
10
67.601951
20
130.718541
11
66.936160
21
130.888739
0
LINE
8
Layer 1
10
66.936160
20
130.888739
11
66.936160
21
130.888686
0
LINE
8
Layer 1
10
103.002360
20
130.859671
11
102.204401
21
130.600461
0
LINE
8
Layer 1
10
102.204401
20
130.600461
11
100.825850
21
129.719991
0
LINE
8
Layer 1
10
100.825850
20
129.719991
11
99.751756
21
128.918826
0
LINE
8
Layer 1
10
99.751756
20
128.918826
11
99.708388
21
128.753914
0
LINE
8
Layer 1
10
99.708388
20
128.753914
11
99.891497
21
128.625961
0
LINE
8
Layer 1
10
99.891497
20
128.625961
11
100.542417
21
128.428052
0
LINE
8
Layer 1
10
100.542417
20
128.428052
11
102.396937
21
129.474842
0
LINE
8
Layer 1
10
102.396937
20
129.474842
11
103.976667
21
130.525862
0
LINE
8
Layer 1
10
103.976667
20
130.525862
11
103.504887
21
130.736434
0
LINE
8
Layer 1
10
103.504887
20
130.736434
11
103.002356
21
130.859663
0
LINE
8
Layer 1
10
103.002356
20
130.859663
11
103.002360
21
130.859671
0
LINE
8
Layer 1
10
127.109860
20
129.731991
11
126.543415
21
129.484342
0
LINE
8
Layer 1
10
126.543415
20
129.484342
11
126.081556
21
129.236697
0
LINE
8
Layer 1
10
126.081556
20
129.236697
11
127.236696
21
128.507741
0
LINE
8
Layer 1
10
127.236696
20
128.507741
11
129.236749
21
127.390548
0
LINE
8
Layer 1
10
129.236749
20
127.390548
11
130.870216
21
126.769851
0
LINE
8
Layer 1
10
130.870216
20
126.769851
11
132.260489
21
126.617852
0
LINE
8
Layer 1
10
132.260489
20
126.617852
11
133.758146
21
126.931873
0
LINE
8
Layer 1
10
133.758146
20
126.931873
11
134.813666
21
127.268710
0
LINE
8
Layer 1
10
134.813666
20
127.268710
11
134.133987
21
127.508313
0
LINE
8
Layer 1
10
134.133987
20
127.508313
11
133.429183
21
127.678312
0
LINE
8
Layer 1
10
133.429183
20
127.678312
11
132.634327
21
127.598817
0
LINE
8
Layer 1
10
132.634327
20
127.598817
11
131.784682
21
127.529557
0
LINE
8
Layer 1
10
131.784682
20
127.529557
11
130.805307
21
127.809787
0
LINE
8
Layer 1
10
130.805307
20
127.809787
11
128.505367
21
128.950917
0
LINE
8
Layer 1
10
128.505367
20
128.950917
11
127.109857
21
129.731991
0
LINE
8
Layer 1
10
127.109857
20
129.731991
11
127.109860
21
129.731991
0
LINE
8
Layer 1
10
91.162160
20
129.621563
11
90.711353
21
129.493847
0
LINE
8
Layer 1
10
90.711353
20
129.493847
11
90.239716
21
129.176008
0
LINE
8
Layer 1
10
90.239716
20
129.176008
11
91.942837
21
128.107506
0
LINE
8
Layer 1
10
91.942837
20
128.107506
11
94.300656
21
126.981878
0
LINE
8
Layer 1
10
94.300656
20
126.981878
11
96.022736
21
126.613363
0
LINE
8
Layer 1
10
96.022736
20
126.613363
11
97.604956
21
126.843340
0
LINE
8
Layer 1
10
97.604956
20
126.843340
11
98.492880
21
127.239848
0
LINE
8
Layer 1
10
98.492880
20
127.239848
11
98.429013
21
127.403488
0
LINE
8
Layer 1
10
98.429013
20
127.403488
11
98.047119
21
127.578234
0
LINE
8
Layer 1
10
98.047119
20
127.578234
11
97.454678
21
127.719847
0
LINE
8
Layer 1
10
97.454678
20
127.719847
11
96.892399
21
127.634310
0
LINE
8
Layer 1
10
96.892399
20
127.634310
11
96.053020
21
127.529102
0
LINE
8
Layer 1
10
96.053020
20
127.529102
11
95.096520
21
127.707879
0
LINE
8
Layer 1
10
95.096520
20
127.707879
11
93.888802
21
128.213029
0
LINE
8
Layer 1
10
93.888802
20
128.213029
11
92.295769
21
129.086940
0
LINE
8
Layer 1
10
92.295769
20
129.086940
11
91.162169
21
129.621556
0
LINE
8
Layer 1
10
91.162169
20
129.621556
11
91.162160
21
129.621563
0
LINE
8
Layer 1
10
85.049280
20
129.611776
11
84.519250
21
129.301061
0
LINE
8
Layer 1
10
84.519250
20
129.301061
11
83.989225
21
128.990221
0
LINE
8
Layer 1
10
83.989225
20
128.990221
11
85.507035
21
128.101481
0
LINE
8
Layer 1
10
85.507035
20
128.101481
11
87.984545
21
126.903761
0
LINE
8
Layer 1
10
87.984545
20
126.903761
11
89.581434
21
126.611487
0
LINE
8
Layer 1
10
89.581434
20
126.611487
11
91.140185
21
126.861799
0
LINE
8
Layer 1
10
91.140185
20
126.861799
11
92.308132
21
127.319400
0
LINE
8
Layer 1
10
92.308132
20
127.319400
11
92.305881
21
127.495812
0
LINE
8
Layer 1
10
92.305881
20
127.495812
11
91.985117
21
127.709897
0
LINE
8
Layer 1
10
91.985117
20
127.709897
11
91.454239
21
127.998440
0
LINE
8
Layer 1
10
91.454239
20
127.998440
11
90.718579
21
127.737071
0
LINE
8
Layer 1
10
90.718579
20
127.737071
11
89.747548
21
127.554650
0
LINE
8
Layer 1
10
89.747548
20
127.554650
11
88.681202
21
127.697186
0
LINE
8
Layer 1
10
88.681202
20
127.697186
11
87.439179
21
128.186674
0
LINE
8
Layer 1
10
87.439179
20
128.186674
11
85.941119
21
129.045111
0
LINE
8
Layer 1
10
85.941119
20
129.045111
11
85.049280
21
129.611776
0
LINE
8
Layer 1
10
60.864680
20
129.579600
11
60.462340
21
129.287619
0
LINE
8
Layer 1
10
60.462340
20
129.287619
11
60.059861
21
128.913839
0
LINE
8
Layer 1
10
60.059861
20
128.913839
11
61.773296
21
128.120394
0
LINE
8
Layer 1
10
61.773296
20
128.120394
11
64.226801
21
127.190989
0
LINE
8
Layer 1
10
64.226801
20
127.190989
11
66.050141
21
126.782114
0
LINE
8
Layer 1
10
66.050141
20
126.782114
11
67.750600
21
126.624187
0
LINE
8
Layer 1
10
67.750600
20
126.624187
11
69.540039
21
126.680312
0
LINE
8
Layer 1
10
69.540039
20
126.680312
11
71.320114
21
126.941740
0
LINE
8
Layer 1
10
71.320114
20
126.941740
11
72.992481
21
127.399720
0
LINE
8
Layer 1
10
72.992481
20
127.399720
11
73.929943
21
127.726921
0
LINE
8
Layer 1
10
73.929943
20
127.726921
11
73.345782
21
128.010457
0
LINE
8
Layer 1
10
73.345782
20
128.010457
11
72.729746
21
128.226637
0
LINE
8
Layer 1
10
72.729746
20
128.226637
11
71.928462
21
128.051641
0
LINE
8
Layer 1
10
71.928462
20
128.051641
11
69.567876
21
127.583154
0
LINE
8
Layer 1
10
69.567876
20
127.583154
11
67.220678
21
127.575911
0
LINE
8
Layer 1
10
67.220678
20
127.575911
11
64.802930
21
128.037919
0
LINE
8
Layer 1
10
64.802930
20
128.037919
11
62.230692
21
128.977186
0
LINE
8
Layer 1
10
62.230692
20
128.977186
11
60.864680
21
129.579600
0
LINE
8
Layer 1
10
96.753780
20
129.579600
11
96.351583
21
129.287753
0
LINE
8
Layer 1
10
96.351583
20
129.287753
11
95.949382
21
128.915558
0
LINE
8
Layer 1
10
95.949382
20
128.915558
11
97.440038
21
128.206218
0
LINE
8
Layer 1
10
97.440038
20
128.206218
11
99.883772
21
127.294168
0
LINE
8
Layer 1
10
99.883772
20
127.294168
11
101.994952
21
126.774597
0
LINE
8
Layer 1
10
101.994952
20
126.774597
11
103.586519
21
126.611669
0
LINE
8
Layer 1
10
103.586519
20
126.611669
11
105.211743
21
126.644970
0
LINE
8
Layer 1
10
105.211743
20
126.644970
11
106.857977
21
126.873473
0
LINE
8
Layer 1
10
106.857977
20
126.873473
11
108.512572
21
127.296148
0
LINE
8
Layer 1
10
108.512572
20
127.296148
11
109.845432
21
127.714524
0
LINE
8
Layer 1
10
109.845432
20
127.714524
11
109.251068
21
128.002941
0
LINE
8
Layer 1
10
109.251068
20
128.002941
11
108.636514
21
128.221794
0
LINE
8
Layer 1
10
108.636514
20
128.221794
11
107.916798
21
128.078145
0
LINE
8
Layer 1
10
107.916798
20
128.078145
11
105.464445
21
127.581951
0
LINE
8
Layer 1
10
105.464445
20
127.581951
11
103.087331
21
127.570653
0
LINE
8
Layer 1
10
103.087331
20
127.570653
11
100.625642
21
128.060056
0
LINE
8
Layer 1
10
100.625642
20
128.060056
11
97.919568
21
129.065967
0
LINE
8
Layer 1
10
97.919568
20
129.065967
11
96.753780
21
129.579600
0
LINE
8
Layer 1
10
120.982880
20
129.574361
11
120.454834
21
129.312196
0
LINE
8
Layer 1
10
120.454834
20
129.312196
11
120.068572
21
129.060561
0
LINE
8
Layer 1
10
120.068572
20
129.060561
11
120.173095
21
128.845271
0
LINE
8
Layer 1
10
120.173095
20
128.845271
11
122.020831
21
127.776471
0
LINE
8
Layer 1
10
122.020831
20
127.776471
11
124.065955
21
126.837041
0
LINE
8
Layer 1
10
124.065955
20
126.837041
11
125.524932
21
126.610874
0
LINE
8
Layer 1
10
125.524932
20
126.610874
11
127.029705
21
126.862114
0
LINE
8
Layer 1
10
127.029705
20
126.862114
11
128.197007
21
127.318412
0
LINE
8
Layer 1
10
128.197007
20
127.318412
11
128.199777
21
127.493100
0
LINE
8
Layer 1
10
128.199777
20
127.493100
11
127.887663
21
127.703084
0
LINE
8
Layer 1
10
127.887663
20
127.703084
11
127.347538
21
127.916925
0
LINE
8
Layer 1
10
127.347538
20
127.916925
11
126.677533
21
127.738161
0
LINE
8
Layer 1
10
126.677533
20
127.738161
11
125.717053
21
127.545411
0
LINE
8
Layer 1
10
125.717053
20
127.545411
11
124.681887
21
127.669496
0
LINE
8
Layer 1
10
124.681887
20
127.669496
11
123.461514
21
128.139518
0
LINE
8
Layer 1
10
123.461514
20
128.139518
11
121.945413
21
128.984581
0
LINE
8
Layer 1
10
121.945413
20
128.984581
11
120.982880
21
129.574361
0
LINE
8
Layer 1
10
109.196780
20
129.480943
11
108.615308
21
129.187914
0
LINE
8
Layer 1
10
108.615308
20
129.187914
11
108.033698
21
128.894742
0
LINE
8
Layer 1
10
108.033698
20
128.894742
11
109.332548
21
128.317116
0
LINE
8
Layer 1
10
109.332548
20
128.317116
11
111.763728
21
127.379948
0
LINE
8
Layer 1
10
111.763728
20
127.379948
11
113.989978
21
126.801946
0
LINE
8
Layer 1
10
113.989978
20
126.801946
11
116.208066
21
126.611589
0
LINE
8
Layer 1
10
116.208066
20
126.611589
11
118.501858
21
126.782025
0
LINE
8
Layer 1
10
118.501858
20
126.782025
11
120.486288
21
127.215377
0
LINE
8
Layer 1
10
120.486288
20
127.215377
11
121.469018
21
127.601888
0
LINE
8
Layer 1
10
121.469018
20
127.601888
11
120.984909
21
127.941890
0
LINE
8
Layer 1
10
120.984909
20
127.941890
11
120.422466
21
128.108683
0
LINE
8
Layer 1
10
120.422466
20
128.108683
11
119.407579
21
127.897689
0
LINE
8
Layer 1
10
119.407579
20
127.897689
11
116.951818
21
127.552327
0
LINE
8
Layer 1
10
116.951818
20
127.552327
11
114.544949
21
127.638170
0
LINE
8
Layer 1
10
114.544949
20
127.638170
11
112.334039
21
128.207910
0
LINE
8
Layer 1
10
112.334039
20
128.207910
11
110.037029
21
129.086980
0
LINE
8
Layer 1
10
110.037029
20
129.086980
11
109.196780
21
129.480943
0
LINE
8
Layer 1
10
73.263580
20
129.469597
11
72.694441
21
129.193314
0
LINE
8
Layer 1
10
72.694441
20
129.193314
11
72.125294
21
128.917170
0
LINE
8
Layer 1
10
72.125294
20
128.917170
11
73.415354
21
128.327280
0
LINE
8
Layer 1
10
73.415354
20
128.327280
11
75.806360
21
127.395211
0
LINE
8
Layer 1
10
75.806360
20
127.395211
11
78.100564
21
126.801940
0
LINE
8
Layer 1
10
78.100564
20
126.801940
11
80.318660
21
126.611585
0
LINE
8
Layer 1
10
80.318660
20
126.611585
11
82.612454
21
126.782019
0
LINE
8
Layer 1
10
82.612454
20
126.782019
11
84.596805
21
127.215367
0
LINE
8
Layer 1
10
84.596805
20
127.215367
11
85.579464
21
127.601877
0
LINE
8
Layer 1
10
85.579464
20
127.601877
11
85.098473
21
127.940303
0
LINE
8
Layer 1
10
85.098473
20
127.940303
11
84.525117
21
128.102937
0
LINE
8
Layer 1
10
84.525117
20
128.102937
11
83.425213
21
127.874856
0
LINE
8
Layer 1
10
83.425213
20
127.874856
11
82.114867
21
127.637543
0
LINE
8
Layer 1
10
82.114867
20
127.637543
11
80.499573
21
127.573777
0
LINE
8
Layer 1
10
80.499573
20
127.573777
11
79.011599
21
127.630586
0
LINE
8
Layer 1
10
79.011599
20
127.630586
11
77.693991
21
127.825276
0
LINE
8
Layer 1
10
77.693991
20
127.825276
11
76.376589
21
128.194244
0
LINE
8
Layer 1
10
76.376589
20
128.194244
11
74.889233
21
128.773887
0
LINE
8
Layer 1
10
74.889233
20
128.773887
11
73.263580
21
129.469597
0
LINE
8
Layer 1
10
132.743680
20
129.419986
11
132.322494
21
129.288178
0
LINE
8
Layer 1
10
132.322494
20
129.288178
11
131.838810
21
128.959790
0
LINE
8
Layer 1
10
131.838810
20
128.959790
11
133.070299
21
128.304312
0
LINE
8
Layer 1
10
133.070299
20
128.304312
11
135.399060
21
127.386300
0
LINE
8
Layer 1
10
135.399060
20
127.386300
11
137.701840
21
126.802741
0
LINE
8
Layer 1
10
137.701840
20
126.802741
11
139.411083
21
126.623150
0
LINE
8
Layer 1
10
139.411083
20
126.623150
11
141.110520
21
126.654012
0
LINE
8
Layer 1
10
141.110520
20
126.654012
11
142.827919
21
126.897542
0
LINE
8
Layer 1
10
142.827919
20
126.897542
11
144.591050
21
127.355956
0
LINE
8
Layer 1
10
144.591050
20
127.355956
11
145.731880
21
127.716013
0
LINE
8
Layer 1
10
145.731880
20
127.716013
11
145.111438
21
128.017231
0
LINE
8
Layer 1
10
145.111438
20
128.017231
11
144.491506
21
128.244785
0
LINE
8
Layer 1
10
144.491506
20
128.244785
11
143.874518
21
128.121856
0
LINE
8
Layer 1
10
143.874518
20
128.121856
11
141.451494
21
127.592242
0
LINE
8
Layer 1
10
141.451494
20
127.592242
11
139.017488
21
127.564798
0
LINE
8
Layer 1
10
139.017488
20
127.564798
11
136.499572
21
128.046214
0
LINE
8
Layer 1
10
136.499572
20
128.046214
11
133.824818
21
129.043178
0
LINE
8
Layer 1
10
133.824818
20
129.043178
11
132.743648
21
129.419990
0
LINE
8
Layer 1
10
132.743648
20
129.419990
11
132.743680
21
129.419986
0
LINE
8
Layer 1
10
55.410280
20
129.139091
11
54.987535
21
129.006893
0
LINE
8
Layer 1
10
54.987535
20
129.006893
11
54.494072
21
128.681797
0
LINE
8
Layer 1
10
54.494072
20
128.681797
11
55.656523
21
127.894504
0
LINE
8
Layer 1
10
55.656523
20
127.894504
11
57.468872
21
126.896277
0
LINE
8
Layer 1
10
57.468872
20
126.896277
11
58.620332
21
126.490832
0
LINE
8
Layer 1
10
58.620332
20
126.490832
11
59.730262
21
126.341477
0
LINE
8
Layer 1
10
59.730262
20
126.341477
11
60.647352
21
126.489028
0
LINE
8
Layer 1
10
60.647352
20
126.489028
11
61.684466
21
126.842776
0
LINE
8
Layer 1
10
61.684466
20
126.842776
11
62.421430
21
127.227760
0
LINE
8
Layer 1
10
62.421430
20
127.227760
11
62.546052
21
127.377289
0
LINE
8
Layer 1
10
62.546052
20
127.377289
11
62.438072
21
127.469017
0
LINE
8
Layer 1
10
62.438072
20
127.469017
11
61.878569
21
127.690679
0
LINE
8
Layer 1
10
61.878569
20
127.690679
11
61.474584
21
127.777697
0
LINE
8
Layer 1
10
61.474584
20
127.777697
11
60.864859
21
127.555177
0
LINE
8
Layer 1
10
60.864859
20
127.555177
11
59.686759
21
127.246840
0
LINE
8
Layer 1
10
59.686759
20
127.246840
11
58.281430
21
127.641965
0
LINE
8
Layer 1
10
58.281430
20
127.641965
11
56.415489
21
128.631660
0
LINE
8
Layer 1
10
56.415489
20
128.631660
11
55.410279
21
129.139093
0
LINE
8
Layer 1
10
55.410279
20
129.139093
11
55.410280
21
129.139091
0
LINE
8
Layer 1
10
24.559500
20
103.570000
11
25.089852
21
103.204244
0
LINE
8
Layer 1
10
25.089852
20
103.204244
11
25.894524
21
103.039650
0
LINE
8
Layer 1
10
25.894524
20
103.039650
11
26.754060
21
103.003057
0
LINE
8
Layer 1
10
26.754060
20
103.003057
11
27.430716
21
103.003057
0
LINE
8
Layer 1
10
27.430716
20
103.003057
11
29.204656
21
103.222515
0
LINE
8
Layer 1
10
29.204656
20
103.222515
11
30.905436
21
103.880880
0
LINE
8
Layer 1
10
30.905436
20
103.880880
11
32.368476
21
104.923300
0
LINE
8
Layer 1
10
32.368476
20
104.923300
11
33.520616
21
106.313190
0
LINE
8
Layer 1
10
33.520616
20
106.313190
11
33.721784
21
106.678950
0
LINE
8
Layer 1
10
33.721784
20
106.678950
11
34.032680
21
107.282456
0
LINE
8
Layer 1
10
34.032680
20
107.282456
11
34.307000
21
107.940821
0
LINE
8
Layer 1
10
34.307000
20
107.940821
11
34.435016
21
108.507751
0
LINE
8
Layer 1
10
34.435016
20
108.507751
11
34.357292
21
109.422152
0
LINE
8
Layer 1
10
34.357292
20
109.422152
11
34.124120
21
110.226821
0
LINE
8
Layer 1
10
34.124120
20
110.226821
11
33.749216
21
110.930909
0
LINE
8
Layer 1
10
33.749216
20
110.930909
11
33.246296
21
111.506981
0
LINE
8
Layer 1
10
33.246296
20
111.506981
11
32.629077
21
111.955039
0
LINE
8
Layer 1
10
32.629077
20
111.955039
11
31.911276
21
112.275077
0
LINE
8
Layer 1
10
31.911276
20
112.275077
11
30.228776
21
112.549398
0
LINE
8
Layer 1
10
30.228776
20
112.549398
11
28.985196
21
112.494535
0
LINE
8
Layer 1
10
28.985196
20
112.494535
11
27.357566
21
112.275077
0
LINE
8
Layer 1
10
27.357566
20
112.275077
11
25.839666
21
111.836166
0
LINE
8
Layer 1
10
25.839666
20
111.836166
11
25.016706
21
111.324104
0
LINE
8
Layer 1
10
25.016706
20
111.324104
11
24.888690
21
111.086358
0
LINE
8
Layer 1
10
24.888690
20
111.086358
11
25.547058
21
110.903480
0
LINE
8
Layer 1
10
25.547058
20
110.903480
11
25.821378
21
110.464564
0
LINE
8
Layer 1
10
25.821378
20
110.464564
11
25.876242
21
109.842775
0
LINE
8
Layer 1
10
25.876242
20
109.842775
11
25.857954
21
109.184406
0
LINE
8
Layer 1
10
25.857954
20
109.184406
11
25.803091
21
107.739656
0
LINE
8
Layer 1
10
25.803091
20
107.739656
11
25.620211
21
106.258326
0
LINE
8
Layer 1
10
25.620211
20
106.258326
11
25.236163
21
104.831866
0
LINE
8
Layer 1
10
25.236163
20
104.831866
11
24.559507
21
103.569996
0
LINE
8
Layer 1
10
24.559507
20
103.569996
11
24.559500
21
103.570000
0
LINE
8
Layer 1
10
26.571180
20
104.557553
11
26.571200
21
104.668000
0
LINE
8
Layer 1
10
26.571200
20
104.668000
11
27.485600
21
110.885920
0
LINE
8
Layer 1
10
27.485600
20
110.885920
11
27.686768
21
111.269972
0
LINE
8
Layer 1
10
27.686768
20
111.269972
11
28.070816
21
111.434562
0
LINE
8
Layer 1
10
28.070816
20
111.434562
11
28.528016
21
111.452837
0
LINE
8
Layer 1
10
28.528016
20
111.452837
11
28.948640
21
111.452837
0
LINE
8
Layer 1
10
28.948640
20
111.452837
11
30.320240
21
111.233379
0
LINE
8
Layer 1
10
30.320240
20
111.233379
11
31.490670
21
110.575014
0
LINE
8
Layer 1
10
31.490670
20
110.575014
11
32.313630
21
109.532594
0
LINE
8
Layer 1
10
32.313630
20
109.532594
11
32.546802
21
108.887941
0
LINE
8
Layer 1
10
32.546802
20
108.887941
11
32.624526
21
108.160994
0
LINE
8
Layer 1
10
32.624526
20
108.160994
11
32.542230
21
107.246593
0
LINE
8
Layer 1
10
32.542230
20
107.246593
11
32.295342
21
106.441924
0
LINE
8
Layer 1
10
32.295342
20
106.441924
11
31.902150
21
105.751552
0
LINE
8
Layer 1
10
31.902150
20
105.751552
11
31.380942
21
105.180054
0
LINE
8
Layer 1
10
31.380942
20
105.180054
11
30.759151
21
104.727425
0
LINE
8
Layer 1
10
30.759151
20
104.727425
11
30.027632
21
104.393671
0
LINE
8
Layer 1
10
30.027632
20
104.393671
11
28.308562
21
104.119350
0
LINE
8
Layer 1
10
28.308562
20
104.119350
11
27.887938
21
104.119350
0
LINE
8
Layer 1
10
27.887938
20
104.119350
11
27.302722
21
104.174213
0
LINE
8
Layer 1
10
27.302722
20
104.174213
11
26.790658
21
104.302228
0
LINE
8
Layer 1
10
26.790658
20
104.302228
11
26.571202
21
104.558261
0
LINE
8
Layer 1
10
26.571202
20
104.558261
11
26.571180
21
104.557553
0
LINE
8
Layer 1
10
34.873900
20
104.339000
11
34.873900
21
105.052232
0
LINE
8
Layer 1
10
34.873900
20
105.052232
11
35.056780
21
106.076352
0
LINE
8
Layer 1
10
35.056780
20
106.076352
11
35.404252
21
107.173632
0
LINE
8
Layer 1
10
35.404252
20
107.173632
11
35.898028
21
108.197762
0
LINE
8
Layer 1
10
35.898028
20
108.197762
11
36.501531
21
109.116735
0
LINE
8
Layer 1
10
36.501531
20
109.116735
11
37.251338
21
109.861972
0
LINE
8
Layer 1
10
37.251338
20
109.861972
11
38.156594
21
110.369465
0
LINE
8
Layer 1
10
38.156594
20
110.369465
11
39.189868
21
110.538629
0
LINE
8
Layer 1
10
39.189868
20
110.538629
11
39.263020
21
110.520354
0
LINE
8
Layer 1
10
39.263020
20
110.520354
11
39.427612
21
110.502079
0
LINE
8
Layer 1
10
39.427612
20
110.502079
11
39.756796
21
110.392352
0
LINE
8
Layer 1
10
39.756796
20
110.392352
11
40.067692
21
110.227762
0
LINE
8
Layer 1
10
40.067692
20
110.227762
11
40.433452
21
109.898578
0
LINE
8
Layer 1
10
40.433452
20
109.898578
11
40.744348
21
109.404799
0
LINE
8
Layer 1
10
40.744348
20
109.404799
11
40.872364
21
108.764722
0
LINE
8
Layer 1
10
40.872364
20
108.764722
11
40.854076
21
108.069777
0
LINE
8
Layer 1
10
40.854076
20
108.069777
11
40.767208
21
107.255961
0
LINE
8
Layer 1
10
40.767208
20
107.255961
11
40.506604
21
106.387277
0
LINE
8
Layer 1
10
40.506604
20
106.387277
11
39.592204
21
104.741357
0
LINE
8
Layer 1
10
39.592204
20
104.741357
11
38.961269
21
104.055556
0
LINE
8
Layer 1
10
38.961269
20
104.055556
11
38.238894
21
103.497767
0
LINE
8
Layer 1
10
38.238894
20
103.497767
11
37.443366
21
103.127436
0
LINE
8
Layer 1
10
37.443366
20
103.127436
11
36.592974
21
103.003992
0
LINE
8
Layer 1
10
36.592974
20
103.003992
11
36.062622
21
103.058856
0
LINE
8
Layer 1
10
36.062622
20
103.058856
11
35.513982
21
103.296602
0
LINE
8
Layer 1
10
35.513982
20
103.296602
11
35.075070
21
103.717225
0
LINE
8
Layer 1
10
35.075070
20
103.717225
11
34.873902
21
104.339018
0
LINE
8
Layer 1
10
34.873902
20
104.339018
11
34.873900
21
104.339000
0
LINE
8
Layer 1
10
36.428380
20
105.582580
11
36.483244
21
105.052230
0
LINE
8
Layer 1
10
36.483244
20
105.052230
11
36.684412
21
104.576739
0
LINE
8
Layer 1
10
36.684412
20
104.576739
11
37.031884
21
104.229267
0
LINE
8
Layer 1
10
37.031884
20
104.229267
11
37.562236
21
104.101252
0
LINE
8
Layer 1
10
37.562236
20
104.101252
11
37.891420
21
104.192692
0
LINE
8
Layer 1
10
37.891420
20
104.192692
11
38.220604
21
104.467012
0
LINE
8
Layer 1
10
38.220604
20
104.467012
11
38.805820
21
105.363122
0
LINE
8
Layer 1
10
38.805820
20
105.363122
11
39.226444
21
106.387252
0
LINE
8
Layer 1
10
39.226444
20
106.387252
11
39.391036
21
107.228499
0
LINE
8
Layer 1
10
39.391036
20
107.228499
11
39.336172
21
107.905156
0
LINE
8
Layer 1
10
39.336172
20
107.905156
11
39.171580
21
108.472086
0
LINE
8
Layer 1
10
39.171580
20
108.472086
11
38.842396
21
108.947573
0
LINE
8
Layer 1
10
38.842396
20
108.947573
11
38.275468
21
109.423060
0
LINE
8
Layer 1
10
38.275468
20
109.423060
11
38.184028
21
109.441335
0
LINE
8
Layer 1
10
38.184028
20
109.441335
11
38.092588
21
109.459610
0
LINE
8
Layer 1
10
38.092588
20
109.459610
11
37.525660
21
109.203577
0
LINE
8
Layer 1
10
37.525660
20
109.203577
11
37.105036
21
108.563496
0
LINE
8
Layer 1
10
37.105036
20
108.563496
11
36.794140
21
107.703961
0
LINE
8
Layer 1
10
36.794140
20
107.703961
11
36.574684
21
106.807846
0
LINE
8
Layer 1
10
36.574684
20
106.807846
11
36.464956
21
106.039750
0
LINE
8
Layer 1
10
36.464956
20
106.039750
11
36.428380
21
105.582551
0
LINE
8
Layer 1
10
36.428380
20
105.582551
11
36.428380
21
105.582580
0
LINE
8
Layer 1
10
42.481800
20
108.142000
11
42.317208
21
108.471184
0
LINE
8
Layer 1
10
42.317208
20
108.471184
11
41.951448
21
108.580911
0
LINE
8
Layer 1
10
41.951448
20
108.580911
11
41.530824
21
108.562636
0
LINE
8
Layer 1
10
41.530824
20
108.562636
11
41.201640
21
108.507773
0
LINE
8
Layer 1
10
41.201640
20
108.507773
11
41.658840
21
109.038123
0
LINE
8
Layer 1
10
41.658840
20
109.038123
11
42.280632
21
109.586765
0
LINE
8
Layer 1
10
42.280632
20
109.586765
11
42.957288
21
110.007388
0
LINE
8
Layer 1
10
42.957288
20
110.007388
11
43.688808
21
110.190270
0
LINE
8
Layer 1
10
43.688808
20
110.190270
11
43.761900
21
110.191000
0
LINE
8
Layer 1
10
43.761900
20
110.191000
11
43.871628
21
110.008118
0
LINE
8
Layer 1
10
43.871628
20
110.008118
11
43.944780
21
109.825240
0
LINE
8
Layer 1
10
43.944780
20
109.825240
11
43.944800
21
107.374000
0
LINE
8
Layer 1
10
43.944800
20
107.374000
11
44.859200
21
108.270110
0
LINE
8
Layer 1
10
44.859200
20
108.270110
11
45.773600
21
109.184512
0
LINE
8
Layer 1
10
45.773600
20
109.184512
11
46.816020
21
109.916032
0
LINE
8
Layer 1
10
46.816020
20
109.916032
11
47.419524
21
110.135489
0
LINE
8
Layer 1
10
47.419524
20
110.135489
11
48.096180
21
110.208641
0
LINE
8
Layer 1
10
48.096180
20
110.208641
11
48.443652
21
110.153773
0
LINE
8
Layer 1
10
48.443652
20
110.153773
11
48.699684
21
109.824593
0
LINE
8
Layer 1
10
48.699684
20
109.824593
11
48.699700
21
109.642000
0
LINE
8
Layer 1
10
48.699700
20
109.642000
11
48.699700
21
109.349391
0
LINE
8
Layer 1
10
48.699700
20
109.349391
11
48.717988
21
109.075074
0
LINE
8
Layer 1
10
48.717988
20
109.075074
11
48.718000
21
108.874000
0
LINE
8
Layer 1
10
48.718000
20
108.874000
11
48.608272
21
107.173210
0
LINE
8
Layer 1
10
48.608272
20
107.173210
11
48.498544
21
105.490720
0
LINE
8
Layer 1
10
48.498544
20
105.490720
11
48.498500
21
105.290000
0
LINE
8
Layer 1
10
48.498500
20
105.290000
11
48.498500
21
105.015679
0
LINE
8
Layer 1
10
48.498500
20
105.015679
11
48.516788
21
104.723074
0
LINE
8
Layer 1
10
48.516788
20
104.723074
11
48.516800
21
104.540000
0
LINE
8
Layer 1
10
48.516800
20
104.540000
11
48.589952
21
104.430273
0
LINE
8
Layer 1
10
48.589952
20
104.430273
11
48.699680
21
104.357122
0
LINE
8
Layer 1
10
48.699680
20
104.357122
11
48.791100
21
104.357000
0
LINE
8
Layer 1
10
48.791100
20
104.357000
11
48.882600
21
104.357000
0
LINE
8
Layer 1
10
48.882600
20
104.357000
11
49.486104
21
104.594741
0
LINE
8
Layer 1
10
49.486104
20
104.594741
11
50.089608
21
104.759335
0
LINE
8
Layer 1
10
50.089608
20
104.759335
11
49.833576
21
104.082678
0
LINE
8
Layer 1
10
49.833576
20
104.082678
11
49.230072
21
103.534036
0
LINE
8
Layer 1
10
49.230072
20
103.534036
11
48.461976
21
103.149988
0
LINE
8
Layer 1
10
48.461976
20
103.149988
11
47.767032
21
103.021973
0
LINE
8
Layer 1
10
47.767032
20
103.021973
11
47.291544
21
103.131700
0
LINE
8
Layer 1
10
47.291544
20
103.131700
11
47.053800
21
103.607191
0
LINE
8
Layer 1
10
47.053800
20
103.607191
11
47.053800
21
103.808000
0
LINE
8
Layer 1
10
47.053800
20
103.808000
11
47.035512
21
104.155472
0
LINE
8
Layer 1
10
47.035512
20
104.155472
11
47.035512
21
104.502944
0
LINE
8
Layer 1
10
47.035512
20
104.502944
11
47.035500
21
104.723000
0
LINE
8
Layer 1
10
47.035500
20
104.723000
11
47.145228
21
106.332340
0
LINE
8
Layer 1
10
47.145228
20
106.332340
11
47.254956
21
107.941680
0
LINE
8
Layer 1
10
47.254956
20
107.941680
11
47.236668
21
108.307440
0
LINE
8
Layer 1
10
47.236668
20
108.307440
11
47.236668
21
108.691488
0
LINE
8
Layer 1
10
47.236668
20
108.691488
11
47.145228
21
108.782931
0
LINE
8
Layer 1
10
47.145228
20
108.782931
11
47.053788
21
108.874370
0
LINE
8
Layer 1
10
47.053788
20
108.874370
11
46.962300
21
108.874000
0
LINE
8
Layer 1
10
46.962300
20
108.874000
11
46.084476
21
108.599679
0
LINE
8
Layer 1
10
46.084476
20
108.599679
11
45.371244
21
107.959598
0
LINE
8
Layer 1
10
45.371244
20
107.959598
11
44.767740
21
107.154927
0
LINE
8
Layer 1
10
44.767740
20
107.154927
11
44.310540
21
106.423407
0
LINE
8
Layer 1
10
44.310540
20
106.423407
11
43.889916
21
105.454146
0
LINE
8
Layer 1
10
43.889916
20
105.454146
11
43.560732
21
104.320286
0
LINE
8
Layer 1
10
43.560732
20
104.320286
11
43.048668
21
103.369308
0
LINE
8
Layer 1
10
43.048668
20
103.369308
11
42.637188
21
103.081272
0
LINE
8
Layer 1
10
42.637188
20
103.081272
11
42.061116
21
102.985260
0
LINE
8
Layer 1
10
42.061116
20
102.985260
11
42.115980
21
104.283710
0
LINE
8
Layer 1
10
42.115980
20
104.283710
11
42.262284
21
105.563870
0
LINE
8
Layer 1
10
42.262284
20
105.563870
11
42.408588
21
106.862320
0
LINE
8
Layer 1
10
42.408588
20
106.862320
11
42.481740
21
108.142480
0
LINE
8
Layer 1
10
42.481740
20
108.142480
11
42.481800
21
108.142000
0
LINE
8
Layer 1
10
53.820300
20
105.033000
11
53.893451
21
104.082026
0
LINE
8
Layer 1
10
53.893451
20
104.082026
11
54.186060
21
103.204204
0
LINE
8
Layer 1
10
54.186060
20
103.204204
11
54.277499
21
103.094473
0
LINE
8
Layer 1
10
54.277499
20
103.094473
11
54.368938
21
103.021322
0
LINE
8
Layer 1
10
54.368938
20
103.021322
11
54.570108
21
103.039597
0
LINE
8
Layer 1
10
54.570108
20
103.039597
11
54.881000
21
103.131036
0
LINE
8
Layer 1
10
54.881000
20
103.131036
11
55.228472
21
103.240767
0
LINE
8
Layer 1
10
55.228472
20
103.240767
11
55.466218
21
103.387069
0
LINE
8
Layer 1
10
55.466218
20
103.387069
11
55.923417
21
103.825980
0
LINE
8
Layer 1
10
55.923417
20
103.825980
11
56.472059
21
104.356334
0
LINE
8
Layer 1
10
56.472059
20
104.356334
11
56.910970
21
104.813533
0
LINE
8
Layer 1
10
56.910970
20
104.813533
11
57.112136
21
105.032986
0
LINE
8
Layer 1
10
57.112136
20
105.032986
11
57.112200
21
105.454000
0
LINE
8
Layer 1
10
57.112200
20
105.454000
11
57.020761
21
105.435725
0
LINE
8
Layer 1
10
57.020761
20
105.435725
11
56.929322
21
105.399132
0
LINE
8
Layer 1
10
56.929322
20
105.399132
11
55.832042
21
104.667612
0
LINE
8
Layer 1
10
55.832042
20
104.667612
11
55.795449
21
104.649337
0
LINE
8
Layer 1
10
55.795449
20
104.649337
11
55.740586
21
104.649337
0
LINE
8
Layer 1
10
55.740586
20
104.649337
11
55.685722
21
104.649337
0
LINE
8
Layer 1
10
55.685722
20
104.649337
11
55.649130
21
104.667612
0
LINE
8
Layer 1
10
55.649130
20
104.667612
11
55.539403
21
104.740768
0
LINE
8
Layer 1
10
55.539403
20
104.740768
11
55.466251
21
104.850495
0
LINE
8
Layer 1
10
55.466251
20
104.850495
11
55.447977
21
105.161392
0
LINE
8
Layer 1
10
55.447977
20
105.161392
11
55.447977
21
105.490576
0
LINE
8
Layer 1
10
55.447977
20
105.490576
11
55.502840
21
106.478125
0
LINE
8
Layer 1
10
55.502840
20
106.478125
11
55.649142
21
107.447391
0
LINE
8
Layer 1
10
55.649142
20
107.447391
11
55.777161
21
108.434944
0
LINE
8
Layer 1
10
55.777161
20
108.434944
11
55.850312
21
109.422493
0
LINE
8
Layer 1
10
55.850312
20
109.422493
11
55.850312
21
109.605375
0
LINE
8
Layer 1
10
55.850312
20
109.605375
11
55.832037
21
109.879696
0
LINE
8
Layer 1
10
55.832037
20
109.879696
11
55.832037
21
110.154013
0
LINE
8
Layer 1
10
55.832037
20
110.154013
11
55.832037
21
110.336895
0
LINE
8
Layer 1
10
55.832037
20
110.336895
11
55.740598
21
110.428334
0
LINE
8
Layer 1
10
55.740598
20
110.428334
11
55.649155
21
110.519773
0
LINE
8
Layer 1
10
55.649155
20
110.519773
11
55.576000
21
110.520000
0
LINE
8
Layer 1
10
55.576000
20
110.520000
11
54.510725
21
110.396556
0
LINE
8
Layer 1
10
54.510725
20
110.396556
11
53.509460
21
110.026225
0
LINE
8
Layer 1
10
53.509460
20
110.026225
11
52.617919
21
109.473014
0
LINE
8
Layer 1
10
52.617919
20
109.473014
11
51.845250
21
108.764355
0
LINE
8
Layer 1
10
51.845250
20
108.764355
11
51.205169
21
107.923108
0
LINE
8
Layer 1
10
51.205169
20
107.923108
11
50.711390
21
106.972135
0
LINE
8
Layer 1
10
50.711390
20
106.972135
11
50.409638
21
105.957150
0
LINE
8
Layer 1
10
50.409638
20
105.957150
11
50.309054
21
104.923875
0
LINE
8
Layer 1
10
50.309054
20
104.923875
11
50.290766
21
104.521539
0
LINE
8
Layer 1
10
50.290766
20
104.521539
11
50.327342
21
103.936321
0
LINE
8
Layer 1
10
50.327342
20
103.936321
11
50.491932
21
103.405971
0
LINE
8
Layer 1
10
50.491932
20
103.405971
11
50.875980
21
103.186513
0
LINE
8
Layer 1
10
50.875980
20
103.186513
11
51.698943
21
103.424259
0
LINE
8
Layer 1
10
51.698943
20
103.424259
11
52.393888
21
103.991189
0
LINE
8
Layer 1
10
52.393888
20
103.991189
11
53.070540
21
104.612978
0
LINE
8
Layer 1
10
53.070540
20
104.612978
11
53.820352
21
105.033601
0
LINE
8
Layer 1
10
53.820352
20
105.033601
11
53.820300
21
105.033000
0
LINE
8
Layer 1
10
51.424570
20
105.965690
11
51.644028
21
107.227560
0
LINE
8
Layer 1
10
51.644028
20
107.227560
11
52.265817
21
108.215113
0
LINE
8
Layer 1
10
52.265817
20
108.215113
11
53.216795
21
108.855194
0
LINE
8
Layer 1
10
53.216795
20
108.855194
11
54.460375
21
109.092940
0
LINE
8
Layer 1
10
54.460375
20
109.092940
11
54.295783
21
107.817350
0
LINE
8
Layer 1
10
54.295783
20
107.817350
11
53.802006
21
106.624060
0
LINE
8
Layer 1
10
53.802006
20
106.624060
11
53.075060
21
105.567925
0
LINE
8
Layer 1
10
53.075060
20
105.567925
11
52.174376
21
104.667240
0
LINE
8
Layer 1
10
52.174376
20
104.667240
11
52.082937
21
104.648965
0
LINE
8
Layer 1
10
52.082937
20
104.648965
11
51.991498
21
104.648965
0
LINE
8
Layer 1
10
51.991498
20
104.648965
11
51.698889
21
104.795272
0
LINE
8
Layer 1
10
51.698889
20
104.795272
11
51.516007
21
105.179320
0
LINE
8
Layer 1
10
51.516007
20
105.179320
11
51.442856
21
105.618231
0
LINE
8
Layer 1
10
51.442856
20
105.618231
11
51.424581
21
105.965703
0
LINE
8
Layer 1
10
51.424581
20
105.965703
11
51.424570
21
105.965690
0
LINE
8
Layer 1
10
58.026600
20
103.388000
11
58.300917
21
103.040528
0
LINE
8
Layer 1
10
58.300917
20
103.040528
11
58.721545
21
103.003935
0
LINE
8
Layer 1
10
58.721545
20
103.003935
11
59.544504
21
103.150237
0
LINE
8
Layer 1
10
59.544504
20
103.150237
11
60.312600
21
103.515997
0
LINE
8
Layer 1
10
60.312600
20
103.515997
11
61.025832
21
104.009776
0
LINE
8
Layer 1
10
61.025832
20
104.009776
11
61.684201
21
104.485263
0
LINE
8
Layer 1
10
61.684201
20
104.485263
11
61.867000
21
104.485000
0
LINE
8
Layer 1
10
61.867000
20
104.485000
11
61.867000
21
105.253000
0
LINE
8
Layer 1
10
61.867000
20
105.253000
11
61.775561
21
105.234725
0
LINE
8
Layer 1
10
61.775561
20
105.234725
11
61.684122
21
105.216450
0
LINE
8
Layer 1
10
61.684122
20
105.216450
11
61.336650
21
104.996992
0
LINE
8
Layer 1
10
61.336650
20
104.996992
11
60.861159
21
104.686100
0
LINE
8
Layer 1
10
60.861159
20
104.686100
11
60.349097
21
104.411779
0
LINE
8
Layer 1
10
60.349097
20
104.411779
11
59.946761
21
104.283760
0
LINE
8
Layer 1
10
59.946761
20
104.283760
11
59.891898
21
104.283760
0
LINE
8
Layer 1
10
59.891898
20
104.283760
11
59.855305
21
104.302035
0
LINE
8
Layer 1
10
59.855305
20
104.302035
11
59.654135
21
104.466629
0
LINE
8
Layer 1
10
59.654135
20
104.466629
11
59.489545
21
104.667795
0
LINE
8
Layer 1
10
59.489545
20
104.667795
11
59.471270
21
104.942116
0
LINE
8
Layer 1
10
59.471270
20
104.942116
11
59.471270
21
105.399315
0
LINE
8
Layer 1
10
59.471270
20
105.399315
11
59.452995
21
105.838231
0
LINE
8
Layer 1
10
59.452995
20
105.838231
11
59.452995
21
106.130836
0
LINE
8
Layer 1
10
59.452995
20
106.130836
11
59.562722
21
107.849906
0
LINE
8
Layer 1
10
59.562722
20
107.849906
11
59.800468
21
109.550696
0
LINE
8
Layer 1
10
59.800468
20
109.550696
11
60.038209
21
111.251476
0
LINE
8
Layer 1
10
60.038209
20
111.251476
11
60.147936
21
112.988836
0
LINE
8
Layer 1
10
60.147936
20
112.988836
11
59.366126
21
112.874536
0
LINE
8
Layer 1
10
59.366126
20
112.874536
11
58.630036
21
112.531637
0
LINE
8
Layer 1
10
58.630036
20
112.531637
11
57.477896
21
111.434357
0
LINE
8
Layer 1
10
57.477896
20
111.434357
11
57.551047
21
111.324630
0
LINE
8
Layer 1
10
57.551047
20
111.324630
11
57.660778
21
111.251475
0
LINE
8
Layer 1
10
57.660778
20
111.251475
11
57.752217
21
111.269749
0
LINE
8
Layer 1
10
57.752217
20
111.269749
11
57.935095
21
111.324613
0
LINE
8
Layer 1
10
57.935095
20
111.324613
11
58.099689
21
111.397764
0
LINE
8
Layer 1
10
58.099689
20
111.397764
11
58.209416
21
111.434357
0
LINE
8
Layer 1
10
58.209416
20
111.434357
11
58.355723
21
111.416082
0
LINE
8
Layer 1
10
58.355723
20
111.416082
11
58.520313
21
111.397807
0
LINE
8
Layer 1
10
58.520313
20
111.397807
11
58.428874
21
109.715307
0
LINE
8
Layer 1
10
58.428874
20
109.715307
11
58.264280
21
108.069387
0
LINE
8
Layer 1
10
58.264280
20
108.069387
11
58.081402
21
106.423467
0
LINE
8
Layer 1
10
58.081402
20
106.423467
11
58.008251
21
104.759257
0
LINE
8
Layer 1
10
58.008251
20
104.759257
11
58.008251
21
104.484936
0
LINE
8
Layer 1
10
58.008251
20
104.484936
11
58.008251
21
104.064313
0
LINE
8
Layer 1
10
58.008251
20
104.064313
11
58.026526
21
103.643690
0
LINE
8
Layer 1
10
58.026526
20
103.643690
11
58.026526
21
103.387657
0
LINE
8
Layer 1
10
58.026526
20
103.387657
11
58.026600
21
103.388000
0
LINE
8
Layer 1
10
66.347600
20
105.033000
11
65.780670
21
104.539225
0
LINE
8
Layer 1
10
65.780670
20
104.539225
11
65.030862
21
103.935719
0
LINE
8
Layer 1
10
65.030862
20
103.935719
11
64.207903
21
103.423657
0
LINE
8
Layer 1
10
64.207903
20
103.423657
11
63.421520
21
103.204204
0
LINE
8
Layer 1
10
63.421520
20
103.204204
11
62.671712
21
103.460233
0
LINE
8
Layer 1
10
62.671712
20
103.460233
11
62.232801
21
104.118602
0
LINE
8
Layer 1
10
62.232801
20
104.118602
11
62.232800
21
104.320000
0
LINE
8
Layer 1
10
62.232800
20
104.320000
11
62.214525
21
104.612605
0
LINE
8
Layer 1
10
62.214525
20
104.612605
11
62.214525
21
104.923502
0
LINE
8
Layer 1
10
62.214525
20
104.923502
11
62.214500
21
105.125000
0
LINE
8
Layer 1
10
62.214500
20
105.125000
11
62.415666
21
106.606330
0
LINE
8
Layer 1
10
62.415666
20
106.606330
11
62.946020
21
107.776760
0
LINE
8
Layer 1
10
62.946020
20
107.776760
11
63.677540
21
108.672870
0
LINE
8
Layer 1
10
63.677540
20
108.672870
11
64.537075
21
109.367815
0
LINE
8
Layer 1
10
64.537075
20
109.367815
11
65.670935
21
109.953033
0
LINE
8
Layer 1
10
65.670935
20
109.953033
11
66.585337
21
110.062760
0
LINE
8
Layer 1
10
66.585337
20
110.062760
11
66.877945
21
110.149628
0
LINE
8
Layer 1
10
66.877945
20
110.149628
11
66.987673
21
110.519959
0
LINE
8
Layer 1
10
66.987673
20
110.519959
11
67.115688
21
111.470937
0
LINE
8
Layer 1
10
67.115688
20
111.470937
11
67.225415
21
112.623077
0
LINE
8
Layer 1
10
67.225415
20
112.623077
11
67.572887
21
113.592343
0
LINE
8
Layer 1
10
67.572887
20
113.592343
11
67.929504
21
113.907810
0
LINE
8
Layer 1
10
67.929504
20
113.907810
11
68.450714
21
114.012966
0
LINE
8
Layer 1
10
68.450714
20
114.012966
11
68.651880
21
113.976373
0
LINE
8
Layer 1
10
68.651880
20
113.976373
11
68.816474
21
113.811779
0
LINE
8
Layer 1
10
68.816474
20
113.811779
11
68.816474
21
113.446019
0
LINE
8
Layer 1
10
68.816474
20
113.446019
11
68.834749
21
113.080259
0
LINE
8
Layer 1
10
68.834749
20
113.080259
11
68.725018
21
110.885699
0
LINE
8
Layer 1
10
68.725018
20
110.885699
11
68.505565
21
108.727719
0
LINE
8
Layer 1
10
68.505565
20
108.727719
11
68.267819
21
106.551449
0
LINE
8
Layer 1
10
68.267819
20
106.551449
11
68.176380
21
104.375179
0
LINE
8
Layer 1
10
68.176380
20
104.375179
11
68.395833
21
104.320316
0
LINE
8
Layer 1
10
68.395833
20
104.320316
11
68.633579
21
104.302041
0
LINE
8
Layer 1
10
68.633579
20
104.302041
11
68.816461
21
104.356909
0
LINE
8
Layer 1
10
68.816461
20
104.356909
11
69.090778
21
104.466636
0
LINE
8
Layer 1
10
69.090778
20
104.466636
11
69.365099
21
104.576363
0
LINE
8
Layer 1
10
69.365099
20
104.576363
11
69.547981
21
104.667802
0
LINE
8
Layer 1
10
69.547981
20
104.667802
11
69.547981
21
104.576363
0
LINE
8
Layer 1
10
69.547981
20
104.576363
11
69.566256
21
104.484924
0
LINE
8
Layer 1
10
69.566256
20
104.484924
11
69.273647
21
103.899706
0
LINE
8
Layer 1
10
69.273647
20
103.899706
11
68.615278
21
103.442507
0
LINE
8
Layer 1
10
68.615278
20
103.442507
11
67.828895
21
103.113323
0
LINE
8
Layer 1
10
67.828895
20
103.113323
11
67.188814
21
103.003596
0
LINE
8
Layer 1
10
67.188814
20
103.003596
11
66.859630
21
103.021871
0
LINE
8
Layer 1
10
66.859630
20
103.021871
11
66.621889
21
103.021871
0
LINE
8
Layer 1
10
66.621889
20
103.021871
11
66.439007
21
103.095022
0
LINE
8
Layer 1
10
66.439007
20
103.095022
11
66.347568
21
103.204753
0
LINE
8
Layer 1
10
66.347568
20
103.204753
11
66.347600
21
105.033000
0
LINE
8
Layer 1
10
63.878720
20
104.850122
11
63.951871
21
104.740395
0
LINE
8
Layer 1
10
63.951871
20
104.740395
11
64.061602
21
104.667239
0
LINE
8
Layer 1
10
64.061602
20
104.667239
11
64.262768
21
104.557512
0
LINE
8
Layer 1
10
64.262768
20
104.557512
11
64.427362
21
104.484361
0
LINE
8
Layer 1
10
64.427362
20
104.484361
11
65.122307
21
105.087867
0
LINE
8
Layer 1
10
65.122307
20
105.087867
11
65.853827
21
106.166857
0
LINE
8
Layer 1
10
65.853827
20
106.166857
11
66.420753
21
107.355577
0
LINE
8
Layer 1
10
66.420753
20
107.355577
11
66.658499
21
108.324838
0
LINE
8
Layer 1
10
66.658499
20
108.324838
11
66.640224
21
108.599159
0
LINE
8
Layer 1
10
66.640224
20
108.599159
11
66.621949
21
108.873480
0
LINE
8
Layer 1
10
66.621949
20
108.873480
11
66.183033
21
109.074650
0
LINE
8
Layer 1
10
66.183033
20
109.074650
11
65.707500
21
109.075000
0
LINE
8
Layer 1
10
65.707500
20
109.075000
11
65.135999
21
109.001848
0
LINE
8
Layer 1
10
65.135999
20
109.001848
11
64.701660
21
108.782391
0
LINE
8
Layer 1
10
64.701660
20
108.782391
11
64.153022
21
108.050871
0
LINE
8
Layer 1
10
64.153022
20
108.050871
11
63.915276
21
107.063318
0
LINE
8
Layer 1
10
63.915276
20
107.063318
11
63.860413
21
106.039188
0
LINE
8
Layer 1
10
63.860413
20
106.039188
11
63.860500
21
105.802000
0
LINE
8
Layer 1
10
63.860500
20
105.802000
11
63.860500
21
105.436240
0
LINE
8
Layer 1
10
63.860500
20
105.436240
11
63.878775
21
105.088768
0
LINE
8
Layer 1
10
63.878775
20
105.088768
11
63.878720
21
104.850122
0
LINE
8
Layer 1
10
82.239900
20
112.550000
11
81.398653
21
112.458560
0
LINE
8
Layer 1
10
81.398653
20
112.458560
11
80.703710
21
112.184240
0
LINE
8
Layer 1
10
80.703710
20
112.184240
11
80.132208
21
111.759043
0
LINE
8
Layer 1
10
80.132208
20
111.759043
11
79.661290
21
111.214974
0
LINE
8
Layer 1
10
79.661290
20
111.214974
11
78.984633
21
109.861664
0
LINE
8
Layer 1
10
78.984633
20
109.861664
11
78.582297
21
108.307184
0
LINE
8
Layer 1
10
78.582297
20
108.307184
11
78.289692
21
106.752704
0
LINE
8
Layer 1
10
78.289692
20
106.752704
11
78.033659
21
105.399394
0
LINE
8
Layer 1
10
78.033659
20
105.399394
11
77.859924
21
104.992488
0
LINE
8
Layer 1
10
77.859924
20
104.992488
11
77.558172
21
104.686166
0
LINE
8
Layer 1
10
77.558172
20
104.686166
11
76.790072
21
104.192387
0
LINE
8
Layer 1
10
76.790072
20
104.192387
11
76.095132
21
103.716900
0
LINE
8
Layer 1
10
76.095132
20
103.716900
11
75.875675
21
103.410576
0
LINE
8
Layer 1
10
75.875675
20
103.410576
11
75.802523
21
103.003668
0
LINE
8
Layer 1
10
75.802523
20
103.003668
11
76.844943
21
103.113395
0
LINE
8
Layer 1
10
76.844943
20
103.113395
11
77.905643
21
103.223126
0
LINE
8
Layer 1
10
77.905643
20
103.223126
11
80.191643
21
103.113395
0
LINE
8
Layer 1
10
80.191643
20
103.113395
11
82.477643
21
103.003668
0
LINE
8
Layer 1
10
82.477643
20
103.003668
11
83.227451
21
103.021943
0
LINE
8
Layer 1
10
83.227451
20
103.021943
11
83.904108
21
103.095094
0
LINE
8
Layer 1
10
83.904108
20
103.095094
11
84.525901
21
103.314552
0
LINE
8
Layer 1
10
84.525901
20
103.314552
11
85.165978
21
103.753463
0
LINE
8
Layer 1
10
85.165978
20
103.753463
11
85.312285
21
103.863190
0
LINE
8
Layer 1
10
85.312285
20
103.863190
11
85.586602
21
104.100936
0
LINE
8
Layer 1
10
85.586602
20
104.100936
11
85.842635
21
104.393545
0
LINE
8
Layer 1
10
85.842635
20
104.393545
11
85.970650
21
104.704442
0
LINE
8
Layer 1
10
85.970650
20
104.704442
11
85.019676
21
104.576423
0
LINE
8
Layer 1
10
85.019676
20
104.576423
11
84.050410
21
104.466696
0
LINE
8
Layer 1
10
84.050410
20
104.466696
11
81.508380
21
104.558135
0
LINE
8
Layer 1
10
81.508380
20
104.558135
11
78.984640
21
104.649574
0
LINE
8
Layer 1
10
78.984640
20
104.649574
11
78.966365
21
104.741017
0
LINE
8
Layer 1
10
78.966365
20
104.741017
11
78.948090
21
104.850744
0
LINE
8
Layer 1
10
78.948090
20
104.850744
11
79.258987
21
105.783434
0
LINE
8
Layer 1
10
79.258987
20
105.783434
11
79.496733
21
106.569817
0
LINE
8
Layer 1
10
79.496733
20
106.569817
11
79.679611
21
107.411064
0
LINE
8
Layer 1
10
79.679611
20
107.411064
11
79.862493
21
108.508344
0
LINE
8
Layer 1
10
79.862493
20
108.508344
11
80.045371
21
109.934804
0
LINE
8
Layer 1
10
80.045371
20
109.934804
11
80.337980
21
110.830914
0
LINE
8
Layer 1
10
80.337980
20
110.830914
11
80.644305
21
111.100662
0
LINE
8
Layer 1
10
80.644305
20
111.100662
11
81.087788
21
111.251537
0
LINE
8
Layer 1
10
81.087788
20
111.251537
11
82.605688
21
111.251537
0
LINE
8
Layer 1
10
82.605688
20
111.251537
11
83.337208
21
111.983057
0
LINE
8
Layer 1
10
83.337208
20
111.983057
11
83.318934
21
112.220803
0
LINE
8
Layer 1
10
83.318934
20
112.220803
11
82.953174
21
112.403685
0
LINE
8
Layer 1
10
82.953174
20
112.403685
11
82.514263
21
112.513412
0
LINE
8
Layer 1
10
82.514263
20
112.513412
11
82.239942
21
112.550005
0
LINE
8
Layer 1
10
82.239942
20
112.550005
11
82.239900
21
112.550000
0
LINE
8
Layer 1
10
86.244900
20
103.936000
11
86.336340
21
103.551953
0
LINE
8
Layer 1
10
86.336340
20
103.551953
11
86.610660
21
103.241060
0
LINE
8
Layer 1
10
86.610660
20
103.241060
11
87.360468
21
102.985027
0
LINE
8
Layer 1
10
87.360468
20
102.985027
11
88.000549
21
103.149617
0
LINE
8
Layer 1
10
88.000549
20
103.149617
11
88.457748
21
103.753123
0
LINE
8
Layer 1
10
88.457748
20
103.753123
11
88.018837
21
104.411492
0
LINE
8
Layer 1
10
88.018837
20
104.411492
11
87.269029
21
104.685813
0
LINE
8
Layer 1
10
87.269029
20
104.685813
11
86.939845
21
104.630945
0
LINE
8
Layer 1
10
86.939845
20
104.630945
11
86.592373
21
104.484643
0
LINE
8
Layer 1
10
86.592373
20
104.484643
11
86.336344
21
104.246897
0
LINE
8
Layer 1
10
86.336344
20
104.246897
11
86.244901
21
103.936000
0
LINE
8
Layer 1
10
86.244901
20
103.936000
11
86.244900
21
103.936000
0
LINE
8
Layer 1
10
26.287700
20
89.900400
11
26.269412
21
89.699230
0
LINE
8
Layer 1
10
26.269412
20
89.699230
11
26.287700
21
89.479772
0
LINE
8
Layer 1
10
26.287700
20
89.479772
11
26.360852
21
89.278606
0
LINE
8
Layer 1
10
26.360852
20
89.278606
11
26.580308
21
89.205455
0
LINE
8
Layer 1
10
26.580308
20
89.205455
11
27.330116
21
89.424908
0
LINE
8
Layer 1
10
27.330116
20
89.424908
11
27.951908
21
89.936975
0
LINE
8
Layer 1
10
27.951908
20
89.936975
11
27.951908
21
91.784065
0
LINE
8
Layer 1
10
27.951908
20
91.784065
11
28.098212
21
93.612865
0
LINE
8
Layer 1
10
28.098212
20
93.612865
11
28.262804
21
95.459955
0
LINE
8
Layer 1
10
28.262804
20
95.459955
11
28.354244
21
97.307045
0
LINE
8
Layer 1
10
28.354244
20
97.307045
11
27.526712
21
97.201889
0
LINE
8
Layer 1
10
27.526712
20
97.201889
11
26.690034
21
96.886422
0
LINE
8
Layer 1
10
26.690034
20
96.886422
11
25.953942
21
96.401790
0
LINE
8
Layer 1
10
25.953942
20
96.401790
11
25.391584
21
95.789142
0
LINE
8
Layer 1
10
25.391584
20
95.789142
11
25.519600
21
95.770867
0
LINE
8
Layer 1
10
25.519600
20
95.770867
11
25.665904
21
95.770867
0
LINE
8
Layer 1
10
25.665904
20
95.770867
11
25.812208
21
95.770867
0
LINE
8
Layer 1
10
25.812208
20
95.770867
11
25.940224
21
95.789142
0
LINE
8
Layer 1
10
25.940224
20
95.789142
11
26.031664
21
95.825735
0
LINE
8
Layer 1
10
26.031664
20
95.825735
11
26.214544
21
95.880598
0
LINE
8
Layer 1
10
26.214544
20
95.880598
11
26.379136
21
95.935462
0
LINE
8
Layer 1
10
26.379136
20
95.935462
11
26.488864
21
95.972054
0
LINE
8
Layer 1
10
26.488864
20
95.972054
11
26.635168
21
95.862327
0
LINE
8
Layer 1
10
26.635168
20
95.862327
11
26.690032
21
95.642869
0
LINE
8
Layer 1
10
26.690032
20
95.642869
11
26.671744
21
95.405128
0
LINE
8
Layer 1
10
26.671744
20
95.405128
11
26.671744
21
95.295397
0
LINE
8
Layer 1
10
26.671744
20
95.295397
11
26.470576
21
92.588777
0
LINE
8
Layer 1
10
26.470576
20
92.588777
11
26.287696
21
89.900447
0
LINE
8
Layer 1
10
26.287696
20
89.900447
11
26.287700
21
89.900400
0
LINE
8
Layer 1
10
29.415000
20
89.388300
11
29.597880
21
89.205422
0
LINE
8
Layer 1
10
29.597880
20
89.205422
11
29.744184
21
89.242015
0
LINE
8
Layer 1
10
29.744184
20
89.242015
11
30.055080
21
89.370030
0
LINE
8
Layer 1
10
30.055080
20
89.370030
11
30.402552
21
89.552912
0
LINE
8
Layer 1
10
30.402552
20
89.552912
11
30.695160
21
89.754078
0
LINE
8
Layer 1
10
30.695160
20
89.754078
11
31.829020
21
90.869648
0
LINE
8
Layer 1
10
31.829020
20
90.869648
11
32.688556
21
92.277828
0
LINE
8
Layer 1
10
32.688556
20
92.277828
11
33.237196
21
93.850598
0
LINE
8
Layer 1
10
33.237196
20
93.850598
11
33.438364
21
95.423368
0
LINE
8
Layer 1
10
33.438364
20
95.423368
11
33.292060
21
96.008581
0
LINE
8
Layer 1
10
33.292060
20
96.008581
11
32.944588
21
96.612087
0
LINE
8
Layer 1
10
32.944588
20
96.612087
11
32.450812
21
97.069286
0
LINE
8
Layer 1
10
32.450812
20
97.069286
11
31.902172
21
97.270456
0
LINE
8
Layer 1
10
31.902172
20
97.270456
11
30.731742
21
97.014423
0
LINE
8
Layer 1
10
30.731742
20
97.014423
11
29.707612
21
96.356054
0
LINE
8
Layer 1
10
29.707612
20
96.356054
11
28.957804
21
95.368505
0
LINE
8
Layer 1
10
28.957804
20
95.368505
11
28.665196
21
94.216355
0
LINE
8
Layer 1
10
28.665196
20
94.216355
11
28.752064
21
93.644857
0
LINE
8
Layer 1
10
28.752064
20
93.644857
11
29.012668
21
93.283669
0
LINE
8
Layer 1
10
29.012668
20
93.283669
11
29.419576
21
93.091644
0
LINE
8
Layer 1
10
29.419576
20
93.091644
11
29.945356
21
93.027636
0
LINE
8
Layer 1
10
29.945356
20
93.027636
11
30.750028
21
93.119075
0
LINE
8
Layer 1
10
30.750028
20
93.119075
11
31.572988
21
93.210518
0
LINE
8
Layer 1
10
31.572988
20
93.210518
11
31.417540
21
92.099518
0
LINE
8
Layer 1
10
31.417540
20
92.099518
11
30.951196
21
91.070818
0
LINE
8
Layer 1
10
30.951196
20
91.070818
11
30.265396
21
90.156417
0
LINE
8
Layer 1
10
30.265396
20
90.156417
11
29.415006
21
89.388318
0
LINE
8
Layer 1
10
29.415006
20
89.388318
11
29.415000
21
89.388300
0
LINE
8
Layer 1
10
30.128232
20
95.240460
11
30.274536
21
95.734239
0
LINE
8
Layer 1
10
30.274536
20
95.734239
11
30.695160
21
95.990268
0
LINE
8
Layer 1
10
30.695160
20
95.990268
11
31.134072
21
95.862253
0
LINE
8
Layer 1
10
31.134072
20
95.862253
11
31.481544
21
95.551356
0
LINE
8
Layer 1
10
31.481544
20
95.551356
11
31.719288
21
95.130733
0
LINE
8
Layer 1
10
31.719288
20
95.130733
11
31.810728
21
94.691822
0
LINE
8
Layer 1
10
31.810728
20
94.691822
11
31.554696
21
94.271199
0
LINE
8
Layer 1
10
31.554696
20
94.271199
11
31.060920
21
94.124892
0
LINE
8
Layer 1
10
31.060920
20
94.124892
11
30.644868
21
94.211760
0
LINE
8
Layer 1
10
30.644868
20
94.211760
11
30.347688
21
94.472364
0
LINE
8
Layer 1
10
30.347688
20
94.472364
11
30.128232
21
95.240460
0
LINE
8
Layer 1
10
30.128232
20
95.240460
11
30.128232
21
95.240460
0
LINE
8
Layer 1
10
33.785800
20
90.375800
11
33.868096
21
90.691267
0
LINE
8
Layer 1
10
33.868096
20
90.691267
11
34.114984
21
90.942726
0
LINE
8
Layer 1
10
34.114984
20
90.942726
11
34.791640
21
91.180472
0
LINE
8
Layer 1
10
34.791640
20
91.180472
11
35.340280
21
91.089033
0
LINE
8
Layer 1
10
35.340280
20
91.089033
11
35.870632
21
90.887863
0
LINE
8
Layer 1
10
35.870632
20
90.887863
11
36.382696
21
90.704985
0
LINE
8
Layer 1
10
36.382696
20
90.704985
11
36.967912
21
90.613546
0
LINE
8
Layer 1
10
36.967912
20
90.613546
11
37.498264
21
90.650139
0
LINE
8
Layer 1
10
37.498264
20
90.650139
11
38.028616
21
90.814729
0
LINE
8
Layer 1
10
38.028616
20
90.814729
11
38.412664
21
91.125626
0
LINE
8
Layer 1
10
38.412664
20
91.125626
11
38.577256
21
91.674264
0
LINE
8
Layer 1
10
38.577256
20
91.674264
11
38.376088
21
92.478940
0
LINE
8
Layer 1
10
38.376088
20
92.478940
11
37.845736
21
93.045866
0
LINE
8
Layer 1
10
37.845736
20
93.045866
11
37.132504
21
93.466489
0
LINE
8
Layer 1
10
37.132504
20
93.466489
11
36.364408
21
93.813961
0
LINE
8
Layer 1
10
36.364408
20
93.813961
11
36.346120
21
93.887112
0
LINE
8
Layer 1
10
36.346120
20
93.887112
11
36.346120
21
93.978555
0
LINE
8
Layer 1
10
36.346120
20
93.978555
11
36.414700
21
94.326027
0
LINE
8
Layer 1
10
36.414700
20
94.326027
11
36.620440
21
94.600344
0
LINE
8
Layer 1
10
36.620440
20
94.600344
11
37.242232
21
95.057547
0
LINE
8
Layer 1
10
37.242232
20
95.057547
11
37.845736
21
95.533034
0
LINE
8
Layer 1
10
37.845736
20
95.533034
11
38.065192
21
95.825643
0
LINE
8
Layer 1
10
38.065192
20
95.825643
11
38.138344
21
96.191403
0
LINE
8
Layer 1
10
38.138344
20
96.191403
11
36.364400
21
96.191500
0
LINE
8
Layer 1
10
36.364400
20
96.191500
11
36.272960
21
96.282939
0
LINE
8
Layer 1
10
36.272960
20
96.282939
11
36.181520
21
96.465821
0
LINE
8
Layer 1
10
36.181520
20
96.465821
11
36.163232
21
96.502414
0
LINE
8
Layer 1
10
36.163232
20
96.502414
11
36.163232
21
96.557277
0
LINE
8
Layer 1
10
36.163232
20
96.557277
11
36.218096
21
96.795018
0
LINE
8
Layer 1
10
36.218096
20
96.795018
11
36.400976
21
97.032764
0
LINE
8
Layer 1
10
36.400976
20
97.032764
11
36.638720
21
97.233934
0
LINE
8
Layer 1
10
36.638720
20
97.233934
11
36.913040
21
97.325373
0
LINE
8
Layer 1
10
36.913040
20
97.325373
11
39.656300
21
97.325300
0
LINE
8
Layer 1
10
39.656300
20
97.325300
11
39.839180
21
97.142418
0
LINE
8
Layer 1
10
39.839180
20
97.142418
11
39.857468
21
96.904677
0
LINE
8
Layer 1
10
39.857468
20
96.904677
11
39.692876
21
96.392610
0
LINE
8
Layer 1
10
39.692876
20
96.392610
11
39.308828
21
95.862260
0
LINE
8
Layer 1
10
39.308828
20
95.862260
11
38.888204
21
95.386773
0
LINE
8
Layer 1
10
38.888204
20
95.386773
11
38.559020
21
95.039301
0
LINE
8
Layer 1
10
38.559020
20
95.039301
11
38.540732
21
94.984433
0
LINE
8
Layer 1
10
38.540732
20
94.984433
11
38.540732
21
94.966158
0
LINE
8
Layer 1
10
38.540732
20
94.966158
11
38.796764
21
94.563822
0
LINE
8
Layer 1
10
38.796764
20
94.563822
11
39.381980
21
94.106623
0
LINE
8
Layer 1
10
39.381980
20
94.106623
11
39.948908
21
93.484830
0
LINE
8
Layer 1
10
39.948908
20
93.484830
11
40.154648
21
93.096211
0
LINE
8
Layer 1
10
40.154648
20
93.096211
11
40.223228
21
92.625295
0
LINE
8
Layer 1
10
40.223228
20
92.625295
11
40.113500
21
92.003504
0
LINE
8
Layer 1
10
40.113500
20
92.003504
11
39.784316
21
91.381715
0
LINE
8
Layer 1
10
39.784316
20
91.381715
11
38.687036
21
90.284436
0
LINE
8
Layer 1
10
38.687036
20
90.284436
11
37.278856
21
89.498047
0
LINE
8
Layer 1
10
37.278856
20
89.498047
11
35.907256
21
89.205443
0
LINE
8
Layer 1
10
35.907256
20
89.205443
11
35.340328
21
89.296881
0
LINE
8
Layer 1
10
35.340328
20
89.296881
11
34.645384
21
89.552914
0
LINE
8
Layer 1
10
34.645384
20
89.552914
11
34.041880
21
89.918674
0
LINE
8
Layer 1
10
34.041880
20
89.918674
11
33.785848
21
90.375873
0
LINE
8
Layer 1
10
33.785848
20
90.375873
11
33.785800
21
90.375800
0
LINE
8
Layer 1
10
41.466800
20
89.900400
11
41.448512
21
89.699230
0
LINE
8
Layer 1
10
41.448512
20
89.699230
11
41.466800
21
89.479772
0
LINE
8
Layer 1
10
41.466800
20
89.479772
11
41.539952
21
89.278606
0
LINE
8
Layer 1
10
41.539952
20
89.278606
11
41.759408
21
89.205455
0
LINE
8
Layer 1
10
41.759408
20
89.205455
11
42.509216
21
89.424908
0
LINE
8
Layer 1
10
42.509216
20
89.424908
11
43.131008
21
89.936975
0
LINE
8
Layer 1
10
43.131008
20
89.936975
11
43.131008
21
91.784065
0
LINE
8
Layer 1
10
43.131008
20
91.784065
11
43.277312
21
93.612865
0
LINE
8
Layer 1
10
43.277312
20
93.612865
11
43.441904
21
95.459955
0
LINE
8
Layer 1
10
43.441904
20
95.459955
11
43.533344
21
97.307045
0
LINE
8
Layer 1
10
43.533344
20
97.307045
11
42.705811
21
97.201889
0
LINE
8
Layer 1
10
42.705811
20
97.201889
11
41.869134
21
96.886422
0
LINE
8
Layer 1
10
41.869134
20
96.886422
11
41.133041
21
96.401790
0
LINE
8
Layer 1
10
41.133041
20
96.401790
11
40.570684
21
95.789142
0
LINE
8
Layer 1
10
40.570684
20
95.789142
11
40.698700
21
95.770867
0
LINE
8
Layer 1
10
40.698700
20
95.770867
11
40.845004
21
95.770867
0
LINE
8
Layer 1
10
40.845004
20
95.770867
11
40.991308
21
95.770867
0
LINE
8
Layer 1
10
40.991308
20
95.770867
11
41.119324
21
95.789142
0
LINE
8
Layer 1
10
41.119324
20
95.789142
11
41.210764
21
95.825735
0
LINE
8
Layer 1
10
41.210764
20
95.825735
11
41.393644
21
95.880598
0
LINE
8
Layer 1
10
41.393644
20
95.880598
11
41.558236
21
95.935462
0
LINE
8
Layer 1
10
41.558236
20
95.935462
11
41.667964
21
95.972054
0
LINE
8
Layer 1
10
41.667964
20
95.972054
11
41.814268
21
95.862327
0
LINE
8
Layer 1
10
41.814268
20
95.862327
11
41.869132
21
95.642869
0
LINE
8
Layer 1
10
41.869132
20
95.642869
11
41.850844
21
95.405128
0
LINE
8
Layer 1
10
41.850844
20
95.405128
11
41.850844
21
95.295397
0
LINE
8
Layer 1
10
41.850844
20
95.295397
11
41.649676
21
92.588777
0
LINE
8
Layer 1
10
41.649676
20
92.588777
11
41.466796
21
89.900447
0
LINE
8
Layer 1
10
41.466796
20
89.900447
11
41.466800
21
89.900400
0
LINE
8
Layer 1
10
49.733000
20
93.009300
11
49.824440
21
93.283621
0
LINE
8
Layer 1
10
49.824440
20
93.283621
11
50.080472
21
93.539654
0
LINE
8
Layer 1
10
50.080472
20
93.539654
11
50.409656
21
93.759107
0
LINE
8
Layer 1
10
50.409656
20
93.759107
11
50.702265
21
93.887122
0
LINE
8
Layer 1
10
50.702265
20
93.887122
11
51.324054
21
93.868847
0
LINE
8
Layer 1
10
51.324054
20
93.868847
11
52.256744
21
93.868847
0
LINE
8
Layer 1
10
52.256744
20
93.868847
11
53.189430
21
93.868847
0
LINE
8
Layer 1
10
53.189430
20
93.868847
11
53.811223
21
93.887122
0
LINE
8
Layer 1
10
53.811223
20
93.887122
11
53.939242
21
93.905397
0
LINE
8
Layer 1
10
53.939242
20
93.905397
11
54.158695
21
93.978548
0
LINE
8
Layer 1
10
54.158695
20
93.978548
11
54.396441
21
94.033411
0
LINE
8
Layer 1
10
54.396441
20
94.033411
11
54.542743
21
94.070004
0
LINE
8
Layer 1
10
54.542743
20
94.070004
11
54.817000
21
94.070000
0
LINE
8
Layer 1
10
54.817000
20
94.070000
11
55.091400
21
94.070000
0
LINE
8
Layer 1
10
55.091400
20
94.070000
11
54.615909
21
93.594513
0
LINE
8
Layer 1
10
54.615909
20
93.594513
11
54.012408
21
93.192177
0
LINE
8
Layer 1
10
54.012408
20
93.192177
11
53.354039
21
92.899568
0
LINE
8
Layer 1
10
53.354039
20
92.899568
11
52.732246
21
92.789837
0
LINE
8
Layer 1
10
52.732246
20
92.789837
11
51.232626
21
92.899568
0
LINE
8
Layer 1
10
51.232626
20
92.899568
11
49.733006
21
93.009295
0
LINE
8
Layer 1
10
49.733006
20
93.009295
11
49.733000
21
93.009300
0
LINE
8
Layer 1
10
62.827200
20
89.918600
11
62.498016
21
89.827157
0
LINE
8
Layer 1
10
62.498016
20
89.827157
11
62.205407
21
89.644279
0
LINE
8
Layer 1
10
62.205407
20
89.644279
11
61.894515
21
89.443109
0
LINE
8
Layer 1
10
61.894515
20
89.443109
11
61.565331
21
89.369958
0
LINE
8
Layer 1
10
61.565331
20
89.369958
11
61.455600
21
89.369958
0
LINE
8
Layer 1
10
61.455600
20
89.369958
11
61.382449
21
89.388232
0
LINE
8
Layer 1
10
61.382449
20
89.388232
11
62.040818
21
90.375785
0
LINE
8
Layer 1
10
62.040818
20
90.375785
11
63.010084
21
91.253607
0
LINE
8
Layer 1
10
63.010084
20
91.253607
11
64.089074
21
92.058278
0
LINE
8
Layer 1
10
64.089074
20
92.058278
11
65.113194
21
92.881241
0
LINE
8
Layer 1
10
65.113194
20
92.881241
11
65.863002
21
93.795639
0
LINE
8
Layer 1
10
65.863002
20
93.795639
11
66.082459
21
94.298560
0
LINE
8
Layer 1
10
66.082459
20
94.298560
11
66.155611
21
94.856339
0
LINE
8
Layer 1
10
66.155611
20
94.856339
11
65.991021
21
95.386693
0
LINE
8
Layer 1
10
65.991021
20
95.386693
11
65.606973
21
95.789029
0
LINE
8
Layer 1
10
65.606973
20
95.789029
11
65.058331
21
96.063346
0
LINE
8
Layer 1
10
65.058331
20
96.063346
11
64.491405
21
96.154790
0
LINE
8
Layer 1
10
64.491405
20
96.154790
11
64.143933
21
96.081634
0
LINE
8
Layer 1
10
64.143933
20
96.081634
11
63.796461
21
95.917044
0
LINE
8
Layer 1
10
63.796461
20
95.917044
11
63.503852
21
95.661011
0
LINE
8
Layer 1
10
63.503852
20
95.661011
11
63.394125
21
95.386694
0
LINE
8
Layer 1
10
63.394125
20
95.386694
11
63.394100
21
95.277000
0
LINE
8
Layer 1
10
63.394100
20
95.277000
11
63.576978
21
94.234580
0
LINE
8
Layer 1
10
63.576978
20
94.234580
11
63.577000
21
94.161500
0
LINE
8
Layer 1
10
63.577000
20
94.161500
11
63.499276
21
93.855177
0
LINE
8
Layer 1
10
63.499276
20
93.855177
11
63.266103
21
93.594574
0
LINE
8
Layer 1
10
63.266103
20
93.594574
11
62.644314
21
93.356828
0
LINE
8
Layer 1
10
62.644314
20
93.356828
11
62.369993
21
93.503130
0
LINE
8
Layer 1
10
62.369993
20
93.503130
11
62.260266
21
93.850602
0
LINE
8
Layer 1
10
62.260266
20
93.850602
11
62.260266
21
94.234650
0
LINE
8
Layer 1
10
62.260266
20
94.234650
11
62.278541
21
94.508971
0
LINE
8
Layer 1
10
62.278541
20
94.508971
11
62.552858
21
95.587961
0
LINE
8
Layer 1
10
62.552858
20
95.587961
11
63.266090
21
96.429208
0
LINE
8
Layer 1
10
63.266090
20
96.429208
11
64.308510
21
96.996138
0
LINE
8
Layer 1
10
64.308510
20
96.996138
11
65.515520
21
97.197308
0
LINE
8
Layer 1
10
65.515520
20
97.197308
11
66.228752
21
97.087577
0
LINE
8
Layer 1
10
66.228752
20
97.087577
11
66.905409
21
96.794968
0
LINE
8
Layer 1
10
66.905409
20
96.794968
11
67.399188
21
96.301193
0
LINE
8
Layer 1
10
67.399188
20
96.301193
11
67.600354
21
95.624536
0
LINE
8
Layer 1
10
67.600354
20
95.624536
11
67.380901
21
94.691850
0
LINE
8
Layer 1
10
67.380901
20
94.691850
11
66.868834
21
93.887174
0
LINE
8
Layer 1
10
66.868834
20
93.887174
11
66.356772
21
93.411687
0
LINE
8
Layer 1
10
66.356772
20
93.411687
11
65.588676
21
92.661879
0
LINE
8
Layer 1
10
65.588676
20
92.661879
11
64.820580
21
91.930359
0
LINE
8
Layer 1
10
64.820580
20
91.930359
11
64.308513
21
91.473160
0
LINE
8
Layer 1
10
64.308513
20
91.473160
11
64.619410
21
91.121116
0
LINE
8
Layer 1
10
64.619410
20
91.121116
11
65.076609
21
90.869654
0
LINE
8
Layer 1
10
65.076609
20
90.869654
11
66.192179
21
90.577045
0
LINE
8
Layer 1
10
66.192179
20
90.577045
11
67.179732
21
90.375879
0
LINE
8
Layer 1
10
67.179732
20
90.375879
11
67.508915
21
90.257007
0
LINE
8
Layer 1
10
67.508915
20
90.257007
11
67.618643
21
90.083270
0
LINE
8
Layer 1
10
67.618643
20
90.083270
11
67.600368
21
89.973543
0
LINE
8
Layer 1
10
67.600368
20
89.973543
11
67.600368
21
89.900392
0
LINE
8
Layer 1
10
67.600368
20
89.900392
11
66.521378
21
89.388325
0
LINE
8
Layer 1
10
66.521378
20
89.388325
11
65.369238
21
89.187159
0
LINE
8
Layer 1
10
65.369238
20
89.187159
11
64.710869
21
89.296886
0
LINE
8
Layer 1
10
64.710869
20
89.296886
11
64.089080
21
89.534632
0
LINE
8
Layer 1
10
64.089080
20
89.534632
11
63.485574
21
89.790661
0
LINE
8
Layer 1
10
63.485574
20
89.790661
11
62.827205
21
89.918680
0
LINE
8
Layer 1
10
62.827205
20
89.918680
11
62.827200
21
89.918600
0
LINE
8
Layer 1
10
67.984400
20
92.552100
11
68.020993
21
91.381670
0
LINE
8
Layer 1
10
68.020993
20
91.381670
11
68.258739
21
90.302680
0
LINE
8
Layer 1
10
68.258739
20
90.302680
11
68.843957
21
89.498004
0
LINE
8
Layer 1
10
68.843957
20
89.498004
11
69.319445
21
89.264835
0
LINE
8
Layer 1
10
69.319445
20
89.264835
11
69.941237
21
89.187112
0
LINE
8
Layer 1
10
69.941237
20
89.187112
11
70.823631
21
89.315127
0
LINE
8
Layer 1
10
70.823631
20
89.315127
11
71.642017
21
89.699174
0
LINE
8
Layer 1
10
71.642017
20
89.699174
11
72.373536
21
90.293534
0
LINE
8
Layer 1
10
72.373536
20
90.293534
11
72.995327
21
91.015914
0
LINE
8
Layer 1
10
72.995327
20
91.015914
11
73.909729
21
92.716694
0
LINE
8
Layer 1
10
73.909729
20
92.716694
11
74.238909
21
94.454054
0
LINE
8
Layer 1
10
74.238909
20
94.454054
11
74.165758
21
95.423320
0
LINE
8
Layer 1
10
74.165758
20
95.423320
11
73.873149
21
96.337718
0
LINE
8
Layer 1
10
73.873149
20
96.337718
11
73.269648
21
97.014375
0
LINE
8
Layer 1
10
73.269648
20
97.014375
11
72.844451
21
97.206400
0
LINE
8
Layer 1
10
72.844451
20
97.206400
11
72.300382
21
97.270408
0
LINE
8
Layer 1
10
72.300382
20
97.270408
11
71.472851
21
97.160680
0
LINE
8
Layer 1
10
71.472851
20
97.160680
11
70.672752
21
96.831497
0
LINE
8
Layer 1
10
70.672752
20
96.831497
11
69.945804
21
96.328574
0
LINE
8
Layer 1
10
69.945804
20
96.328574
11
69.301152
21
95.697637
0
LINE
8
Layer 1
10
69.301152
20
95.697637
11
68.331886
21
94.179737
0
LINE
8
Layer 1
10
68.331886
20
94.179737
11
68.071282
21
93.352206
0
LINE
8
Layer 1
10
68.071282
20
93.352206
11
67.984414
21
92.552107
0
LINE
8
Layer 1
10
67.984414
20
92.552107
11
67.984400
21
92.552100
0
LINE
8
Layer 1
10
69.630320
20
93.137313
11
69.666913
21
93.996852
0
LINE
8
Layer 1
10
69.666913
20
93.996852
11
69.868079
21
95.002692
0
LINE
8
Layer 1
10
69.868079
20
95.002692
11
70.343570
21
95.825651
0
LINE
8
Layer 1
10
70.343570
20
95.825651
11
70.713902
21
96.086255
0
LINE
8
Layer 1
10
70.713902
20
96.086255
11
71.203105
21
96.173123
0
LINE
8
Layer 1
10
71.203105
20
96.173123
11
71.605440
21
96.104543
0
LINE
8
Layer 1
10
71.605440
20
96.104543
11
71.934625
21
95.898802
0
LINE
8
Layer 1
10
71.934625
20
95.898802
11
72.428400
21
95.222145
0
LINE
8
Layer 1
10
72.428400
20
95.222145
11
72.684433
21
94.362610
0
LINE
8
Layer 1
10
72.684433
20
94.362610
11
72.775872
21
93.594514
0
LINE
8
Layer 1
10
72.775872
20
93.594514
11
72.702721
21
92.698399
0
LINE
8
Layer 1
10
72.702721
20
92.698399
11
72.428400
21
91.674269
0
LINE
8
Layer 1
10
72.428400
20
91.674269
11
71.916338
21
90.814734
0
LINE
8
Layer 1
10
71.916338
20
90.814734
11
71.559721
21
90.554130
0
LINE
8
Layer 1
10
71.559721
20
90.554130
11
71.111667
21
90.467262
0
LINE
8
Layer 1
10
71.111667
20
90.467262
11
70.627034
21
90.535842
0
LINE
8
Layer 1
10
70.627034
20
90.535842
11
70.270420
21
90.741583
0
LINE
8
Layer 1
10
70.270420
20
90.741583
11
69.831504
21
91.436528
0
LINE
8
Layer 1
10
69.831504
20
91.436528
11
69.648626
21
92.314350
0
LINE
8
Layer 1
10
69.648626
20
92.314350
11
69.630351
21
93.137309
0
LINE
8
Layer 1
10
69.630351
20
93.137309
11
69.630320
21
93.137313
0
LINE
8
Layer 1
10
76.031100
20
89.918600
11
75.701916
21
89.827157
0
LINE
8
Layer 1
10
75.701916
20
89.827157
11
75.409307
21
89.644279
0
LINE
8
Layer 1
10
75.409307
20
89.644279
11
75.098410
21
89.443109
0
LINE
8
Layer 1
10
75.098410
20
89.443109
11
74.769226
21
89.369958
0
LINE
8
Layer 1
10
74.769226
20
89.369958
11
74.659499
21
89.369958
0
LINE
8
Layer 1
10
74.659499
20
89.369958
11
74.586348
21
89.388232
0
LINE
8
Layer 1
10
74.586348
20
89.388232
11
75.244713
21
90.375785
0
LINE
8
Layer 1
10
75.244713
20
90.375785
11
76.213979
21
91.253607
0
LINE
8
Layer 1
10
76.213979
20
91.253607
11
77.292969
21
92.058278
0
LINE
8
Layer 1
10
77.292969
20
92.058278
11
78.317099
21
92.881241
0
LINE
8
Layer 1
10
78.317099
20
92.881241
11
79.066907
21
93.795639
0
LINE
8
Layer 1
10
79.066907
20
93.795639
11
79.286364
21
94.298560
0
LINE
8
Layer 1
10
79.286364
20
94.298560
11
79.359516
21
94.856339
0
LINE
8
Layer 1
10
79.359516
20
94.856339
11
79.194922
21
95.386693
0
LINE
8
Layer 1
10
79.194922
20
95.386693
11
78.810874
21
95.789029
0
LINE
8
Layer 1
10
78.810874
20
95.789029
11
78.262236
21
96.063346
0
LINE
8
Layer 1
10
78.262236
20
96.063346
11
77.695306
21
96.154790
0
LINE
8
Layer 1
10
77.695306
20
96.154790
11
77.347834
21
96.081634
0
LINE
8
Layer 1
10
77.347834
20
96.081634
11
77.000362
21
95.917044
0
LINE
8
Layer 1
10
77.000362
20
95.917044
11
76.707753
21
95.661011
0
LINE
8
Layer 1
10
76.707753
20
95.661011
11
76.598026
21
95.386694
0
LINE
8
Layer 1
10
76.598026
20
95.386694
11
76.598000
21
95.277000
0
LINE
8
Layer 1
10
76.598000
20
95.277000
11
76.780882
21
94.234580
0
LINE
8
Layer 1
10
76.780882
20
94.234580
11
76.780900
21
94.161500
0
LINE
8
Layer 1
10
76.780900
20
94.161500
11
76.703176
21
93.855177
0
LINE
8
Layer 1
10
76.703176
20
93.855177
11
76.470003
21
93.594574
0
LINE
8
Layer 1
10
76.470003
20
93.594574
11
75.848210
21
93.356828
0
LINE
8
Layer 1
10
75.848210
20
93.356828
11
75.573889
21
93.503130
0
LINE
8
Layer 1
10
75.573889
20
93.503130
11
75.464162
21
93.850602
0
LINE
8
Layer 1
10
75.464162
20
93.850602
11
75.464162
21
94.234650
0
LINE
8
Layer 1
10
75.464162
20
94.234650
11
75.482437
21
94.508971
0
LINE
8
Layer 1
10
75.482437
20
94.508971
11
75.756758
21
95.587961
0
LINE
8
Layer 1
10
75.756758
20
95.587961
11
76.469990
21
96.429208
0
LINE
8
Layer 1
10
76.469990
20
96.429208
11
77.512410
21
96.996138
0
LINE
8
Layer 1
10
77.512410
20
96.996138
11
78.719420
21
97.197308
0
LINE
8
Layer 1
10
78.719420
20
97.197308
11
79.432652
21
97.087577
0
LINE
8
Layer 1
10
79.432652
20
97.087577
11
80.109309
21
96.794968
0
LINE
8
Layer 1
10
80.109309
20
96.794968
11
80.603084
21
96.301193
0
LINE
8
Layer 1
10
80.603084
20
96.301193
11
80.804254
21
95.624536
0
LINE
8
Layer 1
10
80.804254
20
95.624536
11
80.584796
21
94.691850
0
LINE
8
Layer 1
10
80.584796
20
94.691850
11
80.072734
21
93.887174
0
LINE
8
Layer 1
10
80.072734
20
93.887174
11
79.560667
21
93.411687
0
LINE
8
Layer 1
10
79.560667
20
93.411687
11
78.792571
21
92.661879
0
LINE
8
Layer 1
10
78.792571
20
92.661879
11
78.024475
21
91.930359
0
LINE
8
Layer 1
10
78.024475
20
91.930359
11
77.512413
21
91.473160
0
LINE
8
Layer 1
10
77.512413
20
91.473160
11
77.823307
21
91.121116
0
LINE
8
Layer 1
10
77.823307
20
91.121116
11
78.280509
21
90.869654
0
LINE
8
Layer 1
10
78.280509
20
90.869654
11
79.396079
21
90.577045
0
LINE
8
Layer 1
10
79.396079
20
90.577045
11
80.383632
21
90.375879
0
LINE
8
Layer 1
10
80.383632
20
90.375879
11
80.712815
21
90.257007
0
LINE
8
Layer 1
10
80.712815
20
90.257007
11
80.822543
21
90.083270
0
LINE
8
Layer 1
10
80.822543
20
90.083270
11
80.804268
21
89.973543
0
LINE
8
Layer 1
10
80.804268
20
89.973543
11
80.804268
21
89.900392
0
LINE
8
Layer 1
10
80.804268
20
89.900392
11
79.725278
21
89.388325
0
LINE
8
Layer 1
10
79.725278
20
89.388325
11
78.573138
21
89.187159
0
LINE
8
Layer 1
10
78.573138
20
89.187159
11
77.914769
21
89.296886
0
LINE
8
Layer 1
10
77.914769
20
89.296886
11
77.292976
21
89.534632
0
LINE
8
Layer 1
10
77.292976
20
89.534632
11
76.689470
21
89.790661
0
LINE
8
Layer 1
10
76.689470
20
89.790661
11
76.031105
21
89.918680
0
LINE
8
Layer 1
10
76.031105
20
89.918680
11
76.031100
21
89.918600
0
LINE
8
Layer 1
10
81.188300
20
90.375800
11
81.270596
21
90.691267
0
LINE
8
Layer 1
10
81.270596
20
90.691267
11
81.517484
21
90.942726
0
LINE
8
Layer 1
10
81.517484
20
90.942726
11
82.194141
21
91.180472
0
LINE
8
Layer 1
10
82.194141
20
91.180472
11
82.742779
21
91.089033
0
LINE
8
Layer 1
10
82.742779
20
91.089033
11
83.273133
21
90.887863
0
LINE
8
Layer 1
10
83.273133
20
90.887863
11
83.785195
21
90.704985
0
LINE
8
Layer 1
10
83.785195
20
90.704985
11
84.370413
21
90.613546
0
LINE
8
Layer 1
10
84.370413
20
90.613546
11
84.900763
21
90.650139
0
LINE
8
Layer 1
10
84.900763
20
90.650139
11
85.431117
21
90.814729
0
LINE
8
Layer 1
10
85.431117
20
90.814729
11
85.815165
21
91.125626
0
LINE
8
Layer 1
10
85.815165
20
91.125626
11
85.979755
21
91.674264
0
LINE
8
Layer 1
10
85.979755
20
91.674264
11
85.778589
21
92.478940
0
LINE
8
Layer 1
10
85.778589
20
92.478940
11
85.248235
21
93.045866
0
LINE
8
Layer 1
10
85.248235
20
93.045866
11
84.535003
21
93.466489
0
LINE
8
Layer 1
10
84.535003
20
93.466489
11
83.766907
21
93.813961
0
LINE
8
Layer 1
10
83.766907
20
93.813961
11
83.748632
21
93.887112
0
LINE
8
Layer 1
10
83.748632
20
93.887112
11
83.748632
21
93.978555
0
LINE
8
Layer 1
10
83.748632
20
93.978555
11
83.817212
21
94.326027
0
LINE
8
Layer 1
10
83.817212
20
94.326027
11
84.022953
21
94.600344
0
LINE
8
Layer 1
10
84.022953
20
94.600344
11
84.644746
21
95.057547
0
LINE
8
Layer 1
10
84.644746
20
95.057547
11
85.248247
21
95.533034
0
LINE
8
Layer 1
10
85.248247
20
95.533034
11
85.467704
21
95.825643
0
LINE
8
Layer 1
10
85.467704
20
95.825643
11
85.540856
21
96.191403
0
LINE
8
Layer 1
10
85.540856
20
96.191403
11
83.766900
21
96.191500
0
LINE
8
Layer 1
10
83.766900
20
96.191500
11
83.675461
21
96.282939
0
LINE
8
Layer 1
10
83.675461
20
96.282939
11
83.584022
21
96.465821
0
LINE
8
Layer 1
10
83.584022
20
96.465821
11
83.565747
21
96.502414
0
LINE
8
Layer 1
10
83.565747
20
96.502414
11
83.565747
21
96.557277
0
LINE
8
Layer 1
10
83.565747
20
96.557277
11
83.620611
21
96.795018
0
LINE
8
Layer 1
10
83.620611
20
96.795018
11
83.803489
21
97.032764
0
LINE
8
Layer 1
10
83.803489
20
97.032764
11
84.041235
21
97.233934
0
LINE
8
Layer 1
10
84.041235
20
97.233934
11
84.315556
21
97.325373
0
LINE
8
Layer 1
10
84.315556
20
97.325373
11
87.058800
21
97.325300
0
LINE
8
Layer 1
10
87.058800
20
97.325300
11
87.241682
21
97.142418
0
LINE
8
Layer 1
10
87.241682
20
97.142418
11
87.259957
21
96.904677
0
LINE
8
Layer 1
10
87.259957
20
96.904677
11
87.095363
21
96.392610
0
LINE
8
Layer 1
10
87.095363
20
96.392610
11
86.711315
21
95.862260
0
LINE
8
Layer 1
10
86.711315
20
95.862260
11
86.290692
21
95.386773
0
LINE
8
Layer 1
10
86.290692
20
95.386773
11
85.961508
21
95.039301
0
LINE
8
Layer 1
10
85.961508
20
95.039301
11
85.943233
21
94.984433
0
LINE
8
Layer 1
10
85.943233
20
94.984433
11
85.943233
21
94.966158
0
LINE
8
Layer 1
10
85.943233
20
94.966158
11
86.199266
21
94.563822
0
LINE
8
Layer 1
10
86.199266
20
94.563822
11
86.784479
21
94.106623
0
LINE
8
Layer 1
10
86.784479
20
94.106623
11
87.351409
21
93.484830
0
LINE
8
Layer 1
10
87.351409
20
93.484830
11
87.557150
21
93.096211
0
LINE
8
Layer 1
10
87.557150
20
93.096211
11
87.625730
21
92.625295
0
LINE
8
Layer 1
10
87.625730
20
92.625295
11
87.516001
21
92.003504
0
LINE
8
Layer 1
10
87.516001
20
92.003504
11
87.186814
21
91.381715
0
LINE
8
Layer 1
10
87.186814
20
91.381715
11
86.089534
21
90.284436
0
LINE
8
Layer 1
10
86.089534
20
90.284436
11
84.681364
21
89.498047
0
LINE
8
Layer 1
10
84.681364
20
89.498047
11
83.309764
21
89.205443
0
LINE
8
Layer 1
10
83.309764
20
89.205443
11
82.742834
21
89.296881
0
LINE
8
Layer 1
10
82.742834
20
89.296881
11
82.047889
21
89.552914
0
LINE
8
Layer 1
10
82.047889
20
89.552914
11
81.444388
21
89.918674
0
LINE
8
Layer 1
10
81.444388
20
89.918674
11
81.188355
21
90.375873
0
LINE
8
Layer 1
10
81.188355
20
90.375873
11
81.188300
21
90.375800
0
LINE
8
Layer 1
10
114.972000
20
90.945100
11
114.953725
21
90.743930
0
LINE
8
Layer 1
10
114.953725
20
90.743930
11
114.972000
21
90.524477
0
LINE
8
Layer 1
10
114.972000
20
90.524477
11
115.045155
21
90.323307
0
LINE
8
Layer 1
10
115.045155
20
90.323307
11
115.264608
21
90.250156
0
LINE
8
Layer 1
10
115.264608
20
90.250156
11
116.014416
21
90.469614
0
LINE
8
Layer 1
10
116.014416
20
90.469614
11
116.636209
21
90.981676
0
LINE
8
Layer 1
10
116.636209
20
90.981676
11
116.636209
21
92.828766
0
LINE
8
Layer 1
10
116.636209
20
92.828766
11
116.782511
21
94.657566
0
LINE
8
Layer 1
10
116.782511
20
94.657566
11
116.947105
21
96.504656
0
LINE
8
Layer 1
10
116.947105
20
96.504656
11
117.038544
21
98.351746
0
LINE
8
Layer 1
10
117.038544
20
98.351746
11
116.211012
21
98.246590
0
LINE
8
Layer 1
10
116.211012
20
98.246590
11
115.374334
21
97.931123
0
LINE
8
Layer 1
10
115.374334
20
97.931123
11
114.638240
21
97.446491
0
LINE
8
Layer 1
10
114.638240
20
97.446491
11
114.075884
21
96.833843
0
LINE
8
Layer 1
10
114.075884
20
96.833843
11
114.203899
21
96.815568
0
LINE
8
Layer 1
10
114.203899
20
96.815568
11
114.350206
21
96.815568
0
LINE
8
Layer 1
10
114.350206
20
96.815568
11
114.496508
21
96.815568
0
LINE
8
Layer 1
10
114.496508
20
96.815568
11
114.624527
21
96.833843
0
LINE
8
Layer 1
10
114.624527
20
96.833843
11
114.715966
21
96.870436
0
LINE
8
Layer 1
10
114.715966
20
96.870436
11
114.898844
21
96.925299
0
LINE
8
Layer 1
10
114.898844
20
96.925299
11
115.063438
21
96.980167
0
LINE
8
Layer 1
10
115.063438
20
96.980167
11
115.173165
21
97.016760
0
LINE
8
Layer 1
10
115.173165
20
97.016760
11
115.319467
21
96.907029
0
LINE
8
Layer 1
10
115.319467
20
96.907029
11
115.374335
21
96.687576
0
LINE
8
Layer 1
10
115.374335
20
96.687576
11
115.356060
21
96.449830
0
LINE
8
Layer 1
10
115.356060
20
96.449830
11
115.356060
21
96.340103
0
LINE
8
Layer 1
10
115.356060
20
96.340103
11
115.154890
21
93.633473
0
LINE
8
Layer 1
10
115.154890
20
93.633473
11
114.972008
21
90.945143
0
LINE
8
Layer 1
10
114.972008
20
90.945143
11
114.972000
21
90.945100
0
LINE
8
Layer 1
10
118.099000
20
90.433100
11
118.281882
21
90.250218
0
LINE
8
Layer 1
10
118.281882
20
90.250218
11
118.428184
21
90.286811
0
LINE
8
Layer 1
10
118.428184
20
90.286811
11
118.739081
21
90.414830
0
LINE
8
Layer 1
10
118.739081
20
90.414830
11
119.086553
21
90.597708
0
LINE
8
Layer 1
10
119.086553
20
90.597708
11
119.379162
21
90.798878
0
LINE
8
Layer 1
10
119.379162
20
90.798878
11
120.513022
21
91.914448
0
LINE
8
Layer 1
10
120.513022
20
91.914448
11
121.372557
21
93.322628
0
LINE
8
Layer 1
10
121.372557
20
93.322628
11
121.921199
21
94.895398
0
LINE
8
Layer 1
10
121.921199
20
94.895398
11
122.122365
21
96.468168
0
LINE
8
Layer 1
10
122.122365
20
96.468168
11
121.976063
21
97.053386
0
LINE
8
Layer 1
10
121.976063
20
97.053386
11
121.628591
21
97.656887
0
LINE
8
Layer 1
10
121.628591
20
97.656887
11
121.134816
21
98.114090
0
LINE
8
Layer 1
10
121.134816
20
98.114090
11
120.586174
21
98.315256
0
LINE
8
Layer 1
10
120.586174
20
98.315256
11
119.415744
21
98.059223
0
LINE
8
Layer 1
10
119.415744
20
98.059223
11
118.391614
21
97.400858
0
LINE
8
Layer 1
10
118.391614
20
97.400858
11
117.641806
21
96.413305
0
LINE
8
Layer 1
10
117.641806
20
96.413305
11
117.349197
21
95.261165
0
LINE
8
Layer 1
10
117.349197
20
95.261165
11
117.436065
21
94.689664
0
LINE
8
Layer 1
10
117.436065
20
94.689664
11
117.696669
21
94.328475
0
LINE
8
Layer 1
10
117.696669
20
94.328475
11
118.103577
21
94.136453
0
LINE
8
Layer 1
10
118.103577
20
94.136453
11
118.629359
21
94.072446
0
LINE
8
Layer 1
10
118.629359
20
94.072446
11
119.434030
21
94.163885
0
LINE
8
Layer 1
10
119.434030
20
94.163885
11
120.256989
21
94.255324
0
LINE
8
Layer 1
10
120.256989
20
94.255324
11
120.101542
21
93.144329
0
LINE
8
Layer 1
10
120.101542
20
93.144329
11
119.635200
21
92.115624
0
LINE
8
Layer 1
10
119.635200
20
92.115624
11
118.949397
21
91.201227
0
LINE
8
Layer 1
10
118.949397
20
91.201227
11
118.099000
21
90.433134
0
LINE
8
Layer 1
10
118.099000
20
90.433134
11
118.099000
21
90.433100
0
LINE
8
Layer 1
10
118.812232
20
96.285260
11
118.958539
21
96.779035
0
LINE
8
Layer 1
10
118.958539
20
96.779035
11
119.379162
21
97.035068
0
LINE
8
Layer 1
10
119.379162
20
97.035068
11
119.818073
21
96.907049
0
LINE
8
Layer 1
10
119.818073
20
96.907049
11
120.165545
21
96.596152
0
LINE
8
Layer 1
10
120.165545
20
96.596152
11
120.403291
21
96.175529
0
LINE
8
Layer 1
10
120.403291
20
96.175529
11
120.494730
21
95.736618
0
LINE
8
Layer 1
10
120.494730
20
95.736618
11
120.238697
21
95.315995
0
LINE
8
Layer 1
10
120.238697
20
95.315995
11
119.744922
21
95.169693
0
LINE
8
Layer 1
10
119.744922
20
95.169693
11
119.328870
21
95.256561
0
LINE
8
Layer 1
10
119.328870
20
95.256561
11
119.031690
21
95.517165
0
LINE
8
Layer 1
10
119.031690
20
95.517165
11
118.812232
21
96.285261
0
LINE
8
Layer 1
10
118.812232
20
96.285261
11
118.812232
21
96.285260
0
LINE
8
Layer 1
10
122.470000
20
91.420600
11
122.552296
21
91.736068
0
LINE
8
Layer 1
10
122.552296
20
91.736068
11
122.799184
21
91.987530
0
LINE
8
Layer 1
10
122.799184
20
91.987530
11
123.475841
21
92.225276
0
LINE
8
Layer 1
10
123.475841
20
92.225276
11
124.024479
21
92.133833
0
LINE
8
Layer 1
10
124.024479
20
92.133833
11
124.554833
21
91.932667
0
LINE
8
Layer 1
10
124.554833
20
91.932667
11
125.066895
21
91.749785
0
LINE
8
Layer 1
10
125.066895
20
91.749785
11
125.652113
21
91.658346
0
LINE
8
Layer 1
10
125.652113
20
91.658346
11
126.182463
21
91.694939
0
LINE
8
Layer 1
10
126.182463
20
91.694939
11
126.712817
21
91.859533
0
LINE
8
Layer 1
10
126.712817
20
91.859533
11
127.096865
21
92.170425
0
LINE
8
Layer 1
10
127.096865
20
92.170425
11
127.261455
21
92.719067
0
LINE
8
Layer 1
10
127.261455
20
92.719067
11
127.060289
21
93.523738
0
LINE
8
Layer 1
10
127.060289
20
93.523738
11
126.529935
21
94.090668
0
LINE
8
Layer 1
10
126.529935
20
94.090668
11
125.816703
21
94.511291
0
LINE
8
Layer 1
10
125.816703
20
94.511291
11
125.048607
21
94.858763
0
LINE
8
Layer 1
10
125.048607
20
94.858763
11
125.030332
21
94.931914
0
LINE
8
Layer 1
10
125.030332
20
94.931914
11
125.030332
21
95.023353
0
LINE
8
Layer 1
10
125.030332
20
95.023353
11
125.098912
21
95.370825
0
LINE
8
Layer 1
10
125.098912
20
95.370825
11
125.304653
21
95.645146
0
LINE
8
Layer 1
10
125.304653
20
95.645146
11
125.926446
21
96.102345
0
LINE
8
Layer 1
10
125.926446
20
96.102345
11
126.529947
21
96.577832
0
LINE
8
Layer 1
10
126.529947
20
96.577832
11
126.749404
21
96.870440
0
LINE
8
Layer 1
10
126.749404
20
96.870440
11
126.822556
21
97.236201
0
LINE
8
Layer 1
10
126.822556
20
97.236201
11
125.049000
21
97.236200
0
LINE
8
Layer 1
10
125.049000
20
97.236200
11
124.957561
21
97.327639
0
LINE
8
Layer 1
10
124.957561
20
97.327639
11
124.866122
21
97.510521
0
LINE
8
Layer 1
10
124.866122
20
97.510521
11
124.847847
21
97.547114
0
LINE
8
Layer 1
10
124.847847
20
97.547114
11
124.847847
21
97.601977
0
LINE
8
Layer 1
10
124.847847
20
97.601977
11
124.902711
21
97.839723
0
LINE
8
Layer 1
10
124.902711
20
97.839723
11
125.085589
21
98.077464
0
LINE
8
Layer 1
10
125.085589
20
98.077464
11
125.323335
21
98.278634
0
LINE
8
Layer 1
10
125.323335
20
98.278634
11
125.597656
21
98.370073
0
LINE
8
Layer 1
10
125.597656
20
98.370073
11
128.341000
21
98.370100
0
LINE
8
Layer 1
10
128.341000
20
98.370100
11
128.523882
21
98.187222
0
LINE
8
Layer 1
10
128.523882
20
98.187222
11
128.542157
21
97.949476
0
LINE
8
Layer 1
10
128.542157
20
97.949476
11
128.377563
21
97.437414
0
LINE
8
Layer 1
10
128.377563
20
97.437414
11
127.993515
21
96.907060
0
LINE
8
Layer 1
10
127.993515
20
96.907060
11
127.572892
21
96.431573
0
LINE
8
Layer 1
10
127.572892
20
96.431573
11
127.243708
21
96.084101
0
LINE
8
Layer 1
10
127.243708
20
96.084101
11
127.225433
21
96.029238
0
LINE
8
Layer 1
10
127.225433
20
96.029238
11
127.225433
21
96.010963
0
LINE
8
Layer 1
10
127.225433
20
96.010963
11
127.481466
21
95.608627
0
LINE
8
Layer 1
10
127.481466
20
95.608627
11
128.066679
21
95.151428
0
LINE
8
Layer 1
10
128.066679
20
95.151428
11
128.633609
21
94.529635
0
LINE
8
Layer 1
10
128.633609
20
94.529635
11
128.839350
21
94.141014
0
LINE
8
Layer 1
10
128.839350
20
94.141014
11
128.907930
21
93.670096
0
LINE
8
Layer 1
10
128.907930
20
93.670096
11
128.798201
21
93.048306
0
LINE
8
Layer 1
10
128.798201
20
93.048306
11
128.469014
21
92.426516
0
LINE
8
Layer 1
10
128.469014
20
92.426516
11
127.371734
21
91.329236
0
LINE
8
Layer 1
10
127.371734
20
91.329236
11
125.963564
21
90.542853
0
LINE
8
Layer 1
10
125.963564
20
90.542853
11
124.591964
21
90.250244
0
LINE
8
Layer 1
10
124.591964
20
90.250244
11
124.025034
21
90.341683
0
LINE
8
Layer 1
10
124.025034
20
90.341683
11
123.330089
21
90.597716
0
LINE
8
Layer 1
10
123.330089
20
90.597716
11
122.726588
21
90.963476
0
LINE
8
Layer 1
10
122.726588
20
90.963476
11
122.470555
21
91.420675
0
LINE
8
Layer 1
10
122.470555
20
91.420675
11
122.470000
21
91.420600
0
LINE
8
Layer 1
10
130.535000
20
90.615900
11
130.699590
21
90.414734
0
LINE
8
Layer 1
10
130.699590
20
90.414734
11
130.900760
21
90.250140
0
LINE
8
Layer 1
10
130.900760
20
90.250140
11
130.974000
21
90.250200
0
LINE
8
Layer 1
10
130.974000
20
90.250200
11
131.467775
21
90.341639
0
LINE
8
Layer 1
10
131.467775
20
90.341639
11
131.979842
21
90.597672
0
LINE
8
Layer 1
10
131.979842
20
90.597672
11
132.400465
21
90.981720
0
LINE
8
Layer 1
10
132.400465
20
90.981720
11
132.565055
21
91.438919
0
LINE
8
Layer 1
10
132.565055
20
91.438919
11
132.546780
21
91.493787
0
LINE
8
Layer 1
10
132.546780
20
91.493787
11
132.546780
21
91.530380
0
LINE
8
Layer 1
10
132.546780
20
91.530380
11
132.473629
21
91.621818
0
LINE
8
Layer 1
10
132.473629
20
91.621818
11
132.345614
21
91.804696
0
LINE
8
Layer 1
10
132.345614
20
91.804696
11
132.235883
21
91.969290
0
LINE
8
Layer 1
10
132.235883
20
91.969290
11
132.181020
21
92.079017
0
LINE
8
Layer 1
10
132.181020
20
92.079017
11
132.181000
21
92.243600
0
LINE
8
Layer 1
10
132.181000
20
92.243600
11
132.263296
21
93.153427
0
LINE
8
Layer 1
10
132.263296
20
93.153427
11
132.510184
21
93.980960
0
LINE
8
Layer 1
10
132.510184
20
93.980960
11
133.314855
21
95.480580
0
LINE
8
Layer 1
10
133.314855
20
95.480580
11
134.338985
21
96.870470
0
LINE
8
Layer 1
10
134.338985
20
96.870470
11
135.289963
21
98.296930
0
LINE
8
Layer 1
10
135.289963
20
98.296930
11
130.170000
21
98.296900
0
LINE
8
Layer 1
10
130.170000
20
98.296900
11
129.749377
21
98.040867
0
LINE
8
Layer 1
10
129.749377
20
98.040867
11
129.456768
21
97.473941
0
LINE
8
Layer 1
10
129.456768
20
97.473941
11
129.292174
21
96.852148
0
LINE
8
Layer 1
10
129.292174
20
96.852148
11
129.237311
21
96.431525
0
LINE
8
Layer 1
10
129.237311
20
96.431525
11
129.877392
21
96.541252
0
LINE
8
Layer 1
10
129.877392
20
96.541252
11
130.480898
21
96.815573
0
LINE
8
Layer 1
10
130.480898
20
96.815573
11
131.102687
21
97.071606
0
LINE
8
Layer 1
10
131.102687
20
97.071606
11
131.815919
21
97.199621
0
LINE
8
Layer 1
10
131.815919
20
97.199621
11
132.126816
21
97.181346
0
LINE
8
Layer 1
10
132.126816
20
97.181346
11
132.547439
21
97.163071
0
LINE
8
Layer 1
10
132.547439
20
97.163071
11
132.931487
21
97.108208
0
LINE
8
Layer 1
10
132.931487
20
97.108208
11
133.096081
21
97.016769
0
LINE
8
Layer 1
10
133.096081
20
97.016769
11
133.096000
21
96.833900
0
LINE
8
Layer 1
10
133.096000
20
96.833900
11
132.199885
21
95.608610
0
LINE
8
Layer 1
10
132.199885
20
95.608610
11
131.358638
21
94.255300
0
LINE
8
Layer 1
10
131.358638
20
94.255300
11
130.755132
21
92.810550
0
LINE
8
Layer 1
10
130.755132
20
92.810550
11
130.517391
21
91.347510
0
LINE
8
Layer 1
10
130.517391
20
91.347510
11
130.517391
21
90.981750
0
LINE
8
Layer 1
10
130.517391
20
90.981750
11
130.535666
21
90.615990
0
LINE
8
Layer 1
10
130.535666
20
90.615990
11
130.535000
21
90.615900
0
LINE
8
Layer 1
10
141.526000
20
94.054100
11
141.617439
21
94.328417
0
LINE
8
Layer 1
10
141.617439
20
94.328417
11
141.873472
21
94.584450
0
LINE
8
Layer 1
10
141.873472
20
94.584450
11
142.202656
21
94.803908
0
LINE
8
Layer 1
10
142.202656
20
94.803908
11
142.495265
21
94.931923
0
LINE
8
Layer 1
10
142.495265
20
94.931923
11
143.117054
21
94.913648
0
LINE
8
Layer 1
10
143.117054
20
94.913648
11
144.049744
21
94.913648
0
LINE
8
Layer 1
10
144.049744
20
94.913648
11
144.982430
21
94.913648
0
LINE
8
Layer 1
10
144.982430
20
94.913648
11
145.604223
21
94.931923
0
LINE
8
Layer 1
10
145.604223
20
94.931923
11
145.732238
21
94.950198
0
LINE
8
Layer 1
10
145.732238
20
94.950198
11
145.951696
21
95.023349
0
LINE
8
Layer 1
10
145.951696
20
95.023349
11
146.189442
21
95.078212
0
LINE
8
Layer 1
10
146.189442
20
95.078212
11
146.335744
21
95.114805
0
LINE
8
Layer 1
10
146.335744
20
95.114805
11
146.610000
21
95.114800
0
LINE
8
Layer 1
10
146.610000
20
95.114800
11
146.885000
21
95.114800
0
LINE
8
Layer 1
10
146.885000
20
95.114800
11
146.409509
21
94.639313
0
LINE
8
Layer 1
10
146.409509
20
94.639313
11
145.806008
21
94.236977
0
LINE
8
Layer 1
10
145.806008
20
94.236977
11
145.147639
21
93.944368
0
LINE
8
Layer 1
10
145.147639
20
93.944368
11
144.525846
21
93.834641
0
LINE
8
Layer 1
10
144.525846
20
93.834641
11
143.026226
21
93.944368
0
LINE
8
Layer 1
10
143.026226
20
93.944368
11
141.526606
21
94.054099
0
LINE
8
Layer 1
10
141.526606
20
94.054099
11
141.526000
21
94.054100
0
LINE
8
Layer 1
10
154.621000
20
90.963400
11
154.291816
21
90.871961
0
LINE
8
Layer 1
10
154.291816
20
90.871961
11
153.999207
21
90.689079
0
LINE
8
Layer 1
10
153.999207
20
90.689079
11
153.688310
21
90.487913
0
LINE
8
Layer 1
10
153.688310
20
90.487913
11
153.359126
21
90.414762
0
LINE
8
Layer 1
10
153.359126
20
90.414762
11
153.249399
21
90.414762
0
LINE
8
Layer 1
10
153.249399
20
90.414762
11
153.176248
21
90.433037
0
LINE
8
Layer 1
10
153.176248
20
90.433037
11
153.834613
21
91.420586
0
LINE
8
Layer 1
10
153.834613
20
91.420586
11
154.803879
21
92.298413
0
LINE
8
Layer 1
10
154.803879
20
92.298413
11
155.882869
21
93.103084
0
LINE
8
Layer 1
10
155.882869
20
93.103084
11
156.906999
21
93.926043
0
LINE
8
Layer 1
10
156.906999
20
93.926043
11
157.656807
21
94.840445
0
LINE
8
Layer 1
10
157.656807
20
94.840445
11
157.876264
21
95.343363
0
LINE
8
Layer 1
10
157.876264
20
95.343363
11
157.949416
21
95.901145
0
LINE
8
Layer 1
10
157.949416
20
95.901145
11
157.784822
21
96.431495
0
LINE
8
Layer 1
10
157.784822
20
96.431495
11
157.400774
21
96.833831
0
LINE
8
Layer 1
10
157.400774
20
96.833831
11
156.852136
21
97.108152
0
LINE
8
Layer 1
10
156.852136
20
97.108152
11
156.285206
21
97.199591
0
LINE
8
Layer 1
10
156.285206
20
97.199591
11
155.937734
21
97.126440
0
LINE
8
Layer 1
10
155.937734
20
97.126440
11
155.590262
21
96.961846
0
LINE
8
Layer 1
10
155.590262
20
96.961846
11
155.297653
21
96.705817
0
LINE
8
Layer 1
10
155.297653
20
96.705817
11
155.187926
21
96.431496
0
LINE
8
Layer 1
10
155.187926
20
96.431496
11
155.188000
21
96.321800
0
LINE
8
Layer 1
10
155.188000
20
96.321800
11
155.370882
21
95.279380
0
LINE
8
Layer 1
10
155.370882
20
95.279380
11
155.370000
21
95.206200
0
LINE
8
Layer 1
10
155.370000
20
95.206200
11
155.292276
21
94.899875
0
LINE
8
Layer 1
10
155.292276
20
94.899875
11
155.059103
21
94.639270
0
LINE
8
Layer 1
10
155.059103
20
94.639270
11
154.437310
21
94.401524
0
LINE
8
Layer 1
10
154.437310
20
94.401524
11
154.162989
21
94.547831
0
LINE
8
Layer 1
10
154.162989
20
94.547831
11
154.053262
21
94.895303
0
LINE
8
Layer 1
10
154.053262
20
94.895303
11
154.053262
21
95.279351
0
LINE
8
Layer 1
10
154.053262
20
95.279351
11
154.071537
21
95.553672
0
LINE
8
Layer 1
10
154.071537
20
95.553672
11
154.345858
21
96.632662
0
LINE
8
Layer 1
10
154.345858
20
96.632662
11
155.059090
21
97.473909
0
LINE
8
Layer 1
10
155.059090
20
97.473909
11
156.101510
21
98.040835
0
LINE
8
Layer 1
10
156.101510
20
98.040835
11
157.308520
21
98.242005
0
LINE
8
Layer 1
10
157.308520
20
98.242005
11
158.021752
21
98.132278
0
LINE
8
Layer 1
10
158.021752
20
98.132278
11
158.698409
21
97.839669
0
LINE
8
Layer 1
10
158.698409
20
97.839669
11
159.192184
21
97.345894
0
LINE
8
Layer 1
10
159.192184
20
97.345894
11
159.393354
21
96.669237
0
LINE
8
Layer 1
10
159.393354
20
96.669237
11
159.173896
21
95.736547
0
LINE
8
Layer 1
10
159.173896
20
95.736547
11
158.661834
21
94.931876
0
LINE
8
Layer 1
10
158.661834
20
94.931876
11
158.149767
21
94.456389
0
LINE
8
Layer 1
10
158.149767
20
94.456389
11
157.381671
21
93.706581
0
LINE
8
Layer 1
10
157.381671
20
93.706581
11
156.613575
21
92.975061
0
LINE
8
Layer 1
10
156.613575
20
92.975061
11
156.101513
21
92.517858
0
LINE
8
Layer 1
10
156.101513
20
92.517858
11
156.412407
21
92.165815
0
LINE
8
Layer 1
10
156.412407
20
92.165815
11
156.869609
21
91.914357
0
LINE
8
Layer 1
10
156.869609
20
91.914357
11
157.985179
21
91.621748
0
LINE
8
Layer 1
10
157.985179
20
91.621748
11
158.972728
21
91.420578
0
LINE
8
Layer 1
10
158.972728
20
91.420578
11
159.301915
21
91.301707
0
LINE
8
Layer 1
10
159.301915
20
91.301707
11
159.411644
21
91.127973
0
LINE
8
Layer 1
10
159.411644
20
91.127973
11
159.393369
21
91.018242
0
LINE
8
Layer 1
10
159.393369
20
91.018242
11
159.393369
21
90.945091
0
LINE
8
Layer 1
10
159.393369
20
90.945091
11
158.314379
21
90.433029
0
LINE
8
Layer 1
10
158.314379
20
90.433029
11
157.162239
21
90.231859
0
LINE
8
Layer 1
10
157.162239
20
90.231859
11
156.503870
21
90.341586
0
LINE
8
Layer 1
10
156.503870
20
90.341586
11
155.882077
21
90.579332
0
LINE
8
Layer 1
10
155.882077
20
90.579332
11
155.278571
21
90.835365
0
LINE
8
Layer 1
10
155.278571
20
90.835365
11
154.620206
21
90.963380
0
LINE
8
Layer 1
10
154.620206
20
90.963380
11
154.621000
21
90.963400
0
LINE
8
Layer 1
10
159.778000
20
93.596900
11
159.814593
21
92.426470
0
LINE
8
Layer 1
10
159.814593
20
92.426470
11
160.052339
21
91.347480
0
LINE
8
Layer 1
10
160.052339
20
91.347480
11
160.637552
21
90.542809
0
LINE
8
Layer 1
10
160.637552
20
90.542809
11
161.113040
21
90.309636
0
LINE
8
Layer 1
10
161.113040
20
90.309636
11
161.734832
21
90.231912
0
LINE
8
Layer 1
10
161.734832
20
90.231912
11
162.617230
21
90.359928
0
LINE
8
Layer 1
10
162.617230
20
90.359928
11
163.435622
21
90.743974
0
LINE
8
Layer 1
10
163.435622
20
90.743974
11
164.167141
21
91.338336
0
LINE
8
Layer 1
10
164.167141
20
91.338336
11
164.788932
21
92.060714
0
LINE
8
Layer 1
10
164.788932
20
92.060714
11
165.703334
21
93.761504
0
LINE
8
Layer 1
10
165.703334
20
93.761504
11
166.032518
21
95.498864
0
LINE
8
Layer 1
10
166.032518
20
95.498864
11
165.959367
21
96.468130
0
LINE
8
Layer 1
10
165.959367
20
96.468130
11
165.666758
21
97.382532
0
LINE
8
Layer 1
10
165.666758
20
97.382532
11
165.063252
21
98.059184
0
LINE
8
Layer 1
10
165.063252
20
98.059184
11
164.638057
21
98.251209
0
LINE
8
Layer 1
10
164.638057
20
98.251209
11
164.093991
21
98.315217
0
LINE
8
Layer 1
10
164.093991
20
98.315217
11
163.266458
21
98.205489
0
LINE
8
Layer 1
10
163.266458
20
98.205489
11
162.466361
21
97.876306
0
LINE
8
Layer 1
10
162.466361
20
97.876306
11
161.739413
21
97.373385
0
LINE
8
Layer 1
10
161.739413
20
97.373385
11
161.094761
21
96.742446
0
LINE
8
Layer 1
10
161.094761
20
96.742446
11
160.125500
21
95.224546
0
LINE
8
Layer 1
10
160.125500
20
95.224546
11
159.864896
21
94.397013
0
LINE
8
Layer 1
10
159.864896
20
94.397013
11
159.778028
21
93.596916
0
LINE
8
Layer 1
10
159.778028
20
93.596916
11
159.778000
21
93.596900
0
LINE
8
Layer 1
10
161.423920
20
94.182118
11
161.460513
21
95.041653
0
LINE
8
Layer 1
10
161.460513
20
95.041653
11
161.661683
21
96.047493
0
LINE
8
Layer 1
10
161.661683
20
96.047493
11
162.137170
21
96.870452
0
LINE
8
Layer 1
10
162.137170
20
96.870452
11
162.507503
21
97.131056
0
LINE
8
Layer 1
10
162.507503
20
97.131056
11
162.996709
21
97.217924
0
LINE
8
Layer 1
10
162.996709
20
97.217924
11
163.399044
21
97.149344
0
LINE
8
Layer 1
10
163.399044
20
97.149344
11
163.728229
21
96.943603
0
LINE
8
Layer 1
10
163.728229
20
96.943603
11
164.222004
21
96.266951
0
LINE
8
Layer 1
10
164.222004
20
96.266951
11
164.478037
21
95.407412
0
LINE
8
Layer 1
10
164.478037
20
95.407412
11
164.569476
21
94.639316
0
LINE
8
Layer 1
10
164.569476
20
94.639316
11
164.496325
21
93.743206
0
LINE
8
Layer 1
10
164.496325
20
93.743206
11
164.222004
21
92.719076
0
LINE
8
Layer 1
10
164.222004
20
92.719076
11
163.709942
21
91.859541
0
LINE
8
Layer 1
10
163.709942
20
91.859541
11
163.353324
21
91.598937
0
LINE
8
Layer 1
10
163.353324
20
91.598937
11
162.905266
21
91.512069
0
LINE
8
Layer 1
10
162.905266
20
91.512069
11
162.420635
21
91.580648
0
LINE
8
Layer 1
10
162.420635
20
91.580648
11
162.064019
21
91.786386
0
LINE
8
Layer 1
10
162.064019
20
91.786386
11
161.625108
21
92.481331
0
LINE
8
Layer 1
10
161.625108
20
92.481331
11
161.442226
21
93.359158
0
LINE
8
Layer 1
10
161.442226
20
93.359158
11
161.423951
21
94.182117
0
LINE
8
Layer 1
10
161.423951
20
94.182117
11
161.423920
21
94.182118
0
LINE
8
Layer 1
10
167.276000
20
90.945100
11
167.257725
21
90.743930
0
LINE
8
Layer 1
10
167.257725
20
90.743930
11
167.276000
21
90.524477
0
LINE
8
Layer 1
10
167.276000
20
90.524477
11
167.349151
21
90.323307
0
LINE
8
Layer 1
10
167.349151
20
90.323307
11
167.568604
21
90.250156
0
LINE
8
Layer 1
10
167.568604
20
90.250156
11
168.318412
21
90.469614
0
LINE
8
Layer 1
10
168.318412
20
90.469614
11
168.940205
21
90.981676
0
LINE
8
Layer 1
10
168.940205
20
90.981676
11
168.940205
21
92.828766
0
LINE
8
Layer 1
10
168.940205
20
92.828766
11
169.086512
21
94.657566
0
LINE
8
Layer 1
10
169.086512
20
94.657566
11
169.251102
21
96.504656
0
LINE
8
Layer 1
10
169.251102
20
96.504656
11
169.342541
21
98.351746
0
LINE
8
Layer 1
10
169.342541
20
98.351746
11
168.515009
21
98.246590
0
LINE
8
Layer 1
10
168.515009
20
98.246590
11
167.678331
21
97.931123
0
LINE
8
Layer 1
10
167.678331
20
97.931123
11
166.942237
21
97.446491
0
LINE
8
Layer 1
10
166.942237
20
97.446491
11
166.379881
21
96.833843
0
LINE
8
Layer 1
10
166.379881
20
96.833843
11
166.507896
21
96.815568
0
LINE
8
Layer 1
10
166.507896
20
96.815568
11
166.654203
21
96.815568
0
LINE
8
Layer 1
10
166.654203
20
96.815568
11
166.800505
21
96.815568
0
LINE
8
Layer 1
10
166.800505
20
96.815568
11
166.928524
21
96.833843
0
LINE
8
Layer 1
10
166.928524
20
96.833843
11
167.019963
21
96.870436
0
LINE
8
Layer 1
10
167.019963
20
96.870436
11
167.202841
21
96.925299
0
LINE
8
Layer 1
10
167.202841
20
96.925299
11
167.367435
21
96.980167
0
LINE
8
Layer 1
10
167.367435
20
96.980167
11
167.477162
21
97.016760
0
LINE
8
Layer 1
10
167.477162
20
97.016760
11
167.623469
21
96.907029
0
LINE
8
Layer 1
10
167.623469
20
96.907029
11
167.678332
21
96.687576
0
LINE
8
Layer 1
10
167.678332
20
96.687576
11
167.660057
21
96.449830
0
LINE
8
Layer 1
10
167.660057
20
96.449830
11
167.660057
21
96.340103
0
LINE
8
Layer 1
10
167.660057
20
96.340103
11
167.458888
21
93.633473
0
LINE
8
Layer 1
10
167.458888
20
93.633473
11
167.276010
21
90.945143
0
LINE
8
Layer 1
10
167.276010
20
90.945143
11
167.276000
21
90.945100
0
LINE
8
Layer 1
10
169.672000
20
92.499600
11
169.758868
21
93.409428
0
LINE
8
Layer 1
10
169.758868
20
93.409428
11
170.019472
21
94.383260
0
LINE
8
Layer 1
10
170.019472
20
94.383260
11
170.430953
21
95.366242
0
LINE
8
Layer 1
10
170.430953
20
95.366242
11
170.970450
21
96.266930
0
LINE
8
Layer 1
10
170.970450
20
96.266930
11
171.647106
21
97.067028
0
LINE
8
Layer 1
10
171.647106
20
97.067028
11
172.433490
21
97.711680
0
LINE
8
Layer 1
10
172.433490
20
97.711680
11
173.306741
21
98.150593
0
LINE
8
Layer 1
10
173.306741
20
98.150593
11
174.244000
21
98.296898
0
LINE
8
Layer 1
10
174.244000
20
98.296898
11
174.244000
21
98.077400
0
LINE
8
Layer 1
10
174.244000
20
98.077400
11
173.201580
21
97.419035
0
LINE
8
Layer 1
10
173.201580
20
97.419035
11
172.415197
21
96.504633
0
LINE
8
Layer 1
10
172.415197
20
96.504633
11
171.903130
21
95.407353
0
LINE
8
Layer 1
10
171.903130
20
95.407353
11
171.720252
21
94.200343
0
LINE
8
Layer 1
10
171.720252
20
94.200343
11
172.396909
21
94.310070
0
LINE
8
Layer 1
10
172.396909
20
94.310070
11
173.055278
21
94.547816
0
LINE
8
Layer 1
10
173.055278
20
94.547816
11
173.713643
21
94.803849
0
LINE
8
Layer 1
10
173.713643
20
94.803849
11
174.426875
21
94.931864
0
LINE
8
Layer 1
10
174.426875
20
94.931864
11
175.126392
21
94.817564
0
LINE
8
Layer 1
10
175.126392
20
94.817564
11
175.579015
21
94.474665
0
LINE
8
Layer 1
10
175.579015
20
94.474665
11
175.825903
21
93.935166
0
LINE
8
Layer 1
10
175.825903
20
93.935166
11
175.908199
21
93.231075
0
LINE
8
Layer 1
10
175.908199
20
93.231075
11
175.889924
21
92.938466
0
LINE
8
Layer 1
10
175.889924
20
92.938466
11
175.889924
21
92.682437
0
LINE
8
Layer 1
10
175.889924
20
92.682437
11
175.085253
21
91.804610
0
LINE
8
Layer 1
10
175.085253
20
91.804610
11
174.042833
21
91.018227
0
LINE
8
Layer 1
10
174.042833
20
91.018227
11
172.854113
21
90.451301
0
LINE
8
Layer 1
10
172.854113
20
90.451301
11
171.683683
21
90.231843
0
LINE
8
Layer 1
10
171.683683
20
90.231843
11
170.879012
21
90.414725
0
LINE
8
Layer 1
10
170.879012
20
90.414725
11
170.238931
21
90.908500
0
LINE
8
Layer 1
10
170.238931
20
90.908500
11
169.818308
21
91.640020
0
LINE
8
Layer 1
10
169.818308
20
91.640020
11
169.672001
21
92.499555
0
LINE
8
Layer 1
10
169.672001
20
92.499555
11
169.672000
21
92.499600
0
LINE
8
Layer 1
10
171.665390
20
92.627619
11
171.756829
21
92.206991
0
LINE
8
Layer 1
10
171.756829
20
92.206991
11
172.031150
21
91.786368
0
LINE
8
Layer 1
10
172.031150
20
91.786368
11
172.378622
21
91.457184
0
LINE
8
Layer 1
10
172.378622
20
91.457184
11
172.762670
21
91.329169
0
LINE
8
Layer 1
10
172.762670
20
91.329169
11
173.366171
21
91.457184
0
LINE
8
Layer 1
10
173.366171
20
91.457184
11
173.914813
21
91.822944
0
LINE
8
Layer 1
10
173.914813
20
91.822944
11
174.298861
21
92.335011
0
LINE
8
Layer 1
10
174.298861
20
92.335011
11
174.445163
21
92.920224
0
LINE
8
Layer 1
10
174.445163
20
92.920224
11
174.445000
21
93.432300
0
LINE
8
Layer 1
10
174.445000
20
93.432300
11
174.243834
21
93.907787
0
LINE
8
Layer 1
10
174.243834
20
93.907787
11
173.914650
21
93.907787
0
LINE
8
Layer 1
10
173.914650
20
93.907787
11
173.603753
21
93.926062
0
LINE
8
Layer 1
10
173.603753
20
93.926062
11
172.981960
21
93.852911
0
LINE
8
Layer 1
10
172.981960
20
93.852911
11
172.360171
21
93.615165
0
LINE
8
Layer 1
10
172.360171
20
93.615165
11
171.866392
21
93.212829
0
LINE
8
Layer 1
10
171.866392
20
93.212829
11
171.665226
21
92.627616
0
LINE
8
Layer 1
10
171.665226
20
92.627616
11
171.665390
21
92.627619
0
LINE
8
Layer 1
10
117.209000
20
104.702000
11
117.245593
21
104.994609
0
LINE
8
Layer 1
10
117.245593
20
104.994609
11
117.465046
21
105.250642
0
LINE
8
Layer 1
10
117.465046
20
105.250642
11
117.757655
21
105.433520
0
LINE
8
Layer 1
10
117.757655
20
105.433520
11
118.031976
21
105.506671
0
LINE
8
Layer 1
10
118.031976
20
105.506671
11
118.617189
21
105.378656
0
LINE
8
Layer 1
10
118.617189
20
105.378656
11
119.184119
21
105.086047
0
LINE
8
Layer 1
10
119.184119
20
105.086047
11
119.769332
21
104.811730
0
LINE
8
Layer 1
10
119.769332
20
104.811730
11
120.391125
21
104.683711
0
LINE
8
Layer 1
10
120.391125
20
104.683711
11
121.086070
21
104.720304
0
LINE
8
Layer 1
10
121.086070
20
104.720304
11
121.927317
21
104.884898
0
LINE
8
Layer 1
10
121.927317
20
104.884898
11
122.622262
21
105.287234
0
LINE
8
Layer 1
10
122.622262
20
105.287234
11
122.841719
21
105.588987
0
LINE
8
Layer 1
10
122.841719
20
105.588987
11
122.914871
21
105.982179
0
LINE
8
Layer 1
10
122.914871
20
105.982179
11
122.832575
21
106.430234
0
LINE
8
Layer 1
10
122.832575
20
106.430234
11
122.585687
21
106.786850
0
LINE
8
Layer 1
10
122.585687
20
106.786850
11
121.762728
21
107.317200
0
LINE
8
Layer 1
10
121.762728
20
107.317200
11
120.683738
21
107.737828
0
LINE
8
Layer 1
10
120.683738
20
107.737828
11
119.623038
21
108.158451
0
LINE
8
Layer 1
10
119.623038
20
108.158451
11
118.800079
21
108.743664
0
LINE
8
Layer 1
10
118.800079
20
108.743664
11
118.553191
21
109.136857
0
LINE
8
Layer 1
10
118.553191
20
109.136857
11
118.470895
21
109.621491
0
LINE
8
Layer 1
10
118.470895
20
109.621491
11
118.608054
21
110.366728
0
LINE
8
Layer 1
10
118.608054
20
110.366728
11
119.019533
21
111.029671
0
LINE
8
Layer 1
10
119.019533
20
111.029671
11
120.372843
21
112.072081
0
LINE
8
Layer 1
10
120.372843
20
112.072081
11
122.000473
21
112.730450
0
LINE
8
Layer 1
10
122.000473
20
112.730450
11
123.426933
21
112.968196
0
LINE
8
Layer 1
10
123.426933
20
112.968196
11
123.792693
21
112.949921
0
LINE
8
Layer 1
10
123.792693
20
112.949921
11
124.158453
21
112.949921
0
LINE
8
Layer 1
10
124.158453
20
112.949921
11
124.249896
21
112.858482
0
LINE
8
Layer 1
10
124.249896
20
112.858482
11
124.341335
21
112.767039
0
LINE
8
Layer 1
10
124.341335
20
112.767039
11
124.341335
21
112.712176
0
LINE
8
Layer 1
10
124.341335
20
112.712176
11
124.359610
21
112.657312
0
LINE
8
Layer 1
10
124.359610
20
112.657312
11
124.277314
21
112.360132
0
LINE
8
Layer 1
10
124.277314
20
112.360132
11
124.030426
21
112.163537
0
LINE
8
Layer 1
10
124.030426
20
112.163537
11
123.207467
21
111.962367
0
LINE
8
Layer 1
10
123.207467
20
111.962367
11
122.146767
21
111.870928
0
LINE
8
Layer 1
10
122.146767
20
111.870928
11
121.086067
21
111.724621
0
LINE
8
Layer 1
10
121.086067
20
111.724621
11
120.263108
21
111.340573
0
LINE
8
Layer 1
10
120.263108
20
111.340573
11
120.016220
21
110.997675
0
LINE
8
Layer 1
10
120.016220
20
110.997675
11
119.933924
21
110.517614
0
LINE
8
Layer 1
10
119.933924
20
110.517614
11
120.016220
21
110.074131
0
LINE
8
Layer 1
10
120.016220
20
110.074131
11
120.263108
21
109.731231
0
LINE
8
Layer 1
10
120.263108
20
109.731231
11
121.104355
21
109.255744
0
LINE
8
Layer 1
10
121.104355
20
109.255744
11
122.201635
21
108.889984
0
LINE
8
Layer 1
10
122.201635
20
108.889984
11
123.335495
21
108.524224
0
LINE
8
Layer 1
10
123.335495
20
108.524224
11
124.249897
21
107.957294
0
LINE
8
Layer 1
10
124.249897
20
107.957294
11
124.556221
21
107.568675
0
LINE
8
Layer 1
10
124.556221
20
107.568675
11
124.707096
21
107.061184
0
LINE
8
Layer 1
10
124.707096
20
107.061184
11
124.688821
21
106.878302
0
LINE
8
Layer 1
10
124.688821
20
106.878302
11
124.633958
21
106.640561
0
LINE
8
Layer 1
10
124.633958
20
106.640561
11
124.579094
21
106.421103
0
LINE
8
Layer 1
10
124.579094
20
106.421103
11
124.524227
21
106.274801
0
LINE
8
Layer 1
10
124.524227
20
106.274801
11
123.426947
21
104.994641
0
LINE
8
Layer 1
10
123.426947
20
104.994641
11
122.311377
21
104.135106
0
LINE
8
Layer 1
10
122.311377
20
104.135106
11
121.067797
21
103.641327
0
LINE
8
Layer 1
10
121.067797
20
103.641327
11
119.549897
21
103.495025
0
LINE
8
Layer 1
10
119.549897
20
103.495025
11
118.909816
21
103.549889
0
LINE
8
Layer 1
10
118.909816
20
103.549889
11
118.178296
21
103.751059
0
LINE
8
Layer 1
10
118.178296
20
103.751059
11
117.556503
21
104.116819
0
LINE
8
Layer 1
10
117.556503
20
104.116819
11
117.209031
21
104.702032
0
LINE
8
Layer 1
10
117.209031
20
104.702032
11
117.209000
21
104.702000
0
LINE
8
Layer 1
10
129.828000
20
106.439000
11
129.828000
21
103.696000
0
LINE
8
Layer 1
10
129.828000
20
103.696000
11
129.901151
21
103.549698
0
LINE
8
Layer 1
10
129.901151
20
103.549698
11
130.065745
21
103.494835
0
LINE
8
Layer 1
10
130.065745
20
103.494835
11
130.248623
21
103.494835
0
LINE
8
Layer 1
10
130.248623
20
103.494835
11
130.376642
21
103.494835
0
LINE
8
Layer 1
10
130.376642
20
103.494835
11
131.035011
21
103.641137
0
LINE
8
Layer 1
10
131.035011
20
103.641137
11
131.711663
21
104.025185
0
LINE
8
Layer 1
10
131.711663
20
104.025185
11
132.260305
21
104.573827
0
LINE
8
Layer 1
10
132.260305
20
104.573827
11
132.479763
21
105.195620
0
LINE
8
Layer 1
10
132.479763
20
105.195620
11
132.333456
21
105.177345
0
LINE
8
Layer 1
10
132.333456
20
105.177345
11
132.205441
21
105.159070
0
LINE
8
Layer 1
10
132.205441
20
105.159070
11
131.473921
21
104.793310
0
LINE
8
Layer 1
10
131.473921
20
104.793310
11
131.437328
21
104.775035
0
LINE
8
Layer 1
10
131.437328
20
104.775035
11
131.382465
21
104.775035
0
LINE
8
Layer 1
10
131.382465
20
104.775035
11
131.126432
21
104.921342
0
LINE
8
Layer 1
10
131.126432
20
104.921342
11
131.089839
21
105.232239
0
LINE
8
Layer 1
10
131.089839
20
105.232239
11
131.272717
21
106.786719
0
LINE
8
Layer 1
10
131.272717
20
106.786719
11
131.675053
21
108.322909
0
LINE
8
Layer 1
10
131.675053
20
108.322909
11
132.077389
21
109.804239
0
LINE
8
Layer 1
10
132.077389
20
109.804239
11
132.260271
21
111.230699
0
LINE
8
Layer 1
10
132.260271
20
111.230699
11
131.665911
21
111.116399
0
LINE
8
Layer 1
10
131.665911
20
111.116399
11
131.199571
21
110.773500
0
LINE
8
Layer 1
10
131.199571
20
110.773500
11
130.504626
21
109.712800
0
LINE
8
Layer 1
10
130.504626
20
109.712800
11
129.992564
21
108.432640
0
LINE
8
Layer 1
10
129.992564
20
108.432640
11
129.462210
21
107.353650
0
LINE
8
Layer 1
10
129.462210
20
107.353650
11
129.206181
21
107.042758
0
LINE
8
Layer 1
10
129.206181
20
107.042758
11
128.785553
21
106.512404
0
LINE
8
Layer 1
10
128.785553
20
106.512404
11
128.328354
21
105.927191
0
LINE
8
Layer 1
10
128.328354
20
105.927191
11
127.999170
21
105.524851
0
LINE
8
Layer 1
10
127.999170
20
105.524851
11
127.852868
21
105.323685
0
LINE
8
Layer 1
10
127.852868
20
105.323685
11
127.743141
21
105.213958
0
LINE
8
Layer 1
10
127.743141
20
105.213958
11
127.615122
21
105.159091
0
LINE
8
Layer 1
10
127.615122
20
105.159091
11
127.450532
21
105.140816
0
LINE
8
Layer 1
10
127.450532
20
105.140816
11
127.231074
21
105.159091
0
LINE
8
Layer 1
10
127.231074
20
105.159091
11
127.084772
21
105.341973
0
LINE
8
Layer 1
10
127.084772
20
105.341973
11
127.084772
21
105.506563
0
LINE
8
Layer 1
10
127.084772
20
105.506563
11
127.066497
21
105.744309
0
LINE
8
Layer 1
10
127.066497
20
105.744309
11
127.066497
21
106.000342
0
LINE
8
Layer 1
10
127.066497
20
106.000342
11
127.066497
21
106.164932
0
LINE
8
Layer 1
10
127.066497
20
106.164932
11
127.176224
21
107.280502
0
LINE
8
Layer 1
10
127.176224
20
107.280502
11
127.450545
21
108.359492
0
LINE
8
Layer 1
10
127.450545
20
108.359492
11
127.706578
21
109.456772
0
LINE
8
Layer 1
10
127.706578
20
109.456772
11
127.834593
21
110.554052
0
LINE
8
Layer 1
10
127.834593
20
110.554052
11
127.816318
21
110.828373
0
LINE
8
Layer 1
10
127.816318
20
110.828373
11
127.633436
21
111.011251
0
LINE
8
Layer 1
10
127.633436
20
111.011251
11
126.225256
21
110.243155
0
LINE
8
Layer 1
10
126.225256
20
110.243155
11
125.073116
21
109.182455
0
LINE
8
Layer 1
10
125.073116
20
109.182455
11
125.255998
21
108.999577
0
LINE
8
Layer 1
10
125.255998
20
108.999577
11
125.621758
21
109.182455
0
LINE
8
Layer 1
10
125.621758
20
109.182455
11
125.987518
21
109.365337
0
LINE
8
Layer 1
10
125.987518
20
109.365337
11
126.060669
21
109.347062
0
LINE
8
Layer 1
10
126.060669
20
109.347062
11
126.133820
21
109.328787
0
LINE
8
Layer 1
10
126.133820
20
109.328787
11
126.042382
21
108.194927
0
LINE
8
Layer 1
10
126.042382
20
108.194927
11
125.859500
21
107.042787
0
LINE
8
Layer 1
10
125.859500
20
107.042787
11
125.676622
21
105.908927
0
LINE
8
Layer 1
10
125.676622
20
105.908927
11
125.603470
21
104.775067
0
LINE
8
Layer 1
10
125.603470
20
104.775067
11
125.640063
21
104.445887
0
LINE
8
Layer 1
10
125.640063
20
104.445887
11
125.786365
21
104.098415
0
LINE
8
Layer 1
10
125.786365
20
104.098415
11
126.005823
21
103.805806
0
LINE
8
Layer 1
10
126.005823
20
103.805806
11
126.353295
21
103.696075
0
LINE
8
Layer 1
10
126.353295
20
103.696075
11
127.340848
21
103.988684
0
LINE
8
Layer 1
10
127.340848
20
103.988684
11
128.255246
21
104.720204
0
LINE
8
Layer 1
10
128.255246
20
104.720204
11
129.023342
21
105.616319
0
LINE
8
Layer 1
10
129.023342
20
105.616319
11
129.645135
21
106.439278
0
LINE
8
Layer 1
10
129.645135
20
106.439278
11
129.828000
21
106.439000
0
LINE
8
Layer 1
10
132.736000
20
104.299000
11
132.809151
21
104.536746
0
LINE
8
Layer 1
10
132.809151
20
104.536746
11
133.010317
21
104.664761
0
LINE
8
Layer 1
10
133.010317
20
104.664761
11
133.266350
21
104.701354
0
LINE
8
Layer 1
10
133.266350
20
104.701354
11
133.522383
21
104.719629
0
LINE
8
Layer 1
10
133.522383
20
104.719629
11
133.796704
21
104.701354
0
LINE
8
Layer 1
10
133.796704
20
104.701354
11
134.034445
21
104.701354
0
LINE
8
Layer 1
10
134.034445
20
104.701354
11
134.235615
21
104.664761
0
LINE
8
Layer 1
10
134.235615
20
104.664761
11
134.583087
21
104.609898
0
LINE
8
Layer 1
10
134.583087
20
104.609898
11
134.930559
21
104.555034
0
LINE
8
Layer 1
10
134.930559
20
104.555034
11
135.131725
21
104.536759
0
LINE
8
Layer 1
10
135.131725
20
104.536759
11
135.387758
21
104.573352
0
LINE
8
Layer 1
10
135.387758
20
104.573352
11
135.954688
21
104.683079
0
LINE
8
Layer 1
10
135.954688
20
104.683079
11
136.613053
21
104.792806
0
LINE
8
Layer 1
10
136.613053
20
104.792806
11
137.143407
21
104.884250
0
LINE
8
Layer 1
10
137.143407
20
104.884250
11
137.472591
21
104.939113
0
LINE
8
Layer 1
10
137.472591
20
104.939113
11
137.838351
21
105.048840
0
LINE
8
Layer 1
10
137.838351
20
105.048840
11
138.130956
21
105.231722
0
LINE
8
Layer 1
10
138.130956
20
105.231722
11
138.258975
21
105.542619
0
LINE
8
Layer 1
10
138.258975
20
105.542619
11
138.222382
21
105.743785
0
LINE
8
Layer 1
10
138.222382
20
105.743785
11
138.057788
21
105.890087
0
LINE
8
Layer 1
10
138.057788
20
105.890087
11
137.618877
21
106.091257
0
LINE
8
Layer 1
10
137.618877
20
106.091257
11
137.051947
21
106.347290
0
LINE
8
Layer 1
10
137.051947
20
106.347290
11
136.539885
21
106.585031
0
LINE
8
Layer 1
10
136.539885
20
106.585031
11
136.228988
21
106.731338
0
LINE
8
Layer 1
10
136.228988
20
106.731338
11
135.570619
21
106.932504
0
LINE
8
Layer 1
10
135.570619
20
106.932504
11
134.784236
21
107.151962
0
LINE
8
Layer 1
10
134.784236
20
107.151962
11
134.107579
21
107.499434
0
LINE
8
Layer 1
10
134.107579
20
107.499434
11
133.901841
21
107.755464
0
LINE
8
Layer 1
10
133.901841
20
107.755464
11
133.833262
21
108.084647
0
LINE
8
Layer 1
10
133.833262
20
108.084647
11
133.833262
21
108.249241
0
LINE
8
Layer 1
10
133.833262
20
108.249241
11
133.851537
21
108.413831
0
LINE
8
Layer 1
10
133.851537
20
108.413831
11
134.802511
21
109.328233
0
LINE
8
Layer 1
10
134.802511
20
109.328233
11
136.046101
21
110.206055
0
LINE
8
Layer 1
10
136.046101
20
110.206055
11
137.435991
21
110.864424
0
LINE
8
Layer 1
10
137.435991
20
110.864424
11
138.789301
21
111.138745
0
LINE
8
Layer 1
10
138.789301
20
111.138745
11
139.081910
21
111.102152
0
LINE
8
Layer 1
10
139.081910
20
111.102152
11
139.593972
21
111.010709
0
LINE
8
Layer 1
10
139.593972
20
111.010709
11
140.069463
21
110.846119
0
LINE
8
Layer 1
10
140.069463
20
110.846119
11
140.288916
21
110.626661
0
LINE
8
Layer 1
10
140.288916
20
110.626661
11
140.160901
21
110.315769
0
LINE
8
Layer 1
10
140.160901
20
110.315769
11
139.850004
21
110.059736
0
LINE
8
Layer 1
10
139.850004
20
110.059736
11
139.465956
21
109.858566
0
LINE
8
Layer 1
10
139.465956
20
109.858566
11
139.155059
21
109.767127
0
LINE
8
Layer 1
10
139.155059
20
109.767127
11
138.972181
21
109.785402
0
LINE
8
Layer 1
10
138.972181
20
109.785402
11
138.697860
21
109.858553
0
LINE
8
Layer 1
10
138.697860
20
109.858553
11
138.405251
21
109.913416
0
LINE
8
Layer 1
10
138.405251
20
109.913416
11
138.240661
21
109.950009
0
LINE
8
Layer 1
10
138.240661
20
109.950009
11
137.966000
21
109.950000
0
LINE
8
Layer 1
10
137.966000
20
109.950000
11
137.325919
21
109.876845
0
LINE
8
Layer 1
10
137.325919
20
109.876845
11
136.502960
21
109.693967
0
LINE
8
Layer 1
10
136.502960
20
109.693967
11
135.789728
21
109.364783
0
LINE
8
Layer 1
10
135.789728
20
109.364783
11
135.478831
21
108.925871
0
LINE
8
Layer 1
10
135.478831
20
108.925871
11
135.561127
21
108.660694
0
LINE
8
Layer 1
10
135.561127
20
108.660694
11
135.808015
21
108.450380
0
LINE
8
Layer 1
10
135.808015
20
108.450380
11
136.630974
21
108.121201
0
LINE
8
Layer 1
10
136.630974
20
108.121201
11
137.691674
21
107.846880
0
LINE
8
Layer 1
10
137.691674
20
107.846880
11
138.752374
21
107.535983
0
LINE
8
Layer 1
10
138.752374
20
107.535983
11
139.575333
21
107.060496
0
LINE
8
Layer 1
10
139.575333
20
107.060496
11
139.822221
21
106.749599
0
LINE
8
Layer 1
10
139.822221
20
106.749599
11
139.904517
21
106.365550
0
LINE
8
Layer 1
10
139.904517
20
106.365550
11
139.831365
21
105.862629
0
LINE
8
Layer 1
10
139.831365
20
105.862629
11
139.611908
21
105.414572
0
LINE
8
Layer 1
10
139.611908
20
105.414572
11
138.843812
21
104.664764
0
LINE
8
Layer 1
10
138.843812
20
104.664764
11
137.783112
21
104.134414
0
LINE
8
Layer 1
10
137.783112
20
104.134414
11
136.576102
21
103.768654
0
LINE
8
Layer 1
10
136.576102
20
103.768654
11
135.387382
21
103.549196
0
LINE
8
Layer 1
10
135.387382
20
103.549196
11
134.381542
21
103.494333
0
LINE
8
Layer 1
10
134.381542
20
103.494333
11
133.924343
21
103.512608
0
LINE
8
Layer 1
10
133.924343
20
103.512608
11
133.375701
21
103.640623
0
LINE
8
Layer 1
10
133.375701
20
103.640623
11
132.918502
21
103.878369
0
LINE
8
Layer 1
10
132.918502
20
103.878369
11
132.735624
21
104.298992
0
LINE
8
Layer 1
10
132.735624
20
104.298992
11
132.736000
21
104.299000
0
LINE
8
Layer 1
10
144.093000
20
105.525000
11
144.166151
21
104.574026
0
LINE
8
Layer 1
10
144.166151
20
104.574026
11
144.458760
21
103.696199
0
LINE
8
Layer 1
10
144.458760
20
103.696199
11
144.550199
21
103.586472
0
LINE
8
Layer 1
10
144.550199
20
103.586472
11
144.641638
21
103.513321
0
LINE
8
Layer 1
10
144.641638
20
103.513321
11
144.842808
21
103.531596
0
LINE
8
Layer 1
10
144.842808
20
103.531596
11
145.153705
21
103.623035
0
LINE
8
Layer 1
10
145.153705
20
103.623035
11
145.501177
21
103.732766
0
LINE
8
Layer 1
10
145.501177
20
103.732766
11
145.738918
21
103.879068
0
LINE
8
Layer 1
10
145.738918
20
103.879068
11
146.196121
21
104.317979
0
LINE
8
Layer 1
10
146.196121
20
104.317979
11
146.744759
21
104.848333
0
LINE
8
Layer 1
10
146.744759
20
104.848333
11
147.183670
21
105.305532
0
LINE
8
Layer 1
10
147.183670
20
105.305532
11
147.384840
21
105.524985
0
LINE
8
Layer 1
10
147.384840
20
105.524985
11
147.385000
21
105.945000
0
LINE
8
Layer 1
10
147.385000
20
105.945000
11
147.293561
21
105.926725
0
LINE
8
Layer 1
10
147.293561
20
105.926725
11
147.202118
21
105.890132
0
LINE
8
Layer 1
10
147.202118
20
105.890132
11
146.104838
21
105.158612
0
LINE
8
Layer 1
10
146.104838
20
105.158612
11
146.068245
21
105.140337
0
LINE
8
Layer 1
10
146.068245
20
105.140337
11
146.013381
21
105.140337
0
LINE
8
Layer 1
10
146.013381
20
105.140337
11
145.958518
21
105.140337
0
LINE
8
Layer 1
10
145.958518
20
105.140337
11
145.921925
21
105.158612
0
LINE
8
Layer 1
10
145.921925
20
105.158612
11
145.812198
21
105.231768
0
LINE
8
Layer 1
10
145.812198
20
105.231768
11
145.739043
21
105.341495
0
LINE
8
Layer 1
10
145.739043
20
105.341495
11
145.720768
21
105.652392
0
LINE
8
Layer 1
10
145.720768
20
105.652392
11
145.720768
21
105.981576
0
LINE
8
Layer 1
10
145.720768
20
105.981576
11
145.775631
21
106.969125
0
LINE
8
Layer 1
10
145.775631
20
106.969125
11
145.921938
21
107.938391
0
LINE
8
Layer 1
10
145.921938
20
107.938391
11
146.049953
21
108.925944
0
LINE
8
Layer 1
10
146.049953
20
108.925944
11
146.123104
21
109.913493
0
LINE
8
Layer 1
10
146.123104
20
109.913493
11
146.123104
21
110.096375
0
LINE
8
Layer 1
10
146.123104
20
110.096375
11
146.104830
21
110.370696
0
LINE
8
Layer 1
10
146.104830
20
110.370696
11
146.104830
21
110.645013
0
LINE
8
Layer 1
10
146.104830
20
110.645013
11
146.104830
21
110.827895
0
LINE
8
Layer 1
10
146.104830
20
110.827895
11
146.013391
21
110.919334
0
LINE
8
Layer 1
10
146.013391
20
110.919334
11
145.921952
21
111.010773
0
LINE
8
Layer 1
10
145.921952
20
111.010773
11
145.848000
21
111.011000
0
LINE
8
Layer 1
10
145.848000
20
111.011000
11
144.782722
21
110.887556
0
LINE
8
Layer 1
10
144.782722
20
110.887556
11
143.781450
21
110.517225
0
LINE
8
Layer 1
10
143.781450
20
110.517225
11
142.889908
21
109.964014
0
LINE
8
Layer 1
10
142.889908
20
109.964014
11
142.117240
21
109.255355
0
LINE
8
Layer 1
10
142.117240
20
109.255355
11
141.477161
21
108.414108
0
LINE
8
Layer 1
10
141.477161
20
108.414108
11
140.983380
21
107.463135
0
LINE
8
Layer 1
10
140.983380
20
107.463135
11
140.681628
21
106.448150
0
LINE
8
Layer 1
10
140.681628
20
106.448150
11
140.581044
21
105.414875
0
LINE
8
Layer 1
10
140.581044
20
105.414875
11
140.562769
21
105.012539
0
LINE
8
Layer 1
10
140.562769
20
105.012539
11
140.599362
21
104.427321
0
LINE
8
Layer 1
10
140.599362
20
104.427321
11
140.763956
21
103.896971
0
LINE
8
Layer 1
10
140.763956
20
103.896971
11
141.148004
21
103.677513
0
LINE
8
Layer 1
10
141.148004
20
103.677513
11
141.970963
21
103.915259
0
LINE
8
Layer 1
10
141.970963
20
103.915259
11
142.665908
21
104.482189
0
LINE
8
Layer 1
10
142.665908
20
104.482189
11
143.342565
21
105.103978
0
LINE
8
Layer 1
10
143.342565
20
105.103978
11
144.092373
21
105.524601
0
LINE
8
Layer 1
10
144.092373
20
105.524601
11
144.093000
21
105.525000
0
LINE
8
Layer 1
10
141.697270
20
106.457690
11
141.916728
21
107.719560
0
LINE
8
Layer 1
10
141.916728
20
107.719560
11
142.538521
21
108.707113
0
LINE
8
Layer 1
10
142.538521
20
108.707113
11
143.489495
21
109.347194
0
LINE
8
Layer 1
10
143.489495
20
109.347194
11
144.733085
21
109.584940
0
LINE
8
Layer 1
10
144.733085
20
109.584940
11
144.568493
21
108.309350
0
LINE
8
Layer 1
10
144.568493
20
108.309350
11
144.074716
21
107.116060
0
LINE
8
Layer 1
10
144.074716
20
107.116060
11
143.347768
21
106.059925
0
LINE
8
Layer 1
10
143.347768
20
106.059925
11
142.447086
21
105.159240
0
LINE
8
Layer 1
10
142.447086
20
105.159240
11
142.355647
21
105.140965
0
LINE
8
Layer 1
10
142.355647
20
105.140965
11
142.264208
21
105.140965
0
LINE
8
Layer 1
10
142.264208
20
105.140965
11
141.971599
21
105.287272
0
LINE
8
Layer 1
10
141.971599
20
105.287272
11
141.788721
21
105.671320
0
LINE
8
Layer 1
10
141.788721
20
105.671320
11
141.715566
21
106.110231
0
LINE
8
Layer 1
10
141.715566
20
106.110231
11
141.697291
21
106.457703
0
LINE
8
Layer 1
10
141.697291
20
106.457703
11
141.697270
21
106.457690
0
LINE
8
Layer 1
10
149.031000
20
108.634000
11
148.866410
21
108.963184
0
LINE
8
Layer 1
10
148.866410
20
108.963184
11
148.500650
21
109.072911
0
LINE
8
Layer 1
10
148.500650
20
109.072911
11
148.080022
21
109.054636
0
LINE
8
Layer 1
10
148.080022
20
109.054636
11
147.750842
21
108.999773
0
LINE
8
Layer 1
10
147.750842
20
108.999773
11
148.208041
21
109.530123
0
LINE
8
Layer 1
10
148.208041
20
109.530123
11
148.829830
21
110.078765
0
LINE
8
Layer 1
10
148.829830
20
110.078765
11
149.506487
21
110.499388
0
LINE
8
Layer 1
10
149.506487
20
110.499388
11
150.238007
21
110.682270
0
LINE
8
Layer 1
10
150.238007
20
110.682270
11
150.311000
21
110.682000
0
LINE
8
Layer 1
10
150.311000
20
110.682000
11
150.420727
21
110.499118
0
LINE
8
Layer 1
10
150.420727
20
110.499118
11
150.493878
21
110.316240
0
LINE
8
Layer 1
10
150.493878
20
110.316240
11
150.494000
21
107.865000
0
LINE
8
Layer 1
10
150.494000
20
107.865000
11
151.408402
21
108.761110
0
LINE
8
Layer 1
10
151.408402
20
108.761110
11
152.322800
21
109.675512
0
LINE
8
Layer 1
10
152.322800
20
109.675512
11
153.365220
21
110.407032
0
LINE
8
Layer 1
10
153.365220
20
110.407032
11
153.968723
21
110.626489
0
LINE
8
Layer 1
10
153.968723
20
110.626489
11
154.645380
21
110.699641
0
LINE
8
Layer 1
10
154.645380
20
110.699641
11
154.992852
21
110.644773
0
LINE
8
Layer 1
10
154.992852
20
110.644773
11
155.248885
21
110.315593
0
LINE
8
Layer 1
10
155.248885
20
110.315593
11
155.248000
21
110.133000
0
LINE
8
Layer 1
10
155.248000
20
110.133000
11
155.248000
21
109.840391
0
LINE
8
Layer 1
10
155.248000
20
109.840391
11
155.266275
21
109.566074
0
LINE
8
Layer 1
10
155.266275
20
109.566074
11
155.267000
21
109.365000
0
LINE
8
Layer 1
10
155.267000
20
109.365000
11
155.157273
21
107.664210
0
LINE
8
Layer 1
10
155.157273
20
107.664210
11
155.047542
21
105.981720
0
LINE
8
Layer 1
10
155.047542
20
105.981720
11
155.047000
21
105.781000
0
LINE
8
Layer 1
10
155.047000
20
105.781000
11
155.047000
21
105.506679
0
LINE
8
Layer 1
10
155.047000
20
105.506679
11
155.065275
21
105.214074
0
LINE
8
Layer 1
10
155.065275
20
105.214074
11
155.066000
21
105.031000
0
LINE
8
Layer 1
10
155.066000
20
105.031000
11
155.139151
21
104.921273
0
LINE
8
Layer 1
10
155.139151
20
104.921273
11
155.248878
21
104.848122
0
LINE
8
Layer 1
10
155.248878
20
104.848122
11
155.340000
21
104.848000
0
LINE
8
Layer 1
10
155.340000
20
104.848000
11
155.431000
21
104.848000
0
LINE
8
Layer 1
10
155.431000
20
104.848000
11
156.034501
21
105.085741
0
LINE
8
Layer 1
10
156.034501
20
105.085741
11
156.638007
21
105.250335
0
LINE
8
Layer 1
10
156.638007
20
105.250335
11
156.381974
21
104.573678
0
LINE
8
Layer 1
10
156.381974
20
104.573678
11
155.778468
21
104.025036
0
LINE
8
Layer 1
10
155.778468
20
104.025036
11
155.010372
21
103.640988
0
LINE
8
Layer 1
10
155.010372
20
103.640988
11
154.315427
21
103.512973
0
LINE
8
Layer 1
10
154.315427
20
103.512973
11
153.839940
21
103.622700
0
LINE
8
Layer 1
10
153.839940
20
103.622700
11
153.602199
21
104.098191
0
LINE
8
Layer 1
10
153.602199
20
104.098191
11
153.603000
21
104.299000
0
LINE
8
Layer 1
10
153.603000
20
104.299000
11
153.584725
21
104.646472
0
LINE
8
Layer 1
10
153.584725
20
104.646472
11
153.584725
21
104.993944
0
LINE
8
Layer 1
10
153.584725
20
104.993944
11
153.584000
21
105.214000
0
LINE
8
Layer 1
10
153.584000
20
105.214000
11
153.693731
21
106.823340
0
LINE
8
Layer 1
10
153.693731
20
106.823340
11
153.803458
21
108.432680
0
LINE
8
Layer 1
10
153.803458
20
108.432680
11
153.785183
21
108.798440
0
LINE
8
Layer 1
10
153.785183
20
108.798440
11
153.785183
21
109.182488
0
LINE
8
Layer 1
10
153.785183
20
109.182488
11
153.693744
21
109.273931
0
LINE
8
Layer 1
10
153.693744
20
109.273931
11
153.602305
21
109.365370
0
LINE
8
Layer 1
10
153.602305
20
109.365370
11
153.511000
21
109.365000
0
LINE
8
Layer 1
10
153.511000
20
109.365000
11
152.633178
21
109.090679
0
LINE
8
Layer 1
10
152.633178
20
109.090679
11
151.919946
21
108.450598
0
LINE
8
Layer 1
10
151.919946
20
108.450598
11
151.316440
21
107.645927
0
LINE
8
Layer 1
10
151.316440
20
107.645927
11
150.859241
21
106.914407
0
LINE
8
Layer 1
10
150.859241
20
106.914407
11
150.438618
21
105.945146
0
LINE
8
Layer 1
10
150.438618
20
105.945146
11
150.109434
21
104.811286
0
LINE
8
Layer 1
10
150.109434
20
104.811286
11
149.597372
21
103.860308
0
LINE
8
Layer 1
10
149.597372
20
103.860308
11
149.185892
21
103.572272
0
LINE
8
Layer 1
10
149.185892
20
103.572272
11
148.609819
21
103.476260
0
LINE
8
Layer 1
10
148.609819
20
103.476260
11
148.664682
21
104.774710
0
LINE
8
Layer 1
10
148.664682
20
104.774710
11
148.810984
21
106.054870
0
LINE
8
Layer 1
10
148.810984
20
106.054870
11
148.957291
21
107.353320
0
LINE
8
Layer 1
10
148.957291
20
107.353320
11
149.030442
21
108.633480
0
LINE
8
Layer 1
10
149.030442
20
108.633480
11
149.031000
21
108.634000
0
LINE
8
Layer 1
10
162.783000
20
104.958000
11
162.984166
21
105.561506
0
LINE
8
Layer 1
10
162.984166
20
105.561506
11
163.226483
21
105.767244
0
LINE
8
Layer 1
10
163.226483
20
105.767244
11
163.551096
21
105.835823
0
LINE
8
Layer 1
10
163.551096
20
105.835823
11
163.642535
21
105.817548
0
LINE
8
Layer 1
10
163.642535
20
105.817548
11
163.733978
21
105.817548
0
LINE
8
Layer 1
10
163.733978
20
105.817548
11
164.282616
21
105.195759
0
LINE
8
Layer 1
10
164.282616
20
105.195759
11
164.812966
21
104.866575
0
LINE
8
Layer 1
10
164.812966
20
104.866575
11
165.416472
21
104.756844
0
LINE
8
Layer 1
10
165.416472
20
104.756844
11
166.202855
21
104.738569
0
LINE
8
Layer 1
10
166.202855
20
104.738569
11
167.368718
21
104.848298
0
LINE
8
Layer 1
10
167.368718
20
104.848298
11
168.196245
21
105.177485
0
LINE
8
Layer 1
10
168.196245
20
105.177485
11
168.758601
21
105.707837
0
LINE
8
Layer 1
10
168.758601
20
105.707837
11
169.128931
21
106.384495
0
LINE
8
Layer 1
10
169.128931
20
106.384495
11
169.458115
21
108.121855
0
LINE
8
Layer 1
10
169.458115
20
108.121855
11
169.586134
21
110.170105
0
LINE
8
Layer 1
10
169.586134
20
110.170105
11
169.586134
21
110.444426
0
LINE
8
Layer 1
10
169.586134
20
110.444426
11
169.604409
21
110.828474
0
LINE
8
Layer 1
10
169.604409
20
110.828474
11
169.605000
21
111.194000
0
LINE
8
Layer 1
10
169.605000
20
111.194000
11
169.495269
21
111.614623
0
LINE
8
Layer 1
10
169.495269
20
111.614623
11
169.038070
21
111.779217
0
LINE
8
Layer 1
10
169.038070
20
111.779217
11
168.105380
21
111.578047
0
LINE
8
Layer 1
10
168.105380
20
111.578047
11
167.776200
21
111.376877
0
LINE
8
Layer 1
10
167.776200
20
111.376877
11
167.538454
21
111.230575
0
LINE
8
Layer 1
10
167.538454
20
111.230575
11
167.300708
21
111.102560
0
LINE
8
Layer 1
10
167.300708
20
111.102560
11
166.989811
21
111.029409
0
LINE
8
Layer 1
10
166.989811
20
111.029409
11
167.250416
21
111.550615
0
LINE
8
Layer 1
10
167.250416
20
111.550615
11
167.629892
21
111.943807
0
LINE
8
Layer 1
10
167.629892
20
111.943807
11
168.690592
21
112.492449
0
LINE
8
Layer 1
10
168.690592
20
112.492449
11
169.879312
21
112.839917
0
LINE
8
Layer 1
10
169.879312
20
112.839917
11
170.775427
21
112.967936
0
LINE
8
Layer 1
10
170.775427
20
112.967936
11
171.049000
21
112.968000
0
LINE
8
Layer 1
10
171.049000
20
112.968000
11
171.195302
21
112.327919
0
LINE
8
Layer 1
10
171.195302
20
112.327919
11
171.231895
21
111.779281
0
LINE
8
Layer 1
10
171.231895
20
111.779281
11
171.140456
21
109.840751
0
LINE
8
Layer 1
10
171.140456
20
109.840751
11
170.829559
21
107.938801
0
LINE
8
Layer 1
10
170.829559
20
107.938801
11
170.189478
21
106.219731
0
LINE
8
Layer 1
10
170.189478
20
106.219731
11
169.741421
21
105.460780
0
LINE
8
Layer 1
10
169.741421
20
105.460780
11
169.165348
21
104.793271
0
LINE
8
Layer 1
10
169.165348
20
104.793271
11
168.461262
21
104.253777
0
LINE
8
Layer 1
10
168.461262
20
104.253777
11
167.629158
21
103.842297
0
LINE
8
Layer 1
10
167.629158
20
103.842297
11
166.669039
21
103.581693
0
LINE
8
Layer 1
10
166.669039
20
103.581693
11
165.544328
21
103.494825
0
LINE
8
Layer 1
10
165.544328
20
103.494825
11
164.666506
21
103.513100
0
LINE
8
Layer 1
10
164.666506
20
103.513100
11
163.770396
21
103.677690
0
LINE
8
Layer 1
10
163.770396
20
103.677690
11
163.057164
21
104.116606
0
LINE
8
Layer 1
10
163.057164
20
104.116606
11
162.851423
21
104.473220
0
LINE
8
Layer 1
10
162.851423
20
104.473220
11
162.782843
21
104.957853
0
LINE
8
Layer 1
10
162.782843
20
104.957853
11
162.783000
21
104.958000
0
LINE
8
Layer 1
10
170.574000
20
104.427000
11
170.665440
21
104.042953
0
LINE
8
Layer 1
10
170.665440
20
104.042953
11
170.939760
21
103.732060
0
LINE
8
Layer 1
10
170.939760
20
103.732060
11
171.689568
21
103.476027
0
LINE
8
Layer 1
10
171.689568
20
103.476027
11
172.329649
21
103.640617
0
LINE
8
Layer 1
10
172.329649
20
103.640617
11
172.786848
21
104.244123
0
LINE
8
Layer 1
10
172.786848
20
104.244123
11
172.347937
21
104.902492
0
LINE
8
Layer 1
10
172.347937
20
104.902492
11
171.598129
21
105.176813
0
LINE
8
Layer 1
10
171.598129
20
105.176813
11
171.268945
21
105.121945
0
LINE
8
Layer 1
10
171.268945
20
105.121945
11
170.921473
21
104.975643
0
LINE
8
Layer 1
10
170.921473
20
104.975643
11
170.665440
21
104.737897
0
LINE
8
Layer 1
10
170.665440
20
104.737897
11
170.574001
21
104.427000
0
LINE
8
Layer 1
10
170.574001
20
104.427000
11
170.574000
21
104.427000
0
LINE
8
Layer 1
10
25.400000
20
190.500000
11
25.400000
21
177.800000
0
LINE
8
Layer 1
10
25.400000
20
177.800000
11
12.700000
21
177.800000
0
LINE
8
Layer 1
10
12.700000
20
177.800000
11
12.700000
21
25.400000
0
LINE
8
Layer 1
10
12.700000
20
25.400000
11
25.400000
21
25.400000
0
LINE
8
Layer 1
10
25.400000
20
25.400000
11
25.400000
21
12.700000
0
LINE
8
Layer 1
10
25.400000
20
12.700000
11
177.800000
21
12.700000
0
LINE
8
Layer 1
10
177.800000
20
12.700000
11
177.800000
21
25.400000
0
LINE
8
Layer 1
10
177.800000
20
25.400000
11
190.500000
21
25.400000
0
LINE
8
Layer 1
10
190.500000
20
25.400000
11
190.500000
21
177.800000
0
LINE
8
Layer 1
10
190.500000
20
177.800000
11
177.800000
21
177.800000
0
LINE
8
Layer 1
10
177.800000
20
177.800000
11
177.800000
21
190.500000
0
LINE
8
Layer 1
10
177.800000
20
190.500000
11
25.400000
21
190.500000
0
LINE
8
Layer 1
10
-0.030586
20
203.231000
11
202.966000
21
203.231000
0
LINE
8
Layer 1
10
202.966000
20
203.231000
11
202.966000
21
0.233990
0
LINE
8
Layer 1
10
202.966000
20
0.233990
11
-0.030586
21
0.233990
0
LINE
8
Layer 1
10
-0.030586
20
0.233990
11
-0.030586
21
203.231000
 0 
ENDSEC
 0 
EOF