  0
SECTION
  2
HEADER
  9
$ACADVER
  1
AC1009
  0
ENDSEC
  0
SECTION
  2
ENTITIES
  0
POLYLINE
  5
90
  8
Layer_0
  62
1
  66
1
  10
0
  20
0
  30
0
  0
VERTEX
  5
90
  8
Layer_0
  10
152
  20
2
  0
VERTEX
  5
91
  8
Layer_0
  10
552
  20
2
  0
VERTEX
  5
92
  8
Layer_0
  10
552
  20
202
  0
SEQEND
  0
POLYLINE
  5
94
  8
Layer_0
  62
1
  66
1
  10
0
  20
0
  30
0
  0
VERTEX
  5
94
  8
Layer_0
  10
152
  20
2
  0
VERTEX
  5
95
  8
Layer_0
  10
152
  20
202
  0
SEQEND
  0
POLYLINE
  5
97
  8
Layer_0
  62
1
  66
1
  10
0
  20
0
  30
0
  0
VERTEX
  5
97
  8
Layer_0
  10
251.99982
  20
1222.0015
  0
VERTEX
  5
98
  8
Layer_0
  10
252.0123
  20
972.00122
  0
SEQEND
  0
POLYLINE
  5
9a
  8
Layer_0
  62
1
  66
1
  10
0
  20
0
  30
0
  0
VERTEX
  5
9a
  8
Layer_0
  10
452.01694
  20
1222.0044
  0
VERTEX
  5
9b
  8
Layer_0
  10
452
  20
972.00354
  0
SEQEND
  0
POLYLINE
  5
9d
  8
Layer_0
  62
1
  66
1
  10
0
  20
0
  30
0
  0
VERTEX
  5
9d
  8
Layer_0
  10
552.00098
  20
202
  0
VERTEX
  5
9e
  8
Layer_0
  10
452.00098
  20
302
  0
VERTEX
  5
9f
  8
Layer_0
  10
452.00098
  20
772
  0
VERTEX
  5
a0
  8
Layer_0
  10
702.00098
  20
772
  0
SEQEND
  0
POLYLINE
  5
a2
  8
Layer_0
  62
1
  66
1
  10
0
  20
0
  30
0
  0
VERTEX
  5
a2
  8
Layer_0
  10
702.00098
  20
971.99969
  0
VERTEX
  5
a3
  8
Layer_0
  10
702.00098
  20
771.99976
  0
SEQEND
  0
POLYLINE
  5
a5
  8
Layer_0
  62
1
  66
1
  10
0
  20
0
  30
0
  0
VERTEX
  5
a5
  8
Layer_0
  10
452.00031
  20
972
  0
VERTEX
  5
a6
  8
Layer_0
  10
702.00085
  20
972
  0
SEQEND
  0
POLYLINE
  5
a8
  8
Layer_0
  62
1
  66
1
  10
0
  20
0
  30
0
  0
VERTEX
  5
a8
  8
Layer_0
  10
252
  20
1222
  0
VERTEX
  5
a9
  8
Layer_0
  10
452.01694
  20
1222.0002
  0
SEQEND
  0
POLYLINE
  5
ab
  8
Layer_0
  62
1
  66
1
  10
0
  20
0
  30
0
  0
VERTEX
  5
ab
  8
Layer_0
  10
152
  20
202
  0
VERTEX
  5
ac
  8
Layer_0
  10
252
  20
302
  0
VERTEX
  5
ad
  8
Layer_0
  10
252
  20
772
  0
VERTEX
  5
ae
  8
Layer_0
  10
2
  20
772
  0
SEQEND
  0
POLYLINE
  5
b0
  8
Layer_0
  62
1
  66
1
  10
0
  20
0
  30
0
  0
VERTEX
  5
b0
  8
Layer_0
  10
2
  20
971.99969
  0
VERTEX
  5
b1
  8
Layer_0
  10
2
  20
771.99976
  0
SEQEND
  0
POLYLINE
  5
b3
  8
Layer_0
  62
1
  66
1
  10
0
  20
0
  30
0
  0
VERTEX
  5
b3
  8
Layer_0
  10
252.00066
  20
972
  0
VERTEX
  5
b4
  8
Layer_0
  10
2.0001373
  20
972
  0
SEQEND
  0
POLYLINE
  5
b6
  8
Layer_0
  62
1
  70
1
  66
1
  10
0
  20
0
  30
0
  0
VERTEX
  5
b6
  8
Layer_0
  10
703.47559
  20
973.35107
  0
VERTEX
  5
b7
  8
Layer_0
  10
703.38843
  20
973.44067
  0
VERTEX
  5
b8
  8
Layer_0
  10
703.29565
  20
973.52441
  0
VERTEX
  5
b9
  8
Layer_0
  10
703.198
  20
973.60229
  0
VERTEX
  5
ba
  8
Layer_0
  10
703.14722
  20
973.63892
  0
VERTEX
  5
bb
  8
Layer_0
  10
703.04272
  20
973.70728
  0
VERTEX
  5
bc
  8
Layer_0
  10
702.93384
  20
973.76904
  0
VERTEX
  5
bd
  8
Layer_0
  10
702.82153
  20
973.82397
  0
VERTEX
  5
be
  8
Layer_0
  10
702.76416
  20
973.84863
  0
VERTEX
  5
bf
  8
Layer_0
  10
702.64722
  20
973.89258
  0
VERTEX
  5
c0
  8
Layer_0
  10
702.52783
  20
973.92944
  0
VERTEX
  5
c1
  8
Layer_0
  10
702.46729
  20
973.94482
  0
VERTEX
  5
c2
  8
Layer_0
  10
702.34497
  20
973.97021
  0
VERTEX
  5
c3
  8
Layer_0
  10
702.22119
  20
973.98779
  0
VERTEX
  5
c4
  8
Layer_0
  10
702.09668
  20
973.9978
  0
VERTEX
  5
c5
  8
Layer_0
  10
702.03418
  20
973.99976
  0
VERTEX
  5
c6
  8
Layer_0
  10
454.00024
  20
974
  0
VERTEX
  5
c7
  8
Layer_0
  10
454.01685
  20
1222.0042
  0
VERTEX
  5
c8
  8
Layer_0
  10
454.01294
  20
1222.1292
  0
VERTEX
  5
c9
  8
Layer_0
  10
454.00122
  20
1222.2537
  0
VERTEX
  5
ca
  8
Layer_0
  10
453.98193
  20
1222.377
  0
VERTEX
  5
cb
  8
Layer_0
  10
453.96924
  20
1222.4382
  0
VERTEX
  5
cc
  8
Layer_0
  10
453.93823
  20
1222.5593
  0
VERTEX
  5
cd
  8
Layer_0
  10
453.8999
  20
1222.6782
  0
VERTEX
  5
ce
  8
Layer_0
  10
453.87793
  20
1222.7368
  0
VERTEX
  5
cf
  8
Layer_0
  10
453.82861
  20
1222.8516
  0
VERTEX
  5
d0
  8
Layer_0
  10
453.80127
  20
1222.9077
  0
VERTEX
  5
d1
  8
Layer_0
  10
453.74121
  20
1223.0176
  0
VERTEX
  5
d2
  8
Layer_0
  10
453.70874
  20
1223.0708
  0
VERTEX
  5
d3
  8
Layer_0
  10
453.63892
  20
1223.1746
  0
VERTEX
  5
d4
  8
Layer_0
  10
453.60156
  20
1223.2246
  0
VERTEX
  5
d5
  8
Layer_0
  10
453.52222
  20
1223.3213
  0
VERTEX
  5
d6
  8
Layer_0
  10
453.48022
  20
1223.3677
  0
VERTEX
  5
d7
  8
Layer_0
  10
453.39233
  20
1223.4563
  0
VERTEX
  5
d8
  8
Layer_0
  10
453.29883
  20
1223.5393
  0
VERTEX
  5
d9
  8
Layer_0
  10
453.20044
  20
1223.6165
  0
VERTEX
  5
da
  8
Layer_0
  10
453.09766
  20
1223.6873
  0
VERTEX
  5
db
  8
Layer_0
  10
453.04443
  20
1223.7202
  0
VERTEX
  5
dc
  8
Layer_0
  10
452.9353
  20
1223.781
  0
VERTEX
  5
dd
  8
Layer_0
  10
452.82251
  20
1223.835
  0
VERTEX
  5
de
  8
Layer_0
  10
452.76489
  20
1223.8591
  0
VERTEX
  5
df
  8
Layer_0
  10
452.64771
  20
1223.9023
  0
VERTEX
  5
e0
  8
Layer_0
  10
452.58789
  20
1223.9211
  0
VERTEX
  5
e1
  8
Layer_0
  10
452.46704
  20
1223.9531
  0
VERTEX
  5
e2
  8
Layer_0
  10
452.34448
  20
1223.9773
  0
VERTEX
  5
e3
  8
Layer_0
  10
452.2207
  20
1223.9939
  0
VERTEX
  5
e4
  8
Layer_0
  10
452.09595
  20
1224.0029
  0
VERTEX
  5
e5
  8
Layer_0
  10
451.97095
  20
1224.0039
  0
VERTEX
  5
e6
  8
Layer_0
  10
451.89136
  20
1224.0002
  0
VERTEX
  5
e7
  8
Layer_0
  10
252.07861
  20
1224
  0
VERTEX
  5
e8
  8
Layer_0
  10
252.01611
  20
1224.0015
  0
VERTEX
  5
e9
  8
Layer_0
  10
251.89136
  20
1223.9985
  0
VERTEX
  5
ea
  8
Layer_0
  10
251.76685
  20
1223.9878
  0
VERTEX
  5
eb
  8
Layer_0
  10
251.64307
  20
1223.9695
  0
VERTEX
  5
ec
  8
Layer_0
  10
251.58179
  20
1223.9573
  0
VERTEX
  5
ed
  8
Layer_0
  10
251.46045
  20
1223.9275
  0
VERTEX
  5
ee
  8
Layer_0
  10
251.40063
  20
1223.9097
  0
VERTEX
  5
ef
  8
Layer_0
  10
251.34131
  20
1223.8899
  0
VERTEX
  5
f0
  8
Layer_0
  10
251.22461
  20
1223.8452
  0
VERTEX
  5
f1
  8
Layer_0
  10
251.11084
  20
1223.7932
  0
VERTEX
  5
f2
  8
Layer_0
  10
251.05542
  20
1223.7644
  0
VERTEX
  5
f3
  8
Layer_0
  10
250.94702
  20
1223.7021
  0
VERTEX
  5
f4
  8
Layer_0
  10
250.84302
  20
1223.6331
  0
VERTEX
  5
f5
  8
Layer_0
  10
250.74341
  20
1223.5576
  0
VERTEX
  5
f6
  8
Layer_0
  10
250.64844
  20
1223.4761
  0
VERTEX
  5
f7
  8
Layer_0
  10
250.60303
  20
1223.4331
  0
VERTEX
  5
f8
  8
Layer_0
  10
250.51636
  20
1223.343
  0
VERTEX
  5
f9
  8
Layer_0
  10
250.43555
  20
1223.2478
  0
VERTEX
  5
fa
  8
Layer_0
  10
250.39746
  20
1223.1982
  0
VERTEX
  5
fb
  8
Layer_0
  10
250.32568
  20
1223.0959
  0
VERTEX
  5
fc
  8
Layer_0
  10
250.26074
  20
1222.9893
  0
VERTEX
  5
fd
  8
Layer_0
  10
250.23071
  20
1222.9343
  0
VERTEX
  5
fe
  8
Layer_0
  10
250.17578
  20
1222.822
  0
VERTEX
  5
ff
  8
Layer_0
  10
250.15112
  20
1222.7646
  0
VERTEX
  5
100
  8
Layer_0
  10
250.10693
  20
1222.6477
  0
VERTEX
  5
101
  8
Layer_0
  10
250.07031
  20
1222.5283
  0
VERTEX
  5
102
  8
Layer_0
  10
250.04126
  20
1222.4067
  0
VERTEX
  5
103
  8
Layer_0
  10
250.02954
  20
1222.3452
  0
VERTEX
  5
104
  8
Layer_0
  10
250.01196
  20
1222.2214
  0
VERTEX
  5
105
  8
Layer_0
  10
250.00195
  20
1222.0969
  0
VERTEX
  5
106
  8
Layer_0
  10
250
  20
1222.0344
  0
VERTEX
  5
107
  8
Layer_0
  10
250.01221
  20
974
  0
VERTEX
  5
108
  8
Layer_0
  10
2.0002441
  20
974
  0
VERTEX
  5
109
  8
Layer_0
  10
1.8752441
  20
973.99609
  0
VERTEX
  5
10a
  8
Layer_0
  10
1.7509766
  20
973.98438
  0
VERTEX
  5
10b
  8
Layer_0
  10
1.6533203
  20
973.96948
  0
VERTEX
  5
10c
  8
Layer_0
  10
1.5275879
  20
973.94312
  0
VERTEX
  5
10d
  8
Layer_0
  10
1.3261719
  20
973.88306
  0
VERTEX
  5
10e
  8
Layer_0
  10
1.2675781
  20
973.86108
  0
VERTEX
  5
10f
  8
Layer_0
  10
1.1113281
  20
973.7915
  0
VERTEX
  5
110
  8
Layer_0
  10
0.95776367
  20
973.70654
  0
VERTEX
  5
111
  8
Layer_0
  10
0.79296875
  20
973.59448
  0
VERTEX
  5
112
  8
Layer_0
  10
0.70581055
  20
973.52441
  0
VERTEX
  5
113
  8
Layer_0
  10
0.59179688
  20
973.42017
  0
VERTEX
  5
114
  8
Layer_0
  10
0.484375
  20
973.30444
  0
VERTEX
  5
115
  8
Layer_0
  10
0.36108398
  20
973.146
  0
VERTEX
  5
116
  8
Layer_0
  10
0.29272461
  20
973.0415
  0
VERTEX
  5
117
  8
Layer_0
  10
0.23095703
  20
972.93262
  0
VERTEX
  5
118
  8
Layer_0
  10
0.17602539
  20
972.82031
  0
VERTEX
  5
119
  8
Layer_0
  10
0.13330078
  20
972.71704
  0
VERTEX
  5
11a
  8
Layer_0
  10
0.070556641
  20
972.52661
  0
VERTEX
  5
11b
  8
Layer_0
  10
0.055175781
  20
972.46606
  0
VERTEX
  5
11c
  8
Layer_0
  10
0.029785156
  20
972.34375
  0
VERTEX
  5
11d
  8
Layer_0
  10
0.012207031
  20
972.21997
  0
VERTEX
  5
11e
  8
Layer_0
  10
0.0021972656
  20
972.09546
  0
VERTEX
  5
11f
  8
Layer_0
  10
0.00024414063
  20
972.03296
  0
VERTEX
  5
120
  8
Layer_0
  10
0
  20
771.99976
  0
VERTEX
  5
121
  8
Layer_0
  10
0.0024414063
  20
771.90405
  0
VERTEX
  5
122
  8
Layer_0
  10
0.024414063
  20
771.68848
  0
VERTEX
  5
123
  8
Layer_0
  10
0.047607422
  20
771.56567
  0
VERTEX
  5
124
  8
Layer_0
  10
0.073974609
  20
771.46069
  0
VERTEX
  5
125
  8
Layer_0
  10
0.11694336
  20
771.32568
  0
VERTEX
  5
126
  8
Layer_0
  10
0.15161133
  20
771.23657
  0
VERTEX
  5
127
  8
Layer_0
  10
0.24487305
  20
771.04102
  0
VERTEX
  5
128
  8
Layer_0
  10
0.30810547
  20
770.93311
  0
VERTEX
  5
129
  8
Layer_0
  10
0.36132813
  20
770.85352
  0
VERTEX
  5
12a
  8
Layer_0
  10
0.4543457
  20
770.73047
  0
VERTEX
  5
12b
  8
Layer_0
  10
0.49462891
  20
770.68286
  0
VERTEX
  5
12c
  8
Layer_0
  10
0.57983398
  20
770.59131
  0
VERTEX
  5
12d
  8
Layer_0
  10
0.6706543
  20
770.50537
  0
VERTEX
  5
12e
  8
Layer_0
  10
0.76660156
  20
770.42529
  0
VERTEX
  5
12f
  8
Layer_0
  10
0.86743164
  20
770.35132
  0
VERTEX
  5
130
  8
Layer_0
  10
0.97241211
  20
770.28394
  0
VERTEX
  5
131
  8
Layer_0
  10
1.0266113
  20
770.25269
  0
VERTEX
  5
132
  8
Layer_0
  10
1.1147461
  20
770.20679
  0
VERTEX
  5
133
  8
Layer_0
  10
1.2519531
  20
770.14478
  0
VERTEX
  5
134
  8
Layer_0
  10
1.3103027
  20
770.12231
  0
VERTEX
  5
135
  8
Layer_0
  10
1.4289551
  20
770.08301
  0
VERTEX
  5
136
  8
Layer_0
  10
1.5498047
  20
770.05103
  0
VERTEX
  5
137
  8
Layer_0
  10
1.6108398
  20
770.03809
  0
VERTEX
  5
138
  8
Layer_0
  10
1.7341309
  20
770.01758
  0
VERTEX
  5
139
  8
Layer_0
  10
1.7963867
  20
770.01025
  0
VERTEX
  5
13a
  8
Layer_0
  10
1.9208984
  20
770.00122
  0
VERTEX
  5
13b
  8
Layer_0
  10
1.9833984
  20
769.99976
  0
VERTEX
  5
13c
  8
Layer_0
  10
250
  20
770
  0
VERTEX
  5
13d
  8
Layer_0
  10
250
  20
302.82861
  0
VERTEX
  5
13e
  8
Layer_0
  10
150.58569
  20
203.41431
  0
VERTEX
  5
13f
  8
Layer_0
  10
150.50024
  20
203.32324
  0
VERTEX
  5
140
  8
Layer_0
  10
150.39771
  20
203.19702
  0
VERTEX
  5
141
  8
Layer_0
  10
150.3125
  20
203.07373
  0
VERTEX
  5
142
  8
Layer_0
  10
150.26099
  20
202.98779
  0
VERTEX
  5
143
  8
Layer_0
  10
150.20264
  20
202.8772
  0
VERTEX
  5
144
  8
Layer_0
  10
150.12842
  20
202.70508
  0
VERTEX
  5
145
  8
Layer_0
  10
150.08081
  20
202.56299
  0
VERTEX
  5
146
  8
Layer_0
  10
150.0564
  20
202.4707
  0
VERTEX
  5
147
  8
Layer_0
  10
150.02075
  20
202.28662
  0
VERTEX
  5
148
  8
Layer_0
  10
150.0022
  20
202.0957
  0
VERTEX
  5
149
  8
Layer_0
  10
150.00049
  20
1.9667969
  0
VERTEX
  5
14a
  8
Layer_0
  10
150.01245
  20
1.7797852
  0
VERTEX
  5
14b
  8
Layer_0
  10
150.04419
  20
1.5822754
  0
VERTEX
  5
14c
  8
Layer_0
  10
150.07397
  20
1.4606934
  0
VERTEX
  5
14d
  8
Layer_0
  10
150.0918
  20
1.4008789
  0
VERTEX
  5
14e
  8
Layer_0
  10
150.11694
  20
1.3259277
  0
VERTEX
  5
14f
  8
Layer_0
  10
150.13892
  20
1.267334
  0
VERTEX
  5
150
  8
Layer_0
  10
150.1814
  20
1.1677246
  0
VERTEX
  5
151
  8
Layer_0
  10
150.2312
  20
1.0671387
  0
VERTEX
  5
152
  8
Layer_0
  10
150.33301
  20
0.89477539
  0
VERTEX
  5
153
  8
Layer_0
  10
150.40527
  20
0.79296875
  0
VERTEX
  5
154
  8
Layer_0
  10
150.47583
  20
0.70532227
  0
VERTEX
  5
155
  8
Layer_0
  10
150.57983
  20
0.59155273
  0
VERTEX
  5
156
  8
Layer_0
  10
150.6958
  20
0.48388672
  0
VERTEX
  5
157
  8
Layer_0
  10
150.85376
  20
0.36108398
  0
VERTEX
  5
158
  8
Layer_0
  10
150.95825
  20
0.29272461
  0
VERTEX
  5
159
  8
Layer_0
  10
151.06714
  20
0.23095703
  0
VERTEX
  5
15a
  8
Layer_0
  10
151.17944
  20
0.17602539
  0
VERTEX
  5
15b
  8
Layer_0
  10
151.34839
  20
0.109375
  0
VERTEX
  5
15c
  8
Layer_0
  10
151.53369
  20
0.055175781
  0
VERTEX
  5
15d
  8
Layer_0
  10
151.65601
  20
0.029785156
  0
VERTEX
  5
15e
  8
Layer_0
  10
151.77979
  20
0.012207031
  0
VERTEX
  5
15f
  8
Layer_0
  10
151.9043
  20
0.0021972656
  0
VERTEX
  5
160
  8
Layer_0
  10
552.0625
  20
0.0009765625
  0
VERTEX
  5
161
  8
Layer_0
  10
552.18726
  20
0.0087890625
  0
VERTEX
  5
162
  8
Layer_0
  10
552.31128
  20
0.024414063
  0
VERTEX
  5
163
  8
Layer_0
  10
552.43408
  20
0.047607422
  0
VERTEX
  5
164
  8
Layer_0
  10
552.55518
  20
0.078613281
  0
VERTEX
  5
165
  8
Layer_0
  10
552.67407
  20
0.11694336
  0
VERTEX
  5
166
  8
Layer_0
  10
552.73267
  20
0.13891602
  0
VERTEX
  5
167
  8
Layer_0
  10
552.84741
  20
0.18847656
  0
VERTEX
  5
168
  8
Layer_0
  10
552.95874
  20
0.24487305
  0
VERTEX
  5
169
  8
Layer_0
  10
553.06665
  20
0.30810547
  0
VERTEX
  5
16a
  8
Layer_0
  10
553.17017
  20
0.37817383
  0
VERTEX
  5
16b
  8
Layer_0
  10
553.26929
  20
0.4543457
  0
VERTEX
  5
16c
  8
Layer_0
  10
553.31689
  20
0.49462891
  0
VERTEX
  5
16d
  8
Layer_0
  10
553.40845
  20
0.57983398
  0
VERTEX
  5
16e
  8
Layer_0
  10
553.49438
  20
0.6706543
  0
VERTEX
  5
16f
  8
Layer_0
  10
553.57446
  20
0.76660156
  0
VERTEX
  5
170
  8
Layer_0
  10
553.64844
  20
0.86743164
  0
VERTEX
  5
171
  8
Layer_0
  10
553.71582
  20
0.97241211
  0
VERTEX
  5
172
  8
Layer_0
  10
553.74707
  20
1.0266113
  0
VERTEX
  5
173
  8
Layer_0
  10
553.80444
  20
1.1376953
  0
VERTEX
  5
174
  8
Layer_0
  10
553.85498
  20
1.2519531
  0
VERTEX
  5
175
  8
Layer_0
  10
553.87744
  20
1.3103027
  0
VERTEX
  5
176
  8
Layer_0
  10
553.91675
  20
1.4289551
  0
VERTEX
  5
177
  8
Layer_0
  10
553.94873
  20
1.5498047
  0
VERTEX
  5
178
  8
Layer_0
  10
553.96167
  20
1.6108398
  0
VERTEX
  5
179
  8
Layer_0
  10
553.98218
  20
1.7341309
  0
VERTEX
  5
17a
  8
Layer_0
  10
553.9895
  20
1.7963867
  0
VERTEX
  5
17b
  8
Layer_0
  10
553.99854
  20
1.9208984
  0
VERTEX
  5
17c
  8
Layer_0
  10
554
  20
2
  0
VERTEX
  5
17d
  8
Layer_0
  10
554.00073
  20
202.0376
  0
VERTEX
  5
17e
  8
Layer_0
  10
553.99854
  20
202.1001
  0
VERTEX
  5
17f
  8
Layer_0
  10
553.98828
  20
202.22461
  0
VERTEX
  5
180
  8
Layer_0
  10
553.97046
  20
202.34839
  0
VERTEX
  5
181
  8
Layer_0
  10
553.94482
  20
202.4707
  0
VERTEX
  5
182
  8
Layer_0
  10
553.9292
  20
202.53125
  0
VERTEX
  5
183
  8
Layer_0
  10
553.91162
  20
202.59131
  0
VERTEX
  5
184
  8
Layer_0
  10
553.89209
  20
202.65063
  0
VERTEX
  5
185
  8
Layer_0
  10
553.8479
  20
202.76758
  0
VERTEX
  5
186
  8
Layer_0
  10
553.79639
  20
202.88135
  0
VERTEX
  5
187
  8
Layer_0
  10
553.76782
  20
202.93701
  0
VERTEX
  5
188
  8
Layer_0
  10
553.70605
  20
203.04541
  0
VERTEX
  5
189
  8
Layer_0
  10
553.67236
  20
203.09839
  0
VERTEX
  5
18a
  8
Layer_0
  10
553.63721
  20
203.1499
  0
VERTEX
  5
18b
  8
Layer_0
  10
553.56226
  20
203.25
  0
VERTEX
  5
18c
  8
Layer_0
  10
553.52246
  20
203.2981
  0
VERTEX
  5
18d
  8
Layer_0
  10
553.43848
  20
203.39063
  0
VERTEX
  5
18e
  8
Layer_0
  10
454.00098
  20
302.82861
  0
VERTEX
  5
18f
  8
Layer_0
  10
454.00098
  20
770
  0
VERTEX
  5
190
  8
Layer_0
  10
701.97388
  20
770
  0
VERTEX
  5
191
  8
Layer_0
  10
702.10938
  20
770.00269
  0
VERTEX
  5
192
  8
Layer_0
  10
702.23389
  20
770.01343
  0
VERTEX
  5
193
  8
Layer_0
  10
702.35742
  20
770.03174
  0
VERTEX
  5
194
  8
Layer_0
  10
702.4187
  20
770.04395
  0
VERTEX
  5
195
  8
Layer_0
  10
702.54028
  20
770.07373
  0
VERTEX
  5
196
  8
Layer_0
  10
702.6001
  20
770.09155
  0
VERTEX
  5
197
  8
Layer_0
  10
702.65942
  20
770.11133
  0
VERTEX
  5
198
  8
Layer_0
  10
702.77612
  20
770.15601
  0
VERTEX
  5
199
  8
Layer_0
  10
702.88965
  20
770.20801
  0
VERTEX
  5
19a
  8
Layer_0
  10
703
  20
770.26709
  0
VERTEX
  5
19b
  8
Layer_0
  10
703.1062
  20
770.33276
  0
VERTEX
  5
19c
  8
Layer_0
  10
703.20801
  20
770.40503
  0
VERTEX
  5
19d
  8
Layer_0
  10
703.30542
  20
770.48364
  0
VERTEX
  5
19e
  8
Layer_0
  10
703.35205
  20
770.52515
  0
VERTEX
  5
19f
  8
Layer_0
  10
703.44165
  20
770.6123
  0
VERTEX
  5
1a0
  8
Layer_0
  10
703.52539
  20
770.70508
  0
VERTEX
  5
1a1
  8
Layer_0
  10
703.60327
  20
770.80273
  0
VERTEX
  5
1a2
  8
Layer_0
  10
703.63989
  20
770.85352
  0
VERTEX
  5
1a3
  8
Layer_0
  10
703.70825
  20
770.95801
  0
VERTEX
  5
1a4
  8
Layer_0
  10
703.77002
  20
771.06689
  0
VERTEX
  5
1a5
  8
Layer_0
  10
703.82495
  20
771.1792
  0
VERTEX
  5
1a6
  8
Layer_0
  10
703.84961
  20
771.23657
  0
VERTEX
  5
1a7
  8
Layer_0
  10
703.91284
  20
771.41284
  0
VERTEX
  5
1a8
  8
Layer_0
  10
703.9458
  20
771.53345
  0
VERTEX
  5
1a9
  8
Layer_0
  10
703.97119
  20
771.65576
  0
VERTEX
  5
1aa
  8
Layer_0
  10
703.98877
  20
771.77954
  0
VERTEX
  5
1ab
  8
Layer_0
  10
703.99878
  20
771.90405
  0
VERTEX
  5
1ac
  8
Layer_0
  10
704.00098
  20
971.99976
  0
VERTEX
  5
1ad
  8
Layer_0
  10
703.99805
  20
972.1084
  0
VERTEX
  5
1ae
  8
Layer_0
  10
703.979
  20
972.29492
  0
VERTEX
  5
1af
  8
Layer_0
  10
703.95679
  20
972.41772
  0
VERTEX
  5
1b0
  8
Layer_0
  10
703.927
  20
972.53931
  0
VERTEX
  5
1b1
  8
Layer_0
  10
703.90918
  20
972.59912
  0
VERTEX
  5
1b2
  8
Layer_0
  10
703.8894
  20
972.65845
  0
VERTEX
  5
1b3
  8
Layer_0
  10
703.84473
  20
972.77515
  0
VERTEX
  5
1b4
  8
Layer_0
  10
703.79272
  20
972.88867
  0
VERTEX
  5
1b5
  8
Layer_0
  10
703.73364
  20
972.99902
  0
VERTEX
  5
1b6
  8
Layer_0
  10
703.66797
  20
973.10522
  0
VERTEX
  5
1b7
  8
Layer_0
  10
703.5957
  20
973.20703
  0
VERTEX
  5
1b8
  8
Layer_0
  10
703.51709
  20
973.30444
  0
VERTEX
  5
1b9
  8
Layer_0
  10
703.47559
  20
973.35107
  0
SEQEND
  0
POLYLINE
  5
1bb
  8
Layer_0
  62
1
  70
1
  66
1
  10
0
  20
0
  30
0
  0
VERTEX
  5
1bb
  8
Layer_0
  10
154
  20
4
  0
VERTEX
  5
1bc
  8
Layer_0
  10
154
  20
201.17139
  0
VERTEX
  5
1bd
  8
Layer_0
  10
253.41431
  20
300.58569
  0
VERTEX
  5
1be
  8
Layer_0
  10
253.49976
  20
300.67676
  0
VERTEX
  5
1bf
  8
Layer_0
  10
253.57959
  20
300.77319
  0
VERTEX
  5
1c0
  8
Layer_0
  10
253.61694
  20
300.823
  0
VERTEX
  5
1c1
  8
Layer_0
  10
253.6875
  20
300.92627
  0
VERTEX
  5
1c2
  8
Layer_0
  10
253.72021
  20
300.97974
  0
VERTEX
  5
1c3
  8
Layer_0
  10
253.78052
  20
301.08911
  0
VERTEX
  5
1c4
  8
Layer_0
  10
253.83398
  20
301.20215
  0
VERTEX
  5
1c5
  8
Layer_0
  10
253.85791
  20
301.25977
  0
VERTEX
  5
1c6
  8
Layer_0
  10
253.90063
  20
301.3772
  0
VERTEX
  5
1c7
  8
Layer_0
  10
253.93579
  20
301.49707
  0
VERTEX
  5
1c8
  8
Layer_0
  10
253.95044
  20
301.55786
  0
VERTEX
  5
1c9
  8
Layer_0
  10
253.97437
  20
301.68066
  0
VERTEX
  5
1ca
  8
Layer_0
  10
253.99048
  20
301.80444
  0
VERTEX
  5
1cb
  8
Layer_0
  10
253.99878
  20
301.9292
  0
VERTEX
  5
1cc
  8
Layer_0
  10
254
  20
302
  0
VERTEX
  5
1cd
  8
Layer_0
  10
253.99902
  20
772.0625
  0
VERTEX
  5
1ce
  8
Layer_0
  10
253.99121
  20
772.18726
  0
VERTEX
  5
1cf
  8
Layer_0
  10
253.97559
  20
772.31128
  0
VERTEX
  5
1d0
  8
Layer_0
  10
253.95239
  20
772.43408
  0
VERTEX
  5
1d1
  8
Layer_0
  10
253.92139
  20
772.55518
  0
VERTEX
  5
1d2
  8
Layer_0
  10
253.88306
  20
772.67407
  0
VERTEX
  5
1d3
  8
Layer_0
  10
253.86108
  20
772.73267
  0
VERTEX
  5
1d4
  8
Layer_0
  10
253.81152
  20
772.84741
  0
VERTEX
  5
1d5
  8
Layer_0
  10
253.75513
  20
772.95874
  0
VERTEX
  5
1d6
  8
Layer_0
  10
253.69189
  20
773.06665
  0
VERTEX
  5
1d7
  8
Layer_0
  10
253.62183
  20
773.17017
  0
VERTEX
  5
1d8
  8
Layer_0
  10
253.54565
  20
773.26929
  0
VERTEX
  5
1d9
  8
Layer_0
  10
253.50537
  20
773.31689
  0
VERTEX
  5
1da
  8
Layer_0
  10
253.42017
  20
773.40845
  0
VERTEX
  5
1db
  8
Layer_0
  10
253.32935
  20
773.49438
  0
VERTEX
  5
1dc
  8
Layer_0
  10
253.2334
  20
773.57446
  0
VERTEX
  5
1dd
  8
Layer_0
  10
253.13257
  20
773.64844
  0
VERTEX
  5
1de
  8
Layer_0
  10
253.02759
  20
773.71582
  0
VERTEX
  5
1df
  8
Layer_0
  10
252.97339
  20
773.74707
  0
VERTEX
  5
1e0
  8
Layer_0
  10
252.8623
  20
773.80444
  0
VERTEX
  5
1e1
  8
Layer_0
  10
252.74805
  20
773.85498
  0
VERTEX
  5
1e2
  8
Layer_0
  10
252.6897
  20
773.87744
  0
VERTEX
  5
1e3
  8
Layer_0
  10
252.57104
  20
773.91675
  0
VERTEX
  5
1e4
  8
Layer_0
  10
252.4502
  20
773.94873
  0
VERTEX
  5
1e5
  8
Layer_0
  10
252.38916
  20
773.96167
  0
VERTEX
  5
1e6
  8
Layer_0
  10
252.26587
  20
773.98218
  0
VERTEX
  5
1e7
  8
Layer_0
  10
252.20361
  20
773.9895
  0
VERTEX
  5
1e8
  8
Layer_0
  10
252.0791
  20
773.99854
  0
VERTEX
  5
1e9
  8
Layer_0
  10
252
  20
774
  0
VERTEX
  5
1ea
  8
Layer_0
  10
4
  20
774
  0
VERTEX
  5
1eb
  8
Layer_0
  10
4
  20
970
  0
VERTEX
  5
1ec
  8
Layer_0
  10
252.06323
  20
970.00098
  0
VERTEX
  5
1ed
  8
Layer_0
  10
252.18799
  20
970.00879
  0
VERTEX
  5
1ee
  8
Layer_0
  10
252.3689
  20
970.0332
  0
VERTEX
  5
1ef
  8
Layer_0
  10
252.43018
  20
970.04541
  0
VERTEX
  5
1f0
  8
Layer_0
  10
252.55151
  20
970.0752
  0
VERTEX
  5
1f1
  8
Layer_0
  10
252.61133
  20
970.09302
  0
VERTEX
  5
1f2
  8
Layer_0
  10
252.67065
  20
970.11279
  0
VERTEX
  5
1f3
  8
Layer_0
  10
252.78735
  20
970.15747
  0
VERTEX
  5
1f4
  8
Layer_0
  10
252.90112
  20
970.20947
  0
VERTEX
  5
1f5
  8
Layer_0
  10
252.95654
  20
970.23828
  0
VERTEX
  5
1f6
  8
Layer_0
  10
253.06494
  20
970.30054
  0
VERTEX
  5
1f7
  8
Layer_0
  10
253.16895
  20
970.36963
  0
VERTEX
  5
1f8
  8
Layer_0
  10
253.26855
  20
970.44507
  0
VERTEX
  5
1f9
  8
Layer_0
  10
253.36353
  20
970.52661
  0
VERTEX
  5
1fa
  8
Layer_0
  10
253.40894
  20
970.56958
  0
VERTEX
  5
1fb
  8
Layer_0
  10
253.49561
  20
970.65967
  0
VERTEX
  5
1fc
  8
Layer_0
  10
253.57642
  20
970.75488
  0
VERTEX
  5
1fd
  8
Layer_0
  10
253.6145
  20
970.80444
  0
VERTEX
  5
1fe
  8
Layer_0
  10
253.68628
  20
970.90674
  0
VERTEX
  5
1ff
  8
Layer_0
  10
253.75122
  20
971.01343
  0
VERTEX
  5
200
  8
Layer_0
  10
253.78125
  20
971.06836
  0
VERTEX
  5
201
  8
Layer_0
  10
253.83618
  20
971.18066
  0
VERTEX
  5
202
  8
Layer_0
  10
253.86084
  20
971.23804
  0
VERTEX
  5
203
  8
Layer_0
  10
253.90503
  20
971.35498
  0
VERTEX
  5
204
  8
Layer_0
  10
253.94165
  20
971.47437
  0
VERTEX
  5
205
  8
Layer_0
  10
253.9707
  20
971.59595
  0
VERTEX
  5
206
  8
Layer_0
  10
253.98242
  20
971.65747
  0
VERTEX
  5
207
  8
Layer_0
  10
254
  20
971.78125
  0
VERTEX
  5
208
  8
Layer_0
  10
254.01001
  20
971.90576
  0
VERTEX
  5
209
  8
Layer_0
  10
254.01196
  20
971.96826
  0
VERTEX
  5
20a
  8
Layer_0
  10
253.99976
  20
1220
  0
VERTEX
  5
20b
  8
Layer_0
  10
450.0166
  20
1220.0002
  0
VERTEX
  5
20c
  8
Layer_0
  10
450.00098
  20
971.94141
  0
VERTEX
  5
20d
  8
Layer_0
  10
450.01392
  20
971.76709
  0
VERTEX
  5
20e
  8
Layer_0
  10
450.03223
  20
971.64355
  0
VERTEX
  5
20f
  8
Layer_0
  10
450.05835
  20
971.52124
  0
VERTEX
  5
210
  8
Layer_0
  10
450.07422
  20
971.46069
  0
VERTEX
  5
211
  8
Layer_0
  10
450.09204
  20
971.40088
  0
VERTEX
  5
212
  8
Layer_0
  10
450.11182
  20
971.34155
  0
VERTEX
  5
213
  8
Layer_0
  10
450.15649
  20
971.22485
  0
VERTEX
  5
214
  8
Layer_0
  10
450.2085
  20
971.11133
  0
VERTEX
  5
215
  8
Layer_0
  10
450.26758
  20
971.00098
  0
VERTEX
  5
216
  8
Layer_0
  10
450.33325
  20
970.89478
  0
VERTEX
  5
217
  8
Layer_0
  10
450.40552
  20
970.79297
  0
VERTEX
  5
218
  8
Layer_0
  10
450.48413
  20
970.69556
  0
VERTEX
  5
219
  8
Layer_0
  10
450.52563
  20
970.64893
  0
VERTEX
  5
21a
  8
Layer_0
  10
450.61279
  20
970.55933
  0
VERTEX
  5
21b
  8
Layer_0
  10
450.70557
  20
970.47559
  0
VERTEX
  5
21c
  8
Layer_0
  10
450.80322
  20
970.39771
  0
VERTEX
  5
21d
  8
Layer_0
  10
450.854
  20
970.36108
  0
VERTEX
  5
21e
  8
Layer_0
  10
450.9585
  20
970.29272
  0
VERTEX
  5
21f
  8
Layer_0
  10
451.06738
  20
970.23096
  0
VERTEX
  5
220
  8
Layer_0
  10
451.17969
  20
970.17603
  0
VERTEX
  5
221
  8
Layer_0
  10
451.29517
  20
970.12842
  0
VERTEX
  5
222
  8
Layer_0
  10
451.354
  20
970.10742
  0
VERTEX
  5
223
  8
Layer_0
  10
451.47339
  20
970.07056
  0
VERTEX
  5
224
  8
Layer_0
  10
451.53394
  20
970.05518
  0
VERTEX
  5
225
  8
Layer_0
  10
451.65625
  20
970.02979
  0
VERTEX
  5
226
  8
Layer_0
  10
451.78003
  20
970.01221
  0
VERTEX
  5
227
  8
Layer_0
  10
451.90454
  20
970.0022
  0
VERTEX
  5
228
  8
Layer_0
  10
451.96704
  20
970.00024
  0
VERTEX
  5
229
  8
Layer_0
  10
700.00098
  20
970
  0
VERTEX
  5
22a
  8
Layer_0
  10
700.00098
  20
774
  0
VERTEX
  5
22b
  8
Layer_0
  10
451.93848
  20
773.99902
  0
VERTEX
  5
22c
  8
Layer_0
  10
451.81372
  20
773.99121
  0
VERTEX
  5
22d
  8
Layer_0
  10
451.6897
  20
773.97559
  0
VERTEX
  5
22e
  8
Layer_0
  10
451.56689
  20
773.95239
  0
VERTEX
  5
22f
  8
Layer_0
  10
451.4458
  20
773.92139
  0
VERTEX
  5
230
  8
Layer_0
  10
451.3269
  20
773.88306
  0
VERTEX
  5
231
  8
Layer_0
  10
451.26831
  20
773.86108
  0
VERTEX
  5
232
  8
Layer_0
  10
451.15356
  20
773.81152
  0
VERTEX
  5
233
  8
Layer_0
  10
451.04224
  20
773.75513
  0
VERTEX
  5
234
  8
Layer_0
  10
450.93433
  20
773.69189
  0
VERTEX
  5
235
  8
Layer_0
  10
450.83081
  20
773.62183
  0
VERTEX
  5
236
  8
Layer_0
  10
450.73169
  20
773.54565
  0
VERTEX
  5
237
  8
Layer_0
  10
450.68408
  20
773.50537
  0
VERTEX
  5
238
  8
Layer_0
  10
450.59253
  20
773.42017
  0
VERTEX
  5
239
  8
Layer_0
  10
450.50659
  20
773.32935
  0
VERTEX
  5
23a
  8
Layer_0
  10
450.42651
  20
773.2334
  0
VERTEX
  5
23b
  8
Layer_0
  10
450.35254
  20
773.13257
  0
VERTEX
  5
23c
  8
Layer_0
  10
450.28516
  20
773.02759
  0
VERTEX
  5
23d
  8
Layer_0
  10
450.25391
  20
772.97339
  0
VERTEX
  5
23e
  8
Layer_0
  10
450.19653
  20
772.8623
  0
VERTEX
  5
23f
  8
Layer_0
  10
450.146
  20
772.74805
  0
VERTEX
  5
240
  8
Layer_0
  10
450.12354
  20
772.6897
  0
VERTEX
  5
241
  8
Layer_0
  10
450.08423
  20
772.57104
  0
VERTEX
  5
242
  8
Layer_0
  10
450.05225
  20
772.4502
  0
VERTEX
  5
243
  8
Layer_0
  10
450.03931
  20
772.38916
  0
VERTEX
  5
244
  8
Layer_0
  10
450.0188
  20
772.26587
  0
VERTEX
  5
245
  8
Layer_0
  10
450.01147
  20
772.20361
  0
VERTEX
  5
246
  8
Layer_0
  10
450.00244
  20
772.0791
  0
VERTEX
  5
247
  8
Layer_0
  10
450.00098
  20
772
  0
VERTEX
  5
248
  8
Layer_0
  10
450.00195
  20
301.9375
  0
VERTEX
  5
249
  8
Layer_0
  10
450.00977
  20
301.81274
  0
VERTEX
  5
24a
  8
Layer_0
  10
450.02539
  20
301.68872
  0
VERTEX
  5
24b
  8
Layer_0
  10
450.04858
  20
301.56592
  0
VERTEX
  5
24c
  8
Layer_0
  10
450.07959
  20
301.44482
  0
VERTEX
  5
24d
  8
Layer_0
  10
450.11792
  20
301.32593
  0
VERTEX
  5
24e
  8
Layer_0
  10
450.13989
  20
301.26733
  0
VERTEX
  5
24f
  8
Layer_0
  10
450.18945
  20
301.15259
  0
VERTEX
  5
250
  8
Layer_0
  10
450.24585
  20
301.04126
  0
VERTEX
  5
251
  8
Layer_0
  10
450.30908
  20
300.93335
  0
VERTEX
  5
252
  8
Layer_0
  10
450.37915
  20
300.82983
  0
VERTEX
  5
253
  8
Layer_0
  10
450.45532
  20
300.73071
  0
VERTEX
  5
254
  8
Layer_0
  10
450.49561
  20
300.68311
  0
VERTEX
  5
255
  8
Layer_0
  10
450.5376
  20
300.63672
  0
VERTEX
  5
256
  8
Layer_0
  10
450.58667
  20
300.58569
  0
VERTEX
  5
257
  8
Layer_0
  10
550
  20
201.17236
  0
VERTEX
  5
258
  8
Layer_0
  10
550
  20
4
  0
VERTEX
  5
259
  8
Layer_0
  10
154
  20
4
  0
SEQEND
  0
ENDSEC
  0
EOF
