  0
SECTION
  2
HEADER
  9
$ACADVER
  1
AC1009
  9
$EXTMIN
 10
539.44704875
 20
2523.12500000
 30
0.0
  9
$EXTMAX
 10
1749.44704875
 20
5003.12500000
 30
0.0
  0
ENDSEC
  0
SECTION
  2
TABLES
  0
TABLE
  2
LAYER
 70
3
 0
LAYER
 2
annotation
 70
0
 62
250
 6
CONTINUOUS
 0
LAYER
 2
boundary
 70
0
 62
250
 6
CONTINUOUS
 0
LAYER
 2
Default_Layer
 70
0
 62
18
 6
CONTINUOUS
 0
ENDTAB
 0
ENDSEC
  0
SECTION
  2
ENTITIES
  0
POLYLINE
  8
annotation
 62
256
 66
   1
 39
211.000000
 70
    0
  0
VERTEX
  8
0
 10
1489.15011575
 20
2726.08950000
  0
VERTEX
  8
0
 10
1489.15011575
 20
2758.08950000
  0
VERTEX
  8
0
 10
1482.03610675
 20
2750.97348400
  0
SEQEND
  0
POLYLINE
  8
annotation
 62
256
 66
   1
 39
211.000000
 70
    0
  0
VERTEX
  8
0
 10
1481.86581875
 20
3030.88924000
  0
VERTEX
  8
0
 10
1467.65385375
 20
3030.88924000
  0
VERTEX
  8
0
 10
1480.78617475
 20
3052.03059200
  0
VERTEX
  8
0
 10
1480.80187375
 20
3052.05001900
  0
VERTEX
  8
0
 10
1480.81692875
 20
3052.06961000
  0
VERTEX
  8
0
 10
1480.83143875
 20
3052.08953200
  0
VERTEX
  8
0
 10
1480.84550275
 20
3052.10994900
  0
VERTEX
  8
0
 10
1480.85921975
 20
3052.13102700
  0
VERTEX
  8
0
 10
1480.87268975
 20
3052.15293100
  0
VERTEX
  8
0
 10
1480.88600975
 20
3052.17582600
  0
VERTEX
  8
0
 10
1480.89928075
 20
3052.19987700
  0
VERTEX
  8
0
 10
1480.91260175
 20
3052.22524900
  0
VERTEX
  8
0
 10
1481.45483275
 20
3053.38946400
  0
VERTEX
  8
0
 10
1481.77159375
 20
3054.59627500
  0
VERTEX
  8
0
 10
1481.87064975
 20
3055.81841300
  0
VERTEX
  8
0
 10
1481.75976275
 20
3057.02861000
  0
VERTEX
  8
0
 10
1481.44669475
 20
3058.19959600
  0
VERTEX
  8
0
 10
1480.93920975
 20
3059.30410300
  0
VERTEX
  8
0
 10
1480.24507075
 20
3060.31486200
  0
VERTEX
  8
0
 10
1479.37203875
 20
3061.20460300
  0
VERTEX
  8
0
 10
1478.32787875
 20
3061.94605700
  0
VERTEX
  8
0
 10
1477.16042675
 20
3062.48058300
  0
VERTEX
  8
0
 10
1475.95176575
 20
3062.79246400
  0
VERTEX
  8
0
 10
1474.72891675
 20
3062.88872000
  0
VERTEX
  8
0
 10
1473.51890175
 20
3062.77637100
  0
VERTEX
  8
0
 10
1472.34874175
 20
3062.46243600
  0
VERTEX
  8
0
 10
1471.24545675
 20
3061.95393500
  0
VERTEX
  8
0
 10
1470.23606875
 20
3061.25788800
  0
VERTEX
  8
0
 10
1469.34759975
 20
3060.38131400
  0
VERTEX
  8
0
 10
1468.60707075
 20
3059.33123200
  0
VERTEX
  8
0
 10
1467.67392075
 20
3057.54119100
  0
SEQEND
  0
POLYLINE
  8
annotation
 62
256
 66
   1
 39
211.000000
 70
    0
  0
VERTEX
  8
0
 10
1495.63201175
 20
3335.69050400
  0
VERTEX
  8
0
 10
1502.73799475
 20
3335.69050400
  0
VERTEX
  8
0
 10
1504.01602275
 20
3335.80515100
  0
VERTEX
  8
0
 10
1505.21860275
 20
3336.13557200
  0
VERTEX
  8
0
 10
1506.32573275
 20
3336.66148500
  0
VERTEX
  8
0
 10
1507.31741175
 20
3337.36260500
  0
VERTEX
  8
0
 10
1508.17363775
 20
3338.21865200
  0
VERTEX
  8
0
 10
1508.87440875
 20
3339.20934300
  0
VERTEX
  8
0
 10
1509.39972375
 20
3340.31439500
  0
VERTEX
  8
0
 10
1509.72958075
 20
3341.51352500
  0
VERTEX
  8
0
 10
1509.84397775
 20
3342.78645300
  0
VERTEX
  8
0
 10
1509.84397775
 20
3346.34446100
  0
VERTEX
  8
0
 10
1509.72958075
 20
3347.61685900
  0
VERTEX
  8
0
 10
1509.39972375
 20
3348.81570900
  0
VERTEX
  8
0
 10
1508.87440875
 20
3349.92067900
  0
VERTEX
  8
0
 10
1508.17363775
 20
3350.91143500
  0
VERTEX
  8
0
 10
1507.31741175
 20
3351.76764800
  0
VERTEX
  8
0
 10
1506.32573275
 20
3352.46898300
  0
VERTEX
  8
0
 10
1505.21860275
 20
3352.99511000
  0
VERTEX
  8
0
 10
1504.01602275
 20
3353.32569600
  0
VERTEX
  8
0
 10
1502.73799475
 20
3353.44041000
  0
VERTEX
  8
0
 10
1499.17998675
 20
3353.44041000
  0
VERTEX
  8
0
 10
1502.73799475
 20
3353.44041000
  0
VERTEX
  8
0
 10
1504.01602275
 20
3353.55515100
  0
VERTEX
  8
0
 10
1505.21860275
 20
3353.88593000
  0
VERTEX
  8
0
 10
1506.32573275
 20
3354.41258000
  0
VERTEX
  8
0
 10
1507.31741175
 20
3355.11493400
  0
VERTEX
  8
0
 10
1508.17363775
 20
3355.97282500
  0
VERTEX
  8
0
 10
1508.87440875
 20
3356.96608700
  0
VERTEX
  8
0
 10
1509.39972375
 20
3358.07455200
  0
VERTEX
  8
0
 10
1509.72958075
 20
3359.27805400
  0
VERTEX
  8
0
 10
1509.84397775
 20
3360.55642600
  0
VERTEX
  8
0
 10
1509.72958075
 20
3361.82882500
  0
VERTEX
  8
0
 10
1509.39972375
 20
3363.02767500
  0
VERTEX
  8
0
 10
1508.87440875
 20
3364.13264400
  0
VERTEX
  8
0
 10
1508.17363775
 20
3365.12340100
  0
VERTEX
  8
0
 10
1507.31741175
 20
3365.97961300
  0
VERTEX
  8
0
 10
1506.32573275
 20
3366.68094800
  0
VERTEX
  8
0
 10
1505.21860275
 20
3367.20707500
  0
VERTEX
  8
0
 10
1504.01602275
 20
3367.53766100
  0
VERTEX
  8
0
 10
1502.73799475
 20
3367.65237500
  0
VERTEX
  8
0
 10
1495.63201175
 20
3367.65237500
  0
SEQEND
  0
POLYLINE
  8
annotation
 62
256
 66
   1
 39
211.000000
 70
    0
  0
VERTEX
  8
0
 10
1503.07607075
 20
3647.60351000
  0
VERTEX
  8
0
 10
1485.30810375
 20
3647.60351000
  0
VERTEX
  8
0
 10
1492.40405275
 20
3672.48950000
  0
SEQEND
  0
POLYLINE
  8
annotation
 62
256
 66
   1
 39
211.000000
 70
    0
  0
VERTEX
  8
0
 10
1497.75009475
 20
3640.48950000
  0
VERTEX
  8
0
 10
1497.75009475
 20
3654.70146600
  0
SEQEND
  0
POLYLINE
  8
annotation
 62
256
 66
   1
 39
211.000000
 70
    0
  0
VERTEX
  8
0
 10
1467.85088375
 20
3945.28950000
  0
VERTEX
  8
0
 10
1474.95686675
 20
3945.28950000
  0
VERTEX
  8
0
 10
1476.23225175
 20
3945.40417300
  0
VERTEX
  8
0
 10
1477.43342775
 20
3945.73476700
  0
VERTEX
  8
0
 10
1478.54014575
 20
3946.26115000
  0
VERTEX
  8
0
 10
1479.53215475
 20
3946.96318700
  0
VERTEX
  8
0
 10
1480.38920675
 20
3947.82074600
  0
VERTEX
  8
0
 10
1481.09105075
 20
3948.81369100
  0
VERTEX
  8
0
 10
1481.61743975
 20
3949.92188900
  0
VERTEX
  8
0
 10
1481.94812175
 20
3951.12520700
  0
VERTEX
  8
0
 10
1482.06284975
 20
3952.40351000
  0
VERTEX
  8
0
 10
1482.06284975
 20
3955.94345700
  0
VERTEX
  8
0
 10
1481.94818775
 20
3957.22114100
  0
VERTEX
  8
0
 10
1481.61767075
 20
3958.42279900
  0
VERTEX
  8
0
 10
1481.09149675
 20
3959.52859400
  0
VERTEX
  8
0
 10
1480.38986675
 20
3960.51869000
  0
VERTEX
  8
0
 10
1479.53298075
 20
3961.37325100
  0
VERTEX
  8
0
 10
1478.54103775
 20
3962.07243900
  0
VERTEX
  8
0
 10
1477.43423775
 20
3962.59641900
  0
VERTEX
  8
0
 10
1476.23278075
 20
3962.92535300
  0
VERTEX
  8
0
 10
1474.95686675
 20
3963.03940600
  0
VERTEX
  8
0
 10
1467.85088375
 20
3963.03940600
  0
VERTEX
  8
0
 10
1467.85088375
 20
3977.28950000
  0
VERTEX
  8
0
 10
1482.06284975
 20
3977.28950000
  0
SEQEND
  0
POLYLINE
  8
annotation
 62
256
 66
   1
 39
211.000000
 70
    0
  0
VERTEX
  8
0
 10
1489.18419775
 20
4282.08950000
  0
VERTEX
  8
0
 10
1487.14851275
 20
4281.32624100
  0
VERTEX
  8
0
 10
1485.28050475
 20
4280.29784000
  0
VERTEX
  8
0
 10
1483.59934975
 20
4279.03006400
  0
VERTEX
  8
0
 10
1482.12422275
 20
4277.54867700
  0
VERTEX
  8
0
 10
1480.87430075
 20
4275.87944700
  0
VERTEX
  8
0
 10
1479.86875875
 20
4274.04813900
  0
VERTEX
  8
0
 10
1479.12677275
 20
4272.08051800
  0
VERTEX
  8
0
 10
1478.66751875
 20
4270.00235200
  0
VERTEX
  8
0
 10
1478.51017375
 20
4267.83940600
  0
VERTEX
  8
0
 10
1478.51017375
 20
4257.20351000
  0
VERTEX
  8
0
 10
1478.62490075
 20
4255.92520700
  0
VERTEX
  8
0
 10
1478.95558375
 20
4254.72188900
  0
VERTEX
  8
0
 10
1479.48197175
 20
4253.61369100
  0
VERTEX
  8
0
 10
1480.18381675
 20
4252.62074600
  0
VERTEX
  8
0
 10
1481.04086775
 20
4251.76318700
  0
VERTEX
  8
0
 10
1482.03287675
 20
4251.06115000
  0
VERTEX
  8
0
 10
1483.13959475
 20
4250.53476700
  0
VERTEX
  8
0
 10
1484.34077075
 20
4250.20417300
  0
VERTEX
  8
0
 10
1485.61615575
 20
4250.08950000
  0
VERTEX
  8
0
 10
1486.89418375
 20
4250.20417300
  0
VERTEX
  8
0
 10
1488.09676375
 20
4250.53476700
  0
VERTEX
  8
0
 10
1489.20389375
 20
4251.06115000
  0
VERTEX
  8
0
 10
1490.19557275
 20
4251.76318700
  0
VERTEX
  8
0
 10
1491.05179875
 20
4252.62074600
  0
VERTEX
  8
0
 10
1491.75256975
 20
4253.61369100
  0
VERTEX
  8
0
 10
1492.27788475
 20
4254.72188900
  0
VERTEX
  8
0
 10
1492.60774175
 20
4255.92520700
  0
VERTEX
  8
0
 10
1492.72213875
 20
4257.20351000
  0
VERTEX
  8
0
 10
1492.72213875
 20
4260.74345700
  0
VERTEX
  8
0
 10
1492.60774175
 20
4262.02114100
  0
VERTEX
  8
0
 10
1492.27788475
 20
4263.22279900
  0
VERTEX
  8
0
 10
1491.75256975
 20
4264.32859400
  0
VERTEX
  8
0
 10
1491.05179875
 20
4265.31869000
  0
VERTEX
  8
0
 10
1490.19557275
 20
4266.17325100
  0
VERTEX
  8
0
 10
1489.20389375
 20
4266.87243900
  0
VERTEX
  8
0
 10
1488.09676375
 20
4267.39641900
  0
VERTEX
  8
0
 10
1486.89418375
 20
4267.72535300
  0
VERTEX
  8
0
 10
1485.61615575
 20
4267.83940600
  0
VERTEX
  8
0
 10
1478.51017375
 20
4267.83940600
  0
SEQEND
  0
POLYLINE
  8
annotation
 62
256
 66
   1
 39
211.000000
 70
    0
  0
VERTEX
  8
0
 10
1477.62016975
 20
4246.08950000
  0
VERTEX
  8
0
 10
1493.62016975
 20
4246.08950000
  0
SEQEND
  0
POLYLINE
  8
annotation
 62
256
 66
   1
 39
211.000000
 70
    0
  0
VERTEX
  8
0
 10
1547.70151675
 20
3508.44556500
  0
VERTEX
  8
0
 10
1524.52130375
 20
3474.91750900
  0
VERTEX
  8
0
 10
1501.33673075
 20
3508.44556500
  0
SEQEND
  0
POLYLINE
  8
annotation
 62
256
 66
   1
 39
211.000000
 70
    0
  0
VERTEX
  8
0
 10
1524.52130375
 20
3477.61561900
  0
VERTEX
  8
0
 10
1524.52130375
 20
3438.93543600
  0
SEQEND
  0
POLYLINE
  8
annotation
 62
256
 66
   1
 39
211.000000
 70
    0
  0
VERTEX
  8
0
 10
1611.77946375
 20
3473.69050000
  0
VERTEX
  8
0
 10
1573.77489775
 20
3473.69050000
  0
SEQEND
  0
POLYLINE
  8
annotation
 62
256
 66
   1
 39
2.000000
 70
    0
  0
VERTEX
  8
0
 10
1637.83758975
 20
3438.93979500
  0
VERTEX
  8
0
 10
1653.27217675
 20
3438.93979500
  0
VERTEX
  8
0
 10
1656.04812475
 20
3439.18881600
  0
VERTEX
  8
0
 10
1658.66019475
 20
3439.90650800
  0
VERTEX
  8
0
 10
1661.06494275
 20
3441.04881900
  0
VERTEX
  8
0
 10
1663.21892375
 20
3442.57169200
  0
VERTEX
  8
0
 10
1665.07869375
 20
3444.43107300
  0
VERTEX
  8
0
 10
1666.60080775
 20
3446.58290800
  0
VERTEX
  8
0
 10
1667.74182075
 20
3448.98314200
  0
VERTEX
  8
0
 10
1668.45828775
 20
3451.58772000
  0
VERTEX
  8
0
 10
1668.70676375
 20
3454.35258800
  0
VERTEX
  8
0
 10
1668.70676375
 20
3462.08077900
  0
VERTEX
  8
0
 10
1668.45828775
 20
3464.84449900
  0
VERTEX
  8
0
 10
1667.74182075
 20
3467.44846700
  0
VERTEX
  8
0
 10
1666.60080775
 20
3469.84852200
  0
VERTEX
  8
0
 10
1665.07869375
 20
3472.00050000
  0
VERTEX
  8
0
 10
1663.21892375
 20
3473.86024000
  0
VERTEX
  8
0
 10
1661.06494275
 20
3475.38358000
  0
VERTEX
  8
0
 10
1658.66019475
 20
3476.52635600
  0
VERTEX
  8
0
 10
1656.04812475
 20
3477.24440800
  0
VERTEX
  8
0
 10
1653.27217675
 20
3477.49357200
  0
VERTEX
  8
0
 10
1645.54398575
 20
3477.49357200
  0
VERTEX
  8
0
 10
1653.27217675
 20
3477.49357200
  0
VERTEX
  8
0
 10
1656.04812475
 20
3477.74279600
  0
VERTEX
  8
0
 10
1658.66019475
 20
3478.46126600
  0
VERTEX
  8
0
 10
1661.06494275
 20
3479.60517900
  0
VERTEX
  8
0
 10
1663.21892375
 20
3481.13073100
  0
VERTEX
  8
0
 10
1665.07869375
 20
3482.99411800
  0
VERTEX
  8
0
 10
1666.60080775
 20
3485.15153700
  0
VERTEX
  8
0
 10
1667.74182075
 20
3487.55918500
  0
VERTEX
  8
0
 10
1668.45828775
 20
3490.17325900
  0
VERTEX
  8
0
 10
1668.70676375
 20
3492.94995400
  0
VERTEX
  8
0
 10
1668.45828775
 20
3495.71367400
  0
VERTEX
  8
0
 10
1667.74182075
 20
3498.31764200
  0
VERTEX
  8
0
 10
1666.60080775
 20
3500.71769700
  0
VERTEX
  8
0
 10
1665.07869375
 20
3502.86967500
  0
VERTEX
  8
0
 10
1663.21892375
 20
3504.72941500
  0
VERTEX
  8
0
 10
1661.06494275
 20
3506.25275400
  0
VERTEX
  8
0
 10
1658.66019475
 20
3507.39553100
  0
VERTEX
  8
0
 10
1656.04812475
 20
3508.11358300
  0
VERTEX
  8
0
 10
1653.27217675
 20
3508.36274700
  0
VERTEX
  8
0
 10
1637.83758975
 20
3508.36274700
  0
SEQEND
  0
POLYLINE
  8
annotation
 62
256
 66
   1
 39
211.000000
 70
    0
  0
VERTEX
  8
0
 10
879.58543275
 20
2725.27907400
  0
VERTEX
  8
0
 10
879.58543275
 20
2757.27907400
  0
VERTEX
  8
0
 10
872.47142375
 20
2750.16305700
  0
SEQEND
  0
POLYLINE
  8
annotation
 62
256
 66
   1
 39
211.000000
 70
    0
  0
VERTEX
  8
0
 10
869.86776575
 20
3030.07881400
  0
VERTEX
  8
0
 10
855.65579975
 20
3030.07881400
  0
VERTEX
  8
0
 10
868.78812175
 20
3051.22016600
  0
VERTEX
  8
0
 10
868.80382075
 20
3051.23959200
  0
VERTEX
  8
0
 10
868.81887575
 20
3051.25918400
  0
VERTEX
  8
0
 10
868.83338575
 20
3051.27910500
  0
VERTEX
  8
0
 10
868.84744975
 20
3051.29952300
  0
VERTEX
  8
0
 10
868.86116675
 20
3051.32060100
  0
VERTEX
  8
0
 10
868.87463575
 20
3051.34250500
  0
VERTEX
  8
0
 10
868.88795675
 20
3051.36539900
  0
VERTEX
  8
0
 10
868.90122775
 20
3051.38945000
  0
VERTEX
  8
0
 10
868.91454875
 20
3051.41482300
  0
VERTEX
  8
0
 10
869.45677875
 20
3052.57903700
  0
VERTEX
  8
0
 10
869.77354075
 20
3053.78584800
  0
VERTEX
  8
0
 10
869.87259675
 20
3055.00798700
  0
VERTEX
  8
0
 10
869.76170975
 20
3056.21818400
  0
VERTEX
  8
0
 10
869.44864175
 20
3057.38917000
  0
VERTEX
  8
0
 10
868.94115675
 20
3058.49367700
  0
VERTEX
  8
0
 10
868.24701675
 20
3059.50443500
  0
VERTEX
  8
0
 10
867.37398575
 20
3060.39417600
  0
VERTEX
  8
0
 10
866.32982475
 20
3061.13563000
  0
VERTEX
  8
0
 10
865.16237275
 20
3061.67015600
  0
VERTEX
  8
0
 10
863.95371275
 20
3061.98203700
  0
VERTEX
  8
0
 10
862.73086375
 20
3062.07829300
  0
VERTEX
  8
0
 10
861.52084875
 20
3061.96594400
  0
VERTEX
  8
0
 10
860.35068775
 20
3061.65201000
  0
VERTEX
  8
0
 10
859.24740375
 20
3061.14350900
  0
VERTEX
  8
0
 10
858.23801575
 20
3060.44746200
  0
VERTEX
  8
0
 10
857.34954675
 20
3059.57088700
  0
VERTEX
  8
0
 10
856.60901675
 20
3058.52080500
  0
VERTEX
  8
0
 10
855.67586775
 20
3056.73076400
  0
SEQEND
  0
POLYLINE
  8
annotation
 62
256
 66
   1
 39
211.000000
 70
    0
  0
VERTEX
  8
0
 10
872.93433775
 20
3334.88007700
  0
VERTEX
  8
0
 10
880.04031975
 20
3334.88007700
  0
VERTEX
  8
0
 10
881.31834775
 20
3334.99472500
  0
VERTEX
  8
0
 10
882.52092775
 20
3335.32514600
  0
VERTEX
  8
0
 10
883.62805775
 20
3335.85105800
  0
VERTEX
  8
0
 10
884.61973675
 20
3336.55217900
  0
VERTEX
  8
0
 10
885.47596275
 20
3337.40822600
  0
VERTEX
  8
0
 10
886.17673375
 20
3338.39891600
  0
VERTEX
  8
0
 10
886.70204875
 20
3339.50396800
  0
VERTEX
  8
0
 10
887.03190575
 20
3340.70309900
  0
VERTEX
  8
0
 10
887.14630275
 20
3341.97602600
  0
VERTEX
  8
0
 10
887.14630275
 20
3345.53403400
  0
VERTEX
  8
0
 10
887.03190575
 20
3346.80643300
  0
VERTEX
  8
0
 10
886.70204875
 20
3348.00528300
  0
VERTEX
  8
0
 10
886.17673375
 20
3349.11025200
  0
VERTEX
  8
0
 10
885.47596275
 20
3350.10100900
  0
VERTEX
  8
0
 10
884.61973675
 20
3350.95722100
  0
VERTEX
  8
0
 10
883.62805775
 20
3351.65855600
  0
VERTEX
  8
0
 10
882.52092775
 20
3352.18468300
  0
VERTEX
  8
0
 10
881.31834775
 20
3352.51527000
  0
VERTEX
  8
0
 10
880.04031975
 20
3352.62998300
  0
VERTEX
  8
0
 10
876.48231175
 20
3352.62998300
  0
VERTEX
  8
0
 10
880.04031975
 20
3352.62998300
  0
VERTEX
  8
0
 10
881.31834775
 20
3352.74472400
  0
VERTEX
  8
0
 10
882.52092775
 20
3353.07550300
  0
VERTEX
  8
0
 10
883.62805775
 20
3353.60215300
  0
VERTEX
  8
0
 10
884.61973675
 20
3354.30450700
  0
VERTEX
  8
0
 10
885.47596275
 20
3355.16239800
  0
VERTEX
  8
0
 10
886.17673375
 20
3356.15566000
  0
VERTEX
  8
0
 10
886.70204875
 20
3357.26412500
  0
VERTEX
  8
0
 10
887.03190575
 20
3358.46762800
  0
VERTEX
  8
0
 10
887.14630275
 20
3359.74600000
  0
VERTEX
  8
0
 10
887.03190575
 20
3361.01839800
  0
VERTEX
  8
0
 10
886.70204875
 20
3362.21724800
  0
VERTEX
  8
0
 10
886.17673375
 20
3363.32221800
  0
VERTEX
  8
0
 10
885.47596275
 20
3364.31297400
  0
VERTEX
  8
0
 10
884.61973675
 20
3365.16918600
  0
VERTEX
  8
0
 10
883.62805775
 20
3365.87052200
  0
VERTEX
  8
0
 10
882.52092775
 20
3366.39664900
  0
VERTEX
  8
0
 10
881.31834775
 20
3366.72723500
  0
VERTEX
  8
0
 10
880.04031975
 20
3366.84194900
  0
VERTEX
  8
0
 10
872.93433775
 20
3366.84194900
  0
SEQEND
  0
POLYLINE
  8
annotation
 62
256
 66
   1
 39
211.000000
 70
    0
  0
VERTEX
  8
0
 10
888.33774975
 20
3646.79308400
  0
VERTEX
  8
0
 10
870.56978375
 20
3646.79308400
  0
VERTEX
  8
0
 10
877.66573175
 20
3671.67907400
  0
SEQEND
  0
POLYLINE
  8
annotation
 62
256
 66
   1
 39
211.000000
 70
    0
  0
VERTEX
  8
0
 10
883.01177475
 20
3639.67907400
  0
VERTEX
  8
0
 10
883.01177475
 20
3653.89103900
  0
SEQEND
  0
POLYLINE
  8
annotation
 62
256
 66
   1
 39
211.000000
 70
    0
  0
VERTEX
  8
0
 10
855.62303175
 20
3944.47907400
  0
VERTEX
  8
0
 10
862.72901475
 20
3944.47907400
  0
VERTEX
  8
0
 10
864.00439975
 20
3944.59374600
  0
VERTEX
  8
0
 10
865.20557575
 20
3944.92434100
  0
VERTEX
  8
0
 10
866.31229375
 20
3945.45072400
  0
VERTEX
  8
0
 10
867.30430275
 20
3946.15276100
  0
VERTEX
  8
0
 10
868.16135475
 20
3947.01031900
  0
VERTEX
  8
0
 10
868.86319875
 20
3948.00326400
  0
VERTEX
  8
0
 10
869.38958775
 20
3949.11146300
  0
VERTEX
  8
0
 10
869.72026975
 20
3950.31478000
  0
VERTEX
  8
0
 10
869.83499775
 20
3951.59308400
  0
VERTEX
  8
0
 10
869.83499775
 20
3955.13303100
  0
VERTEX
  8
0
 10
869.72033575
 20
3956.41071500
  0
VERTEX
  8
0
 10
869.38981875
 20
3957.61237300
  0
VERTEX
  8
0
 10
868.86364475
 20
3958.71816800
  0
VERTEX
  8
0
 10
868.16201475
 20
3959.70826400
  0
VERTEX
  8
0
 10
867.30512875
 20
3960.56282400
  0
VERTEX
  8
0
 10
866.31318575
 20
3961.26201300
  0
VERTEX
  8
0
 10
865.20638575
 20
3961.78599200
  0
VERTEX
  8
0
 10
864.00492875
 20
3962.11492700
  0
VERTEX
  8
0
 10
862.72901475
 20
3962.22898000
  0
VERTEX
  8
0
 10
855.62303175
 20
3962.22898000
  0
VERTEX
  8
0
 10
855.62303175
 20
3976.47907400
  0
VERTEX
  8
0
 10
869.83499775
 20
3976.47907400
  0
SEQEND
  0
POLYLINE
  8
annotation
 62
256
 66
   1
 39
211.000000
 70
    0
  0
VERTEX
  8
0
 10
879.63236775
 20
4281.27907400
  0
VERTEX
  8
0
 10
877.59668275
 20
4280.51581500
  0
VERTEX
  8
0
 10
875.72867475
 20
4279.48741400
  0
VERTEX
  8
0
 10
874.04751975
 20
4278.21963700
  0
VERTEX
  8
0
 10
872.57239275
 20
4276.73825100
  0
VERTEX
  8
0
 10
871.32247075
 20
4275.06902000
  0
VERTEX
  8
0
 10
870.31692875
 20
4273.23771200
  0
VERTEX
  8
0
 10
869.57494275
 20
4271.27009200
  0
VERTEX
  8
0
 10
869.11568875
 20
4269.19192600
  0
VERTEX
  8
0
 10
868.95834375
 20
4267.02898000
  0
VERTEX
  8
0
 10
868.95834375
 20
4256.39308400
  0
VERTEX
  8
0
 10
869.07307075
 20
4255.11478000
  0
VERTEX
  8
0
 10
869.40375375
 20
4253.91146300
  0
VERTEX
  8
0
 10
869.93014175
 20
4252.80326400
  0
VERTEX
  8
0
 10
870.63198675
 20
4251.81031900
  0
VERTEX
  8
0
 10
871.48903775
 20
4250.95276100
  0
VERTEX
  8
0
 10
872.48104775
 20
4250.25072400
  0
VERTEX
  8
0
 10
873.58776475
 20
4249.72434100
  0
VERTEX
  8
0
 10
874.78894075
 20
4249.39374600
  0
VERTEX
  8
0
 10
876.06432575
 20
4249.27907400
  0
VERTEX
  8
0
 10
877.34235375
 20
4249.39374600
  0
VERTEX
  8
0
 10
878.54493375
 20
4249.72434100
  0
VERTEX
  8
0
 10
879.65206475
 20
4250.25072400
  0
VERTEX
  8
0
 10
880.64374275
 20
4250.95276100
  0
VERTEX
  8
0
 10
881.49996875
 20
4251.81031900
  0
VERTEX
  8
0
 10
882.20073975
 20
4252.80326400
  0
VERTEX
  8
0
 10
882.72605475
 20
4253.91146300
  0
VERTEX
  8
0
 10
883.05591175
 20
4255.11478000
  0
VERTEX
  8
0
 10
883.17030875
 20
4256.39308400
  0
VERTEX
  8
0
 10
883.17030875
 20
4259.93303100
  0
VERTEX
  8
0
 10
883.05591175
 20
4261.21071500
  0
VERTEX
  8
0
 10
882.72605475
 20
4262.41237300
  0
VERTEX
  8
0
 10
882.20073975
 20
4263.51816800
  0
VERTEX
  8
0
 10
881.49996875
 20
4264.50826400
  0
VERTEX
  8
0
 10
880.64374275
 20
4265.36282400
  0
VERTEX
  8
0
 10
879.65206475
 20
4266.06201300
  0
VERTEX
  8
0
 10
878.54493375
 20
4266.58599200
  0
VERTEX
  8
0
 10
877.34235375
 20
4266.91492700
  0
VERTEX
  8
0
 10
876.06432575
 20
4267.02898000
  0
VERTEX
  8
0
 10
868.95834375
 20
4267.02898000
  0
SEQEND
  0
POLYLINE
  8
annotation
 62
256
 66
   1
 39
211.000000
 70
    0
  0
VERTEX
  8
0
 10
868.06833975
 20
4245.27907400
  0
VERTEX
  8
0
 10
884.06833975
 20
4245.27907400
  0
SEQEND
  0
POLYLINE
  8
annotation
 62
256
 66
   1
 39
211.000000
 70
    0
  0
VERTEX
  8
0
 10
927.20876175
 20
3507.88923900
  0
VERTEX
  8
0
 10
903.82204875
 20
3474.06250000
  0
VERTEX
  8
0
 10
880.43093775
 20
3507.88923900
  0
SEQEND
  0
POLYLINE
  8
annotation
 62
256
 66
   1
 39
211.000000
 70
    0
  0
VERTEX
  8
0
 10
903.82204875
 20
3476.78464700
  0
VERTEX
  8
0
 10
903.82204875
 20
3437.75988300
  0
SEQEND
  0
POLYLINE
  8
annotation
 62
256
 66
   1
 39
211.000000
 70
    0
  0
VERTEX
  8
0
 10
991.85754375
 20
3472.82456100
  0
VERTEX
  8
0
 10
953.51441675
 20
3472.82456100
  0
SEQEND
  0
POLYLINE
  8
annotation
 62
256
 66
   1
 39
2.000000
 70
    0
  0
VERTEX
  8
0
 10
1049.29727175
 20
3437.76151200
  0
VERTEX
  8
0
 10
1018.15310075
 20
3437.76151200
  0
VERTEX
  8
0
 10
1046.93133475
 20
3484.09077600
  0
VERTEX
  8
0
 10
1046.96573775
 20
3484.13334700
  0
VERTEX
  8
0
 10
1046.99872975
 20
3484.17628000
  0
VERTEX
  8
0
 10
1047.03052675
 20
3484.21993600
  0
VERTEX
  8
0
 10
1047.06134675
 20
3484.26467900
  0
VERTEX
  8
0
 10
1047.09140575
 20
3484.31086900
  0
VERTEX
  8
0
 10
1047.12092275
 20
3484.35887000
  0
VERTEX
  8
0
 10
1047.15011375
 20
3484.40904100
  0
VERTEX
  8
0
 10
1047.17919575
 20
3484.46174700
  0
VERTEX
  8
0
 10
1047.20838675
 20
3484.51734800
  0
VERTEX
  8
0
 10
1048.39663375
 20
3487.06861300
  0
VERTEX
  8
0
 10
1049.09078675
 20
3489.71322500
  0
VERTEX
  8
0
 10
1049.30785875
 20
3492.39142500
  0
VERTEX
  8
0
 10
1049.06485975
 20
3495.04345700
  0
VERTEX
  8
0
 10
1048.37880175
 20
3497.60956200
  0
VERTEX
  8
0
 10
1047.26669675
 20
3500.02998400
  0
VERTEX
  8
0
 10
1045.74555575
 20
3502.24496500
  0
VERTEX
  8
0
 10
1043.83238975
 20
3504.19474700
  0
VERTEX
  8
0
 10
1041.54421175
 20
3505.81957400
  0
VERTEX
  8
0
 10
1038.98585175
 20
3506.99093600
  0
VERTEX
  8
0
 10
1036.33718675
 20
3507.67439400
  0
VERTEX
  8
0
 10
1033.65742975
 20
3507.88533000
  0
VERTEX
  8
0
 10
1031.00579675
 20
3507.63912800
  0
VERTEX
  8
0
 10
1028.44150075
 20
3506.95117000
  0
VERTEX
  8
0
 10
1026.02375775
 20
3505.83683900
  0
VERTEX
  8
0
 10
1023.81178075
 20
3504.31151700
  0
VERTEX
  8
0
 10
1021.86478475
 20
3502.39058800
  0
VERTEX
  8
0
 10
1020.24198475
 20
3500.08943400
  0
VERTEX
  8
0
 10
1018.19707675
 20
3496.16672800
  0
SEQEND
  0
POLYLINE
  8
boundary
 62
256
 66
   1
 39
211.000000
 70
    1
  0
VERTEX
  8
0
 10
1198.04218075
 20
4381.86505500
  0
VERTEX
  8
0
 10
1197.17781275
 20
4381.86138600
  0
VERTEX
  8
0
 10
1194.96417775
 20
4377.79889700
  0
VERTEX
  8
0
 10
1194.16926475
 20
4376.05740400
  0
VERTEX
  8
0
 10
1194.16915975
 20
4374.08685100
  0
VERTEX
  8
0
 10
1194.16939175
 20
4365.74556200
  0
VERTEX
  8
0
 10
1194.16877575
 20
4362.50195900
  0
VERTEX
  8
0
 10
1194.16878275
 20
4342.95892100
  0
VERTEX
  8
0
 10
1194.16879575
 20
4332.65293700
  0
VERTEX
  8
0
 10
1194.16877975
 20
4324.51861300
  0
VERTEX
  8
0
 10
1194.16877475
 20
4289.06812400
  0
VERTEX
  8
0
 10
1194.16876875
 20
4276.96249900
  0
VERTEX
  8
0
 10
1195.02906975
 20
4275.96250000
  0
VERTEX
  8
0
 10
1445.49316975
 20
4275.96250100
  0
VERTEX
  8
0
 10
1445.49316875
 20
4256.21650100
  0
VERTEX
  8
0
 10
1195.02906275
 20
4256.21650100
  0
VERTEX
  8
0
 10
1194.16876275
 20
4255.21650200
  0
VERTEX
  8
0
 10
1194.16876375
 20
4246.12111900
  0
VERTEX
  8
0
 10
1194.16876975
 20
4203.49681600
  0
VERTEX
  8
0
 10
1194.16878875
 20
4188.72802600
  0
VERTEX
  8
0
 10
1194.16878675
 20
4170.34142600
  0
VERTEX
  8
0
 10
1194.16880675
 20
4133.17888900
  0
VERTEX
  8
0
 10
1194.16882975
 20
4109.18363300
  0
VERTEX
  8
0
 10
1194.16882875
 20
4055.89304100
  0
VERTEX
  8
0
 10
1194.16883275
 20
4049.89717600
  0
VERTEX
  8
0
 10
1194.16883275
 20
4045.79266100
  0
VERTEX
  8
0
 10
1194.16881575
 20
3981.67542700
  0
VERTEX
  8
0
 10
1194.16881775
 20
3972.16250100
  0
VERTEX
  8
0
 10
1195.02911475
 20
3971.16250000
  0
VERTEX
  8
0
 10
1434.83387875
 20
3971.16250000
  0
VERTEX
  8
0
 10
1434.83387975
 20
3951.41650000
  0
VERTEX
  8
0
 10
1195.02912175
 20
3951.41650200
  0
VERTEX
  8
0
 10
1194.16882075
 20
3950.41650100
  0
VERTEX
  8
0
 10
1194.16882775
 20
3911.62110500
  0
VERTEX
  8
0
 10
1194.16882775
 20
3905.78955700
  0
VERTEX
  8
0
 10
1194.16883375
 20
3900.42485100
  0
VERTEX
  8
0
 10
1194.16885175
 20
3831.26659700
  0
VERTEX
  8
0
 10
1194.16883575
 20
3802.03897000
  0
VERTEX
  8
0
 10
1194.16881775
 20
3783.50802200
  0
VERTEX
  8
0
 10
1194.16883275
 20
3775.96400100
  0
VERTEX
  8
0
 10
1194.16881775
 20
3768.19828600
  0
VERTEX
  8
0
 10
1194.16881275
 20
3747.62573700
  0
VERTEX
  8
0
 10
1194.16880875
 20
3719.60703200
  0
VERTEX
  8
0
 10
1194.16880275
 20
3674.77310900
  0
VERTEX
  8
0
 10
1194.16880275
 20
3667.36250000
  0
VERTEX
  8
0
 10
1195.02910275
 20
3666.36250000
  0
VERTEX
  8
0
 10
1454.06909975
 20
3666.36250000
  0
VERTEX
  8
0
 10
1454.06909875
 20
3646.61650100
  0
VERTEX
  8
0
 10
1195.02910375
 20
3646.61650100
  0
VERTEX
  8
0
 10
1194.16880175
 20
3645.61650000
  0
VERTEX
  8
0
 10
1194.16880775
 20
3614.06885000
  0
VERTEX
  8
0
 10
1194.16882175
 20
3602.17955700
  0
VERTEX
  8
0
 10
1194.16881975
 20
3592.67515200
  0
VERTEX
  8
0
 10
1194.16882775
 20
3577.57225400
  0
VERTEX
  8
0
 10
1194.16881775
 20
3537.06006500
  0
VERTEX
  8
0
 10
1194.16877475
 20
3513.99943700
  0
VERTEX
  8
0
 10
1194.16880675
 20
3483.58124300
  0
VERTEX
  8
0
 10
1194.16882275
 20
3458.93780600
  0
VERTEX
  8
0
 10
1194.16878575
 20
3399.19589600
  0
VERTEX
  8
0
 10
1194.16878375
 20
3395.68366800
  0
VERTEX
  8
0
 10
1194.16878375
 20
3385.18394000
  0
VERTEX
  8
0
 10
1194.16878775
 20
3362.56250200
  0
VERTEX
  8
0
 10
1195.02908775
 20
3361.56250000
  0
VERTEX
  8
0
 10
1462.61500975
 20
3361.56250000
  0
VERTEX
  8
0
 10
1462.61500775
 20
3341.81650100
  0
VERTEX
  8
0
 10
1195.02909075
 20
3341.81650100
  0
VERTEX
  8
0
 10
1194.16878875
 20
3340.81649900
  0
VERTEX
  8
0
 10
1194.16879075
 20
3324.24107700
  0
VERTEX
  8
0
 10
1194.16876175
 20
3308.78668600
  0
VERTEX
  8
0
 10
1194.16876575
 20
3297.94563700
  0
VERTEX
  8
0
 10
1194.16878375
 20
3287.27646500
  0
VERTEX
  8
0
 10
1194.16877075
 20
3264.74671900
  0
VERTEX
  8
0
 10
1194.16877875
 20
3225.51475800
  0
VERTEX
  8
0
 10
1194.16878675
 20
3186.51581600
  0
VERTEX
  8
0
 10
1194.16879675
 20
3161.76649900
  0
VERTEX
  8
0
 10
1194.16881975
 20
3141.86873500
  0
VERTEX
  8
0
 10
1194.16881275
 20
3117.29036600
  0
VERTEX
  8
0
 10
1194.16881475
 20
3112.19673300
  0
VERTEX
  8
0
 10
1194.16882075
 20
3077.37890100
  0
VERTEX
  8
0
 10
1194.16883775
 20
3057.76250000
  0
VERTEX
  8
0
 10
1195.02913675
 20
3056.76250200
  0
VERTEX
  8
0
 10
1434.63685075
 20
3056.76250000
  0
VERTEX
  8
0
 10
1434.63685175
 20
3037.01650200
  0
VERTEX
  8
0
 10
1195.02914375
 20
3037.01649900
  0
VERTEX
  8
0
 10
1194.16884375
 20
3036.01650100
  0
VERTEX
  8
0
 10
1194.16884175
 20
3032.14017900
  0
VERTEX
  8
0
 10
1194.16883675
 20
3011.12308200
  0
VERTEX
  8
0
 10
1194.16883775
 20
3000.57941100
  0
VERTEX
  8
0
 10
1194.16883775
 20
2965.65330500
  0
VERTEX
  8
0
 10
1194.16883975
 20
2964.69261500
  0
VERTEX
  8
0
 10
1194.16884175
 20
2964.05694600
  0
VERTEX
  8
0
 10
1194.16882775
 20
2913.54227400
  0
VERTEX
  8
0
 10
1194.16879375
 20
2869.17526800
  0
VERTEX
  8
0
 10
1194.16877875
 20
2850.25782200
  0
VERTEX
  8
0
 10
1194.16878675
 20
2842.15494700
  0
VERTEX
  8
0
 10
1194.16877075
 20
2834.67891500
  0
VERTEX
  8
0
 10
1194.16878475
 20
2818.16934200
  0
VERTEX
  8
0
 10
1194.16880675
 20
2776.18672100
  0
VERTEX
  8
0
 10
1194.16881475
 20
2752.96250200
  0
VERTEX
  8
0
 10
1195.02911375
 20
2751.96250100
  0
VERTEX
  8
0
 10
1445.46912175
 20
2751.96249900
  0
VERTEX
  8
0
 10
1445.46912075
 20
2732.21650000
  0
VERTEX
  8
0
 10
1195.02912175
 20
2732.21649900
  0
VERTEX
  8
0
 10
1194.16882075
 20
2731.21649900
  0
VERTEX
  8
0
 10
1194.16882975
 20
2698.54399700
  0
VERTEX
  8
0
 10
1194.16882975
 20
2695.54326800
  0
VERTEX
  8
0
 10
1194.16882575
 20
2693.97555500
  0
VERTEX
  8
0
 10
1194.16881875
 20
2689.91319800
  0
VERTEX
  8
0
 10
1194.16878075
 20
2655.41612400
  0
VERTEX
  8
0
 10
1194.17013875
 20
2644.04387800
  0
VERTEX
  8
0
 10
1194.16950175
 20
2637.28451000
  0
VERTEX
  8
0
 10
1194.16784675
 20
2633.95564800
  0
VERTEX
  8
0
 10
1194.16314075
 20
2630.07660200
  0
VERTEX
  8
0
 10
1197.24735275
 20
2626.68047600
  0
VERTEX
  8
0
 10
1198.40485075
 20
2626.32147500
  0
VERTEX
  8
0
 10
1203.83737075
 20
2626.31858300
  0
VERTEX
  8
0
 10
1208.87699775
 20
2626.31817900
  0
VERTEX
  8
0
 10
1213.28442475
 20
2626.31783500
  0
VERTEX
  8
0
 10
1215.60602275
 20
2626.31783500
  0
VERTEX
  8
0
 10
1217.57934675
 20
2626.31783600
  0
VERTEX
  8
0
 10
1250.85050875
 20
2626.31783500
  0
VERTEX
  8
0
 10
1263.79179375
 20
2626.31783600
  0
VERTEX
  8
0
 10
1274.03027575
 20
2626.31783600
  0
VERTEX
  8
0
 10
1291.65777075
 20
2626.31783800
  0
VERTEX
  8
0
 10
1349.05289575
 20
2626.31783700
  0
VERTEX
  8
0
 10
1360.80400475
 20
2626.31783500
  0
VERTEX
  8
0
 10
1373.61323275
 20
2626.31783500
  0
VERTEX
  8
0
 10
1406.88489875
 20
2626.31783700
  0
VERTEX
  8
0
 10
1418.23411075
 20
2626.31783700
  0
VERTEX
  8
0
 10
1432.90558675
 20
2626.31783800
  0
VERTEX
  8
0
 10
1441.96531075
 20
2626.31783800
  0
VERTEX
  8
0
 10
1450.59489975
 20
2626.31790800
  0
VERTEX
  8
0
 10
1454.42697175
 20
2626.31756700
  0
VERTEX
  8
0
 10
1455.67964475
 20
2626.31943400
  0
VERTEX
  8
0
 10
1462.63032375
 20
2626.31968500
  0
VERTEX
  8
0
 10
1463.52403475
 20
2626.31684200
  0
VERTEX
  8
0
 10
1466.23133275
 20
2626.32149500
  0
VERTEX
  8
0
 10
1469.12320775
 20
2626.32187500
  0
VERTEX
  8
0
 10
1472.14893275
 20
2622.72476400
  0
VERTEX
  8
0
 10
1475.11986475
 20
2619.39629900
  0
VERTEX
  8
0
 10
1477.00519375
 20
2618.46251100
  0
VERTEX
  8
0
 10
1477.00597075
 20
2617.08074100
  0
VERTEX
  8
0
 10
1476.99902975
 20
2613.26657500
  0
VERTEX
  8
0
 10
1476.96437775
 20
2596.74383900
  0
VERTEX
  8
0
 10
1476.92532975
 20
2578.31508400
  0
VERTEX
  8
0
 10
1476.91355875
 20
2572.66990600
  0
VERTEX
  8
0
 10
1476.86765075
 20
2551.17664000
  0
VERTEX
  8
0
 10
1477.31192175
 20
2547.94960500
  0
VERTEX
  8
0
 10
1477.61353875
 20
2546.76666400
  0
VERTEX
  8
0
 10
1477.93663275
 20
2544.29917000
  0
VERTEX
  8
0
 10
1478.11640775
 20
2542.96555600
  0
VERTEX
  8
0
 10
1478.75295075
 20
2541.21312500
  0
VERTEX
  8
0
 10
1479.33744675
 20
2539.72838500
  0
VERTEX
  8
0
 10
1481.31312175
 20
2538.93692900
  0
VERTEX
  8
0
 10
1481.99497875
 20
2538.59654600
  0
VERTEX
  8
0
 10
1484.44627575
 20
2539.12732400
  0
VERTEX
  8
0
 10
1488.34379475
 20
2540.84557900
  0
VERTEX
  8
0
 10
1493.70544075
 20
2543.81283700
  0
VERTEX
  8
0
 10
1497.83565675
 20
2546.14561500
  0
VERTEX
  8
0
 10
1500.50038875
 20
2547.15352100
  0
VERTEX
  8
0
 10
1503.06890975
 20
2547.94864800
  0
VERTEX
  8
0
 10
1510.07665475
 20
2550.21619300
  0
VERTEX
  8
0
 10
1518.40973975
 20
2552.32421900
  0
VERTEX
  8
0
 10
1521.37264775
 20
2552.74419800
  0
VERTEX
  8
0
 10
1532.07586675
 20
2554.73419100
  0
VERTEX
  8
0
 10
1544.34133775
 20
2556.53908000
  0
VERTEX
  8
0
 10
1549.56338275
 20
2557.05934800
  0
VERTEX
  8
0
 10
1552.58614575
 20
2557.28106200
  0
VERTEX
  8
0
 10
1561.84953975
 20
2557.96064300
  0
VERTEX
  8
0
 10
1566.37068975
 20
2558.12950500
  0
VERTEX
  8
0
 10
1577.13315375
 20
2558.53196200
  0
VERTEX
  8
0
 10
1609.60819075
 20
2559.03871600
  0
VERTEX
  8
0
 10
1628.09108175
 20
2559.34801500
  0
VERTEX
  8
0
 10
1636.31826775
 20
2561.77104500
  0
VERTEX
  8
0
 10
1640.16663575
 20
2562.89679900
  0
VERTEX
  8
0
 10
1642.52377675
 20
2563.78668900
  0
VERTEX
  8
0
 10
1645.20905375
 20
2565.24644100
  0
VERTEX
  8
0
 10
1647.32027075
 20
2566.74199300
  0
VERTEX
  8
0
 10
1650.67464575
 20
2569.11785700
  0
VERTEX
  8
0
 10
1652.57170175
 20
2571.31026100
  0
VERTEX
  8
0
 10
1653.09901375
 20
2571.94644100
  0
VERTEX
  8
0
 10
1653.67909275
 20
2572.66002200
  0
VERTEX
  8
0
 10
1653.99500175
 20
2573.09610600
  0
VERTEX
  8
0
 10
1660.05743375
 20
2581.46293800
  0
VERTEX
  8
0
 10
1661.04628675
 20
2582.76618400
  0
VERTEX
  8
0
 10
1668.06558375
 20
2599.36718800
  0
VERTEX
  8
0
 10
1671.89959875
 20
2608.50590300
  0
VERTEX
  8
0
 10
1673.51184875
 20
2614.41111500
  0
VERTEX
  8
0
 10
1681.54383175
 20
2644.94623800
  0
VERTEX
  8
0
 10
1683.49238675
 20
2655.01140200
  0
VERTEX
  8
0
 10
1690.55235475
 20
2693.43067400
  0
VERTEX
  8
0
 10
1696.38355375
 20
2743.79372300
  0
VERTEX
  8
0
 10
1696.79562675
 20
2747.08380400
  0
VERTEX
  8
0
 10
1697.04722075
 20
2752.47205700
  0
VERTEX
  8
0
 10
1699.26330975
 20
2799.39084000
  0
VERTEX
  8
0
 10
1698.23067275
 20
2815.28867100
  0
VERTEX
  8
0
 10
1696.45154375
 20
2848.02582100
  0
VERTEX
  8
0
 10
1691.76200575
 20
2881.40889700
  0
VERTEX
  8
0
 10
1690.40544675
 20
2891.22769900
  0
VERTEX
  8
0
 10
1680.05815775
 20
2952.04046200
  0
VERTEX
  8
0
 10
1677.17505975
 20
2968.20697000
  0
VERTEX
  8
0
 10
1675.37192875
 20
2986.26116100
  0
VERTEX
  8
0
 10
1673.96633775
 20
3001.65003300
  0
VERTEX
  8
0
 10
1673.43271175
 20
3027.18211200
  0
VERTEX
  8
0
 10
1673.43515075
 20
3031.18653100
  0
VERTEX
  8
0
 10
1674.69746175
 20
3048.10823900
  0
VERTEX
  8
0
 10
1675.21160875
 20
3054.90190800
  0
VERTEX
  8
0
 10
1675.81055975
 20
3057.95581200
  0
VERTEX
  8
0
 10
1679.61702775
 20
3076.55250500
  0
VERTEX
  8
0
 10
1684.99418875
 20
3089.21021700
  0
VERTEX
  8
0
 10
1686.01839175
 20
3091.63670100
  0
VERTEX
  8
0
 10
1690.05059675
 20
3097.27154000
  0
VERTEX
  8
0
 10
1694.33012475
 20
3103.26835500
  0
VERTEX
  8
0
 10
1695.60817975
 20
3104.51872300
  0
VERTEX
  8
0
 10
1701.48377375
 20
3110.22340500
  0
VERTEX
  8
0
 10
1706.06108875
 20
3113.74891400
  0
VERTEX
  8
0
 10
1706.89966575
 20
3114.38717300
  0
VERTEX
  8
0
 10
1708.07228475
 20
3115.30161900
  0
VERTEX
  8
0
 10
1711.74431775
 20
3118.38744400
  0
VERTEX
  8
0
 10
1712.13738875
 20
3118.71405600
  0
VERTEX
  8
0
 10
1713.29512375
 20
3123.15807600
  0
VERTEX
  8
0
 10
1713.61607575
 20
3125.00487400
  0
VERTEX
  8
0
 10
1714.07743475
 20
3127.74866300
  0
VERTEX
  8
0
 10
1716.09105675
 20
3129.56205000
  0
VERTEX
  8
0
 10
1716.56583575
 20
3129.99278500
  0
VERTEX
  8
0
 10
1725.13355975
 20
3136.92994800
  0
VERTEX
  8
0
 10
1727.19427475
 20
3138.84304400
  0
VERTEX
  8
0
 10
1727.66605975
 20
3139.30710600
  0
VERTEX
  8
0
 10
1729.10202475
 20
3141.33848400
  0
VERTEX
  8
0
 10
1729.50760575
 20
3141.89575000
  0
VERTEX
  8
0
 10
1730.12584175
 20
3143.34955300
  0
VERTEX
  8
0
 10
1730.51868275
 20
3144.23778900
  0
VERTEX
  8
0
 10
1730.70184175
 20
3145.28982200
  0
VERTEX
  8
0
 10
1731.52653775
 20
3149.02825700
  0
VERTEX
  8
0
 10
1731.68007875
 20
3150.56715000
  0
VERTEX
  8
0
 10
1731.89926875
 20
3152.53766600
  0
VERTEX
  8
0
 10
1731.97501075
 20
3153.79115800
  0
VERTEX
  8
0
 10
1732.48563375
 20
3169.17656400
  0
VERTEX
  8
0
 10
1733.79421675
 20
3198.05676600
  0
VERTEX
  8
0
 10
1734.33933975
 20
3211.07351300
  0
VERTEX
  8
0
 10
1734.48719975
 20
3231.64917000
  0
VERTEX
  8
0
 10
1734.56049075
 20
3242.73504300
  0
VERTEX
  8
0
 10
1734.22429975
 20
3267.66948500
  0
VERTEX
  8
0
 10
1733.73697775
 20
3316.48386300
  0
VERTEX
  8
0
 10
1733.18779575
 20
3327.82876800
  0
VERTEX
  8
0
 10
1732.87579075
 20
3334.53572700
  0
VERTEX
  8
0
 10
1731.71398575
 20
3346.31811400
  0
VERTEX
  8
0
 10
1731.51113475
 20
3348.47227400
  0
VERTEX
  8
0
 10
1730.93480175
 20
3356.83777000
  0
VERTEX
  8
0
 10
1724.37535375
 20
3436.79401100
  0
VERTEX
  8
0
 10
1721.17251875
 20
3489.12043400
  0
VERTEX
  8
0
 10
1720.84180775
 20
3496.38142400
  0
VERTEX
  8
0
 10
1719.12041275
 20
3532.96160000
  0
VERTEX
  8
0
 10
1715.60057475
 20
3606.85742300
  0
VERTEX
  8
0
 10
1715.10666175
 20
3616.72700600
  0
VERTEX
  8
0
 10
1714.76216875
 20
3625.31737300
  0
VERTEX
  8
0
 10
1712.61058475
 20
3710.37565800
  0
VERTEX
  8
0
 10
1712.48086275
 20
3714.88017700
  0
VERTEX
  8
0
 10
1711.03618975
 20
3790.79652200
  0
VERTEX
  8
0
 10
1711.00017675
 20
3792.85249300
  0
VERTEX
  8
0
 10
1710.98549575
 20
3793.90714500
  0
VERTEX
  8
0
 10
1710.21242275
 20
3847.19686800
  0
VERTEX
  8
0
 10
1709.91077475
 20
3864.28368000
  0
VERTEX
  8
0
 10
1709.75723875
 20
3874.12938300
  0
VERTEX
  8
0
 10
1709.73573475
 20
3874.69156200
  0
VERTEX
  8
0
 10
1709.71273775
 20
3875.29414200
  0
VERTEX
  8
0
 10
1709.67596175
 20
3878.44307000
  0
VERTEX
  8
0
 10
1709.63413475
 20
3881.75770600
  0
VERTEX
  8
0
 10
1710.33850975
 20
3883.81577600
  0
VERTEX
  8
0
 10
1710.89975575
 20
3885.00438600
  0
VERTEX
  8
0
 10
1710.84477575
 20
3887.02564100
  0
VERTEX
  8
0
 10
1711.11588575
 20
3890.37449700
  0
VERTEX
  8
0
 10
1708.95909075
 20
3892.14724600
  0
VERTEX
  8
0
 10
1707.21318275
 20
3893.57265800
  0
VERTEX
  8
0
 10
1705.72271075
 20
3894.72142000
  0
VERTEX
  8
0
 10
1704.70894775
 20
3895.50253900
  0
VERTEX
  8
0
 10
1702.66686175
 20
3897.07686400
  0
VERTEX
  8
0
 10
1700.89425175
 20
3898.50032500
  0
VERTEX
  8
0
 10
1694.46886475
 20
3904.82273900
  0
VERTEX
  8
0
 10
1694.06347175
 20
3905.22387700
  0
VERTEX
  8
0
 10
1692.99525875
 20
3906.64493900
  0
VERTEX
  8
0
 10
1686.36069875
 20
3916.21837200
  0
VERTEX
  8
0
 10
1683.56856975
 20
3923.19451900
  0
VERTEX
  8
0
 10
1679.77250975
 20
3932.26327600
  0
VERTEX
  8
0
 10
1676.55113675
 20
3947.61995100
  0
VERTEX
  8
0
 10
1675.60652275
 20
3952.60650600
  0
VERTEX
  8
0
 10
1674.88885075
 20
3963.38842800
  0
VERTEX
  8
0
 10
1673.84261075
 20
3978.34282700
  0
VERTEX
  8
0
 10
1674.05654475
 20
3992.88316000
  0
VERTEX
  8
0
 10
1674.51311375
 20
4008.09949900
  0
VERTEX
  8
0
 10
1675.43304575
 20
4016.85080600
  0
VERTEX
  8
0
 10
1677.84233975
 20
4042.08575700
  0
VERTEX
  8
0
 10
1687.86960775
 20
4101.42767000
  0
VERTEX
  8
0
 10
1690.63083375
 20
4116.58256400
  0
VERTEX
  8
0
 10
1691.76990175
 20
4125.71148500
  0
VERTEX
  8
0
 10
1696.53174975
 20
4161.43388300
  0
VERTEX
  8
0
 10
1698.60776375
 20
4200.74299100
  0
VERTEX
  8
0
 10
1699.20715575
 20
4211.06358900
  0
VERTEX
  8
0
 10
1698.60182775
 20
4221.24430500
  0
VERTEX
  8
0
 10
1696.87707875
 20
4260.66154800
  0
VERTEX
  8
0
 10
1695.47510475
 20
4272.09743800
  0
VERTEX
  8
0
 10
1690.51856475
 20
4314.77410100
  0
VERTEX
  8
0
 10
1684.07635775
 20
4350.23381600
  0
VERTEX
  8
0
 10
1682.11319275
 20
4360.61630300
  0
VERTEX
  8
0
 10
1673.25276875
 20
4394.58662400
  0
VERTEX
  8
0
 10
1671.59606875
 20
4400.77262400
  0
VERTEX
  8
0
 10
1662.82583975
 20
4420.17750600
  0
VERTEX
  8
0
 10
1662.43496875
 20
4421.22319300
  0
VERTEX
  8
0
 10
1660.05452875
 20
4426.75668100
  0
VERTEX
  8
0
 10
1657.64822075
 20
4430.12915900
  0
VERTEX
  8
0
 10
1652.33587375
 20
4437.44536200
  0
VERTEX
  8
0
 10
1650.88895175
 20
4438.73916200
  0
VERTEX
  8
0
 10
1648.23677575
 20
4440.68487500
  0
VERTEX
  8
0
 10
1647.50647675
 20
4441.22838700
  0
VERTEX
  8
0
 10
1645.20240375
 20
4442.95504800
  0
VERTEX
  8
0
 10
1641.99099875
 20
4444.58553900
  0
VERTEX
  8
0
 10
1638.48680475
 20
4445.80554900
  0
VERTEX
  8
0
 10
1636.22220475
 20
4446.47948000
  0
VERTEX
  8
0
 10
1634.88350075
 20
4446.88062200
  0
VERTEX
  8
0
 10
1633.93025575
 20
4447.16779600
  0
VERTEX
  8
0
 10
1633.24669775
 20
4447.37326700
  0
VERTEX
  8
0
 10
1629.58899775
 20
4448.41975700
  0
VERTEX
  8
0
 10
1625.42999875
 20
4449.02376700
  0
VERTEX
  8
0
 10
1623.52488375
 20
4449.04630100
  0
VERTEX
  8
0
 10
1592.60450075
 20
4449.32585900
  0
VERTEX
  8
0
 10
1583.58983975
 20
4449.65543300
  0
VERTEX
  8
0
 10
1572.27279975
 20
4449.75916000
  0
VERTEX
  8
0
 10
1568.52737075
 20
4450.07351400
  0
VERTEX
  8
0
 10
1551.09272475
 20
4451.07487400
  0
VERTEX
  8
0
 10
1544.31943675
 20
4451.65358000
  0
VERTEX
  8
0
 10
1535.27657975
 20
4452.74043100
  0
VERTEX
  8
0
 10
1523.14009975
 20
4454.93895900
  0
VERTEX
  8
0
 10
1522.57029375
 20
4455.09659000
  0
VERTEX
  8
0
 10
1521.46809575
 20
4455.37593000
  0
VERTEX
  8
0
 10
1510.33819375
 20
4457.87037700
  0
VERTEX
  8
0
 10
1504.30213475
 20
4459.58725800
  0
VERTEX
  8
0
 10
1496.61322975
 20
4462.97383200
  0
VERTEX
  8
0
 10
1493.57979175
 20
4464.77931600
  0
VERTEX
  8
0
 10
1491.24586975
 20
4465.95513700
  0
VERTEX
  8
0
 10
1486.47635575
 20
4468.18345600
  0
VERTEX
  8
0
 10
1485.70267275
 20
4468.53466900
  0
VERTEX
  8
0
 10
1484.79812175
 20
4468.72609300
  0
VERTEX
  8
0
 10
1483.69580475
 20
4468.43244300
  0
VERTEX
  8
0
 10
1481.14436275
 20
4468.88355600
  0
VERTEX
  8
0
 10
1480.30106275
 20
4469.11932300
  0
VERTEX
  8
0
 10
1479.04910775
 20
4467.55569000
  0
VERTEX
  8
0
 10
1478.38022275
 20
4466.09717900
  0
VERTEX
  8
0
 10
1477.86209075
 20
4463.47235600
  0
VERTEX
  8
0
 10
1477.78756875
 20
4462.85201900
  0
VERTEX
  8
0
 10
1477.64558275
 20
4461.83149500
  0
VERTEX
  8
0
 10
1476.99970575
 20
4453.81549900
  0
VERTEX
  8
0
 10
1476.98617175
 20
4432.88293400
  0
VERTEX
  8
0
 10
1476.98549475
 20
4431.83218200
  0
VERTEX
  8
0
 10
1476.98987675
 20
4411.04557500
  0
VERTEX
  8
0
 10
1476.98142175
 20
4400.63315600
  0
VERTEX
  8
0
 10
1476.99756475
 20
4391.24860300
  0
VERTEX
  8
0
 10
1476.99310475
 20
4388.17246800
  0
VERTEX
  8
0
 10
1475.64776175
 20
4387.37957000
  0
VERTEX
  8
0
 10
1474.94715775
 20
4386.73745800
  0
VERTEX
  8
0
 10
1468.56124975
 20
4381.87127800
  0
VERTEX
  8
0
 10
1467.93476875
 20
4381.87133700
  0
VERTEX
  8
0
 10
1464.47346875
 20
4381.87133900
  0
VERTEX
  8
0
 10
1453.03313375
 20
4381.87133800
  0
VERTEX
  8
0
 10
1446.91901875
 20
4381.87133600
  0
VERTEX
  8
0
 10
1425.21416475
 20
4381.87133800
  0
VERTEX
  8
0
 10
1404.99125475
 20
4381.87133800
  0
VERTEX
  8
0
 10
1393.51637175
 20
4381.87133800
  0
VERTEX
  8
0
 10
1384.87250175
 20
4381.87133800
  0
VERTEX
  8
0
 10
1363.16157375
 20
4381.87133600
  0
VERTEX
  8
0
 10
1348.01443875
 20
4381.87133900
  0
VERTEX
  8
0
 10
1329.14398075
 20
4381.87134000
  0
VERTEX
  8
0
 10
1306.95436575
 20
4381.87134000
  0
VERTEX
  8
0
 10
1277.52475575
 20
4381.87133700
  0
VERTEX
  8
0
 10
1264.32413675
 20
4381.87133500
  0
VERTEX
  8
0
 10
1257.68855775
 20
4381.87133500
  0
VERTEX
  8
0
 10
1248.56772475
 20
4381.87133500
  0
VERTEX
  8
0
 10
1222.64555275
 20
4381.87133600
  0
VERTEX
  8
0
 10
1220.82400075
 20
4381.87133900
  0
VERTEX
  8
0
 10
1220.05144675
 20
4381.87133900
  0
VERTEX
  8
0
 10
1205.54828775
 20
4381.87126500
  0
VERTEX
  8
0
 10
1203.35191475
 20
4381.87069400
  0
VERTEX
  8
0
 10
1198.04218075
 20
4381.86505500
  0
SEQEND
  0
POLYLINE
  8
boundary
 62
256
 66
   1
 39
211.000000
 70
    1
  0
VERTEX
  8
0
 10
587.75756275
 20
4313.73817800
  0
VERTEX
  8
0
 10
587.75758175
 20
4299.00179900
  0
VERTEX
  8
0
 10
587.75758375
 20
4283.62436400
  0
VERTEX
  8
0
 10
587.75758175
 20
4276.15207100
  0
VERTEX
  8
0
 10
588.61787875
 20
4275.15207400
  0
VERTEX
  8
0
 10
835.94133875
 20
4275.15207400
  0
VERTEX
  8
0
 10
835.94133975
 20
4255.40607400
  0
VERTEX
  8
0
 10
588.61787275
 20
4255.40607500
  0
VERTEX
  8
0
 10
587.75757475
 20
4254.40607500
  0
VERTEX
  8
0
 10
587.75755775
 20
4203.49061900
  0
VERTEX
  8
0
 10
587.75756575
 20
4189.47688500
  0
VERTEX
  8
0
 10
587.75760675
 20
4118.36939500
  0
VERTEX
  8
0
 10
587.75761175
 20
4104.65748700
  0
VERTEX
  8
0
 10
587.75760575
 20
4088.80406100
  0
VERTEX
  8
0
 10
587.75762575
 20
4012.08642400
  0
VERTEX
  8
0
 10
587.75761775
 20
3971.35207100
  0
VERTEX
  8
0
 10
588.61791475
 20
3970.35207300
  0
VERTEX
  8
0
 10
822.60602675
 20
3970.35207500
  0
VERTEX
  8
0
 10
822.60602975
 20
3950.60607500
  0
VERTEX
  8
0
 10
588.61791375
 20
3950.60607200
  0
VERTEX
  8
0
 10
587.75761475
 20
3949.60607600
  0
VERTEX
  8
0
 10
587.75760975
 20
3911.65915100
  0
VERTEX
  8
0
 10
587.75762275
 20
3874.96293500
  0
VERTEX
  8
0
 10
587.75762875
 20
3827.42783900
  0
VERTEX
  8
0
 10
587.75762275
 20
3797.22501000
  0
VERTEX
  8
0
 10
587.75762175
 20
3766.53468500
  0
VERTEX
  8
0
 10
587.75761975
 20
3726.94836500
  0
VERTEX
  8
0
 10
587.75760675
 20
3687.82508500
  0
VERTEX
  8
0
 10
587.75760775
 20
3666.55207200
  0
VERTEX
  8
0
 10
588.61790575
 20
3665.55207400
  0
VERTEX
  8
0
 10
839.33078175
 20
3665.55207400
  0
VERTEX
  8
0
 10
839.33077975
 20
3645.80607300
  0
VERTEX
  8
0
 10
588.61790075
 20
3645.80607300
  0
VERTEX
  8
0
 10
587.75759975
 20
3644.80607700
  0
VERTEX
  8
0
 10
587.75759475
 20
3630.55180400
  0
VERTEX
  8
0
 10
587.75759075
 20
3587.84255100
  0
VERTEX
  8
0
 10
587.75761275
 20
3524.56587700
  0
VERTEX
  8
0
 10
587.75762075
 20
3510.43179100
  0
VERTEX
  8
0
 10
587.75761275
 20
3500.35470700
  0
VERTEX
  8
0
 10
587.75757875
 20
3429.78337000
  0
VERTEX
  8
0
 10
587.75758075
 20
3361.75207200
  0
VERTEX
  8
0
 10
588.61788075
 20
3360.75207500
  0
VERTEX
  8
0
 10
839.91733475
 20
3360.75207300
  0
VERTEX
  8
0
 10
839.91733175
 20
3341.00607600
  0
VERTEX
  8
0
 10
588.61787475
 20
3341.00607400
  0
VERTEX
  8
0
 10
587.75757675
 20
3340.00607500
  0
VERTEX
  8
0
 10
587.75757375
 20
3331.50903900
  0
VERTEX
  8
0
 10
587.75757475
 20
3314.73195300
  0
VERTEX
  8
0
 10
587.75758075
 20
3234.46508300
  0
VERTEX
  8
0
 10
587.75757375
 20
3202.28792000
  0
VERTEX
  8
0
 10
587.75756775
 20
3181.00072900
  0
VERTEX
  8
0
 10
587.75759175
 20
3139.59214100
  0
VERTEX
  8
0
 10
587.75761475
 20
3076.65783600
  0
VERTEX
  8
0
 10
587.75761475
 20
3060.22240900
  0
VERTEX
  8
0
 10
587.75761975
 20
3056.95207300
  0
VERTEX
  8
0
 10
588.61791775
 20
3055.95207500
  0
VERTEX
  8
0
 10
822.63879775
 20
3055.95207300
  0
VERTEX
  8
0
 10
822.63879475
 20
3036.20607300
  0
VERTEX
  8
0
 10
588.61794075
 20
3036.20607400
  0
VERTEX
  8
0
 10
587.75763975
 20
3035.20607300
  0
VERTEX
  8
0
 10
587.75765275
 20
3021.63775700
  0
VERTEX
  8
0
 10
587.75760675
 20
2968.09195000
  0
VERTEX
  8
0
 10
587.75760675
 20
2964.50437600
  0
VERTEX
  8
0
 10
587.75760975
 20
2960.48327700
  0
VERTEX
  8
0
 10
587.75760975
 20
2893.18627000
  0
VERTEX
  8
0
 10
587.75760175
 20
2834.66895200
  0
VERTEX
  8
0
 10
587.75761475
 20
2804.15820900
  0
VERTEX
  8
0
 10
587.75759575
 20
2765.35013800
  0
VERTEX
  8
0
 10
587.75760175
 20
2752.15207300
  0
VERTEX
  8
0
 10
588.61789875
 20
2751.15207300
  0
VERTEX
  8
0
 10
835.90443775
 20
2751.15207500
  0
VERTEX
  8
0
 10
835.90443875
 20
2731.40607500
  0
VERTEX
  8
0
 10
588.61790475
 20
2731.40607200
  0
VERTEX
  8
0
 10
587.75760575
 20
2730.40607600
  0
VERTEX
  8
0
 10
587.75761075
 20
2706.76027000
  0
VERTEX
  8
0
 10
587.75762075
 20
2660.28593400
  0
VERTEX
  8
0
 10
587.75761675
 20
2650.27340000
  0
VERTEX
  8
0
 10
587.75764075
 20
2641.92846500
  0
VERTEX
  8
0
 10
587.75762575
 20
2637.28468800
  0
VERTEX
  8
0
 10
587.75768175
 20
2631.35323400
  0
VERTEX
  8
0
 10
587.75770575
 20
2630.70324300
  0
VERTEX
  8
0
 10
587.75666475
 20
2626.65988800
  0
VERTEX
  8
0
 10
588.68220975
 20
2626.27660000
  0
VERTEX
  8
0
 10
592.61102275
 20
2625.50797600
  0
VERTEX
  8
0
 10
595.40518375
 20
2625.50836500
  0
VERTEX
  8
0
 10
597.32340975
 20
2625.50764900
  0
VERTEX
  8
0
 10
605.84986875
 20
2625.50740900
  0
VERTEX
  8
0
 10
607.98715275
 20
2625.50742900
  0
VERTEX
  8
0
 10
609.39957775
 20
2625.50741000
  0
VERTEX
  8
0
 10
666.52330275
 20
2625.50740900
  0
VERTEX
  8
0
 10
674.68448875
 20
2625.50741300
  0
VERTEX
  8
0
 10
683.53932875
 20
2625.50740900
  0
VERTEX
  8
0
 10
782.55124575
 20
2625.50741200
  0
VERTEX
  8
0
 10
812.51756275
 20
2625.50741000
  0
VERTEX
  8
0
 10
831.21923075
 20
2625.50741200
  0
VERTEX
  8
0
 10
841.70945775
 20
2625.50740900
  0
VERTEX
  8
0
 10
858.06352275
 20
2625.50740800
  0
VERTEX
  8
0
 10
871.63109375
 20
2625.50741000
  0
VERTEX
  8
0
 10
907.17539975
 20
2625.50740800
  0
VERTEX
  8
0
 10
921.16532575
 20
2625.50741000
  0
VERTEX
  8
0
 10
930.44094275
 20
2625.50740800
  0
VERTEX
  8
0
 10
937.77353075
 20
2625.51181400
  0
VERTEX
  8
0
 10
943.04160575
 20
2625.50886000
  0
VERTEX
  8
0
 10
945.63738875
 20
2624.63970200
  0
VERTEX
  8
0
 10
947.81762075
 20
2621.39425700
  0
VERTEX
  8
0
 10
947.81615975
 20
2620.21469900
  0
VERTEX
  8
0
 10
947.81302075
 20
2609.94175700
  0
VERTEX
  8
0
 10
947.81099375
 20
2608.55268100
  0
VERTEX
  8
0
 10
947.81285975
 20
2606.11196600
  0
VERTEX
  8
0
 10
947.81110275
 20
2589.84267600
  0
VERTEX
  8
0
 10
947.81769975
 20
2565.04259600
  0
VERTEX
  8
0
 10
947.81976775
 20
2555.00893900
  0
VERTEX
  8
0
 10
947.86947775
 20
2547.77203500
  0
VERTEX
  8
0
 10
947.98464975
 20
2542.41226700
  0
VERTEX
  8
0
 10
948.17528875
 20
2539.19784200
  0
VERTEX
  8
0
 10
948.24084275
 20
2538.10039900
  0
VERTEX
  8
0
 10
948.38416575
 20
2537.00356100
  0
VERTEX
  8
0
 10
948.77597075
 20
2533.99152300
  0
VERTEX
  8
0
 10
950.42572175
 20
2530.34814400
  0
VERTEX
  8
0
 10
950.72370275
 20
2529.40037100
  0
VERTEX
  8
0
 10
955.45646575
 20
2529.94968100
  0
VERTEX
  8
0
 10
956.14259475
 20
2529.86893600
  0
VERTEX
  8
0
 10
956.65690975
 20
2530.21286500
  0
VERTEX
  8
0
 10
960.18514875
 20
2532.62430400
  0
VERTEX
  8
0
 10
961.72928075
 20
2533.65470600
  0
VERTEX
  8
0
 10
964.73446275
 20
2535.66909400
  0
VERTEX
  8
0
 10
969.85477775
 20
2539.12392300
  0
VERTEX
  8
0
 10
970.56045475
 20
2539.52952300
  0
VERTEX
  8
0
 10
979.77918675
 20
2543.14676700
  0
VERTEX
  8
0
 10
981.89143875
 20
2544.12497000
  0
VERTEX
  8
0
 10
983.60948975
 20
2544.34604200
  0
VERTEX
  8
0
 10
990.08943775
 20
2545.44425200
  0
VERTEX
  8
0
 10
993.15699675
 20
2545.78186800
  0
VERTEX
  8
0
 10
999.61311675
 20
2545.99259800
  0
VERTEX
  8
0
 10
1024.58070775
 20
2546.86846800
  0
VERTEX
  8
0
 10
1027.06456475
 20
2547.33302700
  0
VERTEX
  8
0
 10
1027.67539875
 20
2547.44326800
  0
VERTEX
  8
0
 10
1030.41047175
 20
2547.94654600
  0
VERTEX
  8
0
 10
1032.21799275
 20
2548.29554200
  0
VERTEX
  8
0
 10
1033.69956275
 20
2548.58168200
  0
VERTEX
  8
0
 10
1035.36109575
 20
2549.78408600
  0
VERTEX
  8
0
 10
1037.18919475
 20
2551.20256100
  0
VERTEX
  8
0
 10
1039.12608175
 20
2553.11921800
  0
VERTEX
  8
0
 10
1040.59382475
 20
2554.64031600
  0
VERTEX
  8
0
 10
1041.82516675
 20
2556.88489800
  0
VERTEX
  8
0
 10
1044.82920975
 20
2562.31605200
  0
VERTEX
  8
0
 10
1047.43657075
 20
2566.95041500
  0
VERTEX
  8
0
 10
1048.80977675
 20
2570.62633100
  0
VERTEX
  8
0
 10
1056.33438175
 20
2592.27869500
  0
VERTEX
  8
0
 10
1058.39124975
 20
2600.12742700
  0
VERTEX
  8
0
 10
1066.52986175
 20
2632.98331800
  0
VERTEX
  8
0
 10
1073.32721675
 20
2669.04569700
  0
VERTEX
  8
0
 10
1075.91594275
 20
2682.14352100
  0
VERTEX
  8
0
 10
1081.67618775
 20
2725.83567000
  0
VERTEX
  8
0
 10
1083.50779675
 20
2739.78298000
  0
VERTEX
  8
0
 10
1084.54319975
 20
2754.54395100
  0
VERTEX
  8
0
 10
1086.81824975
 20
2798.17013500
  0
VERTEX
  8
0
 10
1085.10273975
 20
2841.90351100
  0
VERTEX
  8
0
 10
1084.60461775
 20
2851.82125600
  0
VERTEX
  8
0
 10
1079.39220375
 20
2892.44534500
  0
VERTEX
  8
0
 10
1078.27440575
 20
2900.79867400
  0
VERTEX
  8
0
 10
1075.29219575
 20
2917.00401600
  0
VERTEX
  8
0
 10
1066.11596975
 20
2967.60055900
  0
VERTEX
  8
0
 10
1062.69536975
 20
2986.16635000
  0
VERTEX
  8
0
 10
1059.19766475
 20
3015.51239200
  0
VERTEX
  8
0
 10
1058.49099075
 20
3021.59628300
  0
VERTEX
  8
0
 10
1058.34890775
 20
3024.89710500
  0
VERTEX
  8
0
 10
1057.19640575
 20
3047.56680400
  0
VERTEX
  8
0
 10
1056.92970475
 20
3052.52450200
  0
VERTEX
  8
0
 10
1057.48120475
 20
3067.36939000
  0
VERTEX
  8
0
 10
1057.90342875
 20
3078.82749100
  0
VERTEX
  8
0
 10
1058.07718675
 20
3079.98566300
  0
VERTEX
  8
0
 10
1061.49139475
 20
3101.48783400
  0
VERTEX
  8
0
 10
1064.18980475
 20
3108.17216200
  0
VERTEX
  8
0
 10
1067.73615875
 20
3117.36473500
  0
VERTEX
  8
0
 10
1069.54845975
 20
3119.97055400
  0
VERTEX
  8
0
 10
1074.51266875
 20
3127.09241800
  0
VERTEX
  8
0
 10
1081.82942975
 20
3134.14338100
  0
VERTEX
  8
0
 10
1082.41927475
 20
3134.74363500
  0
VERTEX
  8
0
 10
1083.71488975
 20
3135.69586300
  0
VERTEX
  8
0
 10
1088.31290975
 20
3139.01446400
  0
VERTEX
  8
0
 10
1088.94263775
 20
3139.47301700
  0
VERTEX
  8
0
 10
1090.54519075
 20
3140.69975700
  0
VERTEX
  8
0
 10
1092.10644075
 20
3141.89061200
  0
VERTEX
  8
0
 10
1093.39493975
 20
3146.18208400
  0
VERTEX
  8
0
 10
1093.76152575
 20
3147.25193000
  0
VERTEX
  8
0
 10
1093.95220875
 20
3148.16134300
  0
VERTEX
  8
0
 10
1095.36753075
 20
3152.16137700
  0
VERTEX
  8
0
 10
1095.88316575
 20
3152.89877500
  0
VERTEX
  8
0
 10
1097.72453875
 20
3155.80372400
  0
VERTEX
  8
0
 10
1097.82216675
 20
3157.25781200
  0
VERTEX
  8
0
 10
1098.00655775
 20
3160.09499500
  0
VERTEX
  8
0
 10
1098.02901175
 20
3160.82935400
  0
VERTEX
  8
0
 10
1098.07919375
 20
3162.48312600
  0
VERTEX
  8
0
 10
1098.26239875
 20
3168.26368500
  0
VERTEX
  8
0
 10
1098.49619875
 20
3175.25674600
  0
VERTEX
  8
0
 10
1098.50719075
 20
3179.12223600
  0
VERTEX
  8
0
 10
1098.19512275
 20
3201.34764600
  0
VERTEX
  8
0
 10
1098.18306275
 20
3203.45978400
  0
VERTEX
  8
0
 10
1098.12863475
 20
3204.56139200
  0
VERTEX
  8
0
 10
1097.54393375
 20
3211.08862100
  0
VERTEX
  8
0
 10
1096.02147375
 20
3231.32532700
  0
VERTEX
  8
0
 10
1093.75284575
 20
3270.00407400
  0
VERTEX
  8
0
 10
1093.18929175
 20
3290.57850700
  0
VERTEX
  8
0
 10
1092.90928075
 20
3297.93165600
  0
VERTEX
  8
0
 10
1092.84593675
 20
3317.46475400
  0
VERTEX
  8
0
 10
1092.36291675
 20
3337.67223900
  0
VERTEX
  8
0
 10
1091.77154075
 20
3399.62234800
  0
VERTEX
  8
0
 10
1091.40474375
 20
3419.54383300
  0
VERTEX
  8
0
 10
1091.43478675
 20
3459.79301300
  0
VERTEX
  8
0
 10
1091.47327075
 20
3482.28873400
  0
VERTEX
  8
0
 10
1091.31832875
 20
3499.44941500
  0
VERTEX
  8
0
 10
1091.17378875
 20
3570.41552500
  0
VERTEX
  8
0
 10
1091.16939075
 20
3587.15900200
  0
VERTEX
  8
0
 10
1091.16875775
 20
3595.43652500
  0
VERTEX
  8
0
 10
1091.15783175
 20
3646.40372200
  0
VERTEX
  8
0
 10
1091.15466075
 20
3672.66619500
  0
VERTEX
  8
0
 10
1091.13930675
 20
3758.46372800
  0
VERTEX
  8
0
 10
1091.13917975
 20
3760.82541400
  0
VERTEX
  8
0
 10
1091.13892575
 20
3761.75146900
  0
VERTEX
  8
0
 10
1091.13825675
 20
3763.85869400
  0
VERTEX
  8
0
 10
1091.12059975
 20
3841.29315600
  0
VERTEX
  8
0
 10
1091.11900375
 20
3846.50975800
  0
VERTEX
  8
0
 10
1091.11799475
 20
3850.49792100
  0
VERTEX
  8
0
 10
1091.11668375
 20
3854.61136400
  0
VERTEX
  8
0
 10
1091.11586075
 20
3856.00220400
  0
VERTEX
  8
0
 10
1091.42784975
 20
3858.67010200
  0
VERTEX
  8
0
 10
1091.77784375
 20
3859.28616900
  0
VERTEX
  8
0
 10
1091.44512075
 20
3860.32719300
  0
VERTEX
  8
0
 10
1090.89456475
 20
3865.60247200
  0
VERTEX
  8
0
 10
1088.90599975
 20
3867.07338800
  0
VERTEX
  8
0
 10
1086.76059875
 20
3868.66745300
  0
VERTEX
  8
0
 10
1085.71691375
 20
3869.41190900
  0
VERTEX
  8
0
 10
1084.64652975
 20
3870.16683500
  0
VERTEX
  8
0
 10
1083.01458475
 20
3871.32120600
  0
VERTEX
  8
0
 10
1081.49835475
 20
3872.69974000
  0
VERTEX
  8
0
 10
1074.99062075
 20
3878.86804500
  0
VERTEX
  8
0
 10
1070.79196775
 20
3885.10377000
  0
VERTEX
  8
0
 10
1067.58801675
 20
3889.78292700
  0
VERTEX
  8
0
 10
1063.15804975
 20
3901.06236800
  0
VERTEX
  8
0
 10
1061.99564675
 20
3903.87884500
  0
VERTEX
  8
0
 10
1058.79414475
 20
3922.37056600
  0
VERTEX
  8
0
 10
1057.98368075
 20
3927.18147400
  0
VERTEX
  8
0
 10
1057.84848875
 20
3931.44442800
  0
VERTEX
  8
0
 10
1056.97291575
 20
3958.18258700
  0
VERTEX
  8
0
 10
1058.78186475
 20
3987.95560000
  0
VERTEX
  8
0
 10
1062.00324575
 20
4012.50829900
  0
VERTEX
  8
0
 10
1063.03408775
 20
4020.52533600
  0
VERTEX
  8
0
 10
1075.15812075
 20
4088.48718900
  0
VERTEX
  8
0
 10
1078.23017075
 20
4105.51618400
  0
VERTEX
  8
0
 10
1079.40310475
 20
4113.76560800
  0
VERTEX
  8
0
 10
1084.45501575
 20
4153.03152100
  0
VERTEX
  8
0
 10
1085.17890575
 20
4166.53870900
  0
VERTEX
  8
0
 10
1086.86070075
 20
4206.76996000
  0
VERTEX
  8
0
 10
1084.75222375
 20
4249.62905300
  0
VERTEX
  8
0
 10
1083.88552675
 20
4264.07578700
  0
VERTEX
  8
0
 10
1078.43171275
 20
4306.53785100
  0
VERTEX
  8
0
 10
1076.36658275
 20
4321.79218000
  0
VERTEX
  8
0
 10
1073.56894575
 20
4335.91700900
  0
VERTEX
  8
0
 10
1066.21697775
 20
4374.98988400
  0
VERTEX
  8
0
 10
1058.03503475
 20
4407.73883200
  0
VERTEX
  8
0
 10
1056.07331975
 20
4415.09050800
  0
VERTEX
  8
0
 10
1054.47320275
 20
4419.46603600
  0
VERTEX
  8
0
 10
1047.28226175
 20
4439.68413200
  0
VERTEX
  8
0
 10
1044.38739075
 20
4445.24133800
  0
VERTEX
  8
0
 10
1042.31485075
 20
4448.96103500
  0
VERTEX
  8
0
 10
1041.85712075
 20
4449.73301400
  0
VERTEX
  8
0
 10
1041.52265075
 20
4450.30281600
  0
VERTEX
  8
0
 10
1040.74615075
 20
4451.54247800
  0
VERTEX
  8
0
 10
1039.73400375
 20
4453.15520000
  0
VERTEX
  8
0
 10
1038.02980775
 20
4454.63620300
  0
VERTEX
  8
0
 10
1036.73294375
 20
4455.76451100
  0
VERTEX
  8
0
 10
1034.64827875
 20
4457.28647300
  0
VERTEX
  8
0
 10
1033.50394475
 20
4458.02586400
  0
VERTEX
  8
0
 10
1032.07256875
 20
4458.30129500
  0
VERTEX
  8
0
 10
1030.30185975
 20
4458.64321900
  0
VERTEX
  8
0
 10
1027.61682775
 20
4459.13627500
  0
VERTEX
  8
0
 10
1024.13986875
 20
4459.76972200
  0
VERTEX
  8
0
 10
1008.49364975
 20
4460.04814000
  0
VERTEX
  8
0
 10
999.59246875
 20
4460.20298400
  0
VERTEX
  8
0
 10
996.31567275
 20
4460.53703700
  0
VERTEX
  8
0
 10
983.86728675
 20
4461.92485600
  0
VERTEX
  8
0
 10
979.67137675
 20
4462.88344800
  0
VERTEX
  8
0
 10
972.88234675
 20
4465.92014500
  0
VERTEX
  8
0
 10
971.48370575
 20
4466.51471600
  0
VERTEX
  8
0
 10
966.67721275
 20
4469.29819800
  0
VERTEX
  8
0
 10
962.10731775
 20
4472.52496000
  0
VERTEX
  8
0
 10
961.17394175
 20
4473.21562900
  0
VERTEX
  8
0
 10
959.61460375
 20
4474.36712000
  0
VERTEX
  8
0
 10
958.28517675
 20
4475.35204000
  0
VERTEX
  8
0
 10
956.75224575
 20
4476.29675600
  0
VERTEX
  8
0
 10
955.38208275
 20
4477.12111200
  0
VERTEX
  8
0
 10
951.14675775
 20
4475.78695900
  0
VERTEX
  8
0
 10
949.42114575
 20
4475.13680400
  0
VERTEX
  8
0
 10
949.16765975
 20
4473.88467600
  0
VERTEX
  8
0
 10
948.44222675
 20
4470.42279600
  0
VERTEX
  8
0
 10
948.35840575
 20
4469.32931800
  0
VERTEX
  8
0
 10
948.27286075
 20
4468.35681100
  0
VERTEX
  8
0
 10
947.94506575
 20
4462.56669100
  0
VERTEX
  8
0
 10
947.90425075
 20
4461.35992800
  0
VERTEX
  8
0
 10
947.87069375
 20
4437.56885700
  0
VERTEX
  8
0
 10
947.81452575
 20
4417.02753600
  0
VERTEX
  8
0
 10
947.81742675
 20
4414.81221100
  0
VERTEX
  8
0
 10
947.82740775
 20
4407.58443900
  0
VERTEX
  8
0
 10
947.81585875
 20
4395.20561700
  0
VERTEX
  8
0
 10
947.81682775
 20
4393.03159800
  0
VERTEX
  8
0
 10
947.81214475
 20
4389.02317200
  0
VERTEX
  8
0
 10
947.81101975
 20
4388.44909400
  0
VERTEX
  8
0
 10
947.82078075
 20
4387.67764400
  0
VERTEX
  8
0
 10
947.84371975
 20
4384.56958000
  0
VERTEX
  8
0
 10
947.29630775
 20
4383.43298600
  0
VERTEX
  8
0
 10
943.92888875
 20
4381.05462300
  0
VERTEX
  8
0
 10
942.10016275
 20
4381.05563700
  0
VERTEX
  8
0
 10
938.65314575
 20
4381.06075000
  0
VERTEX
  8
0
 10
936.77539275
 20
4381.06093600
  0
VERTEX
  8
0
 10
932.48583875
 20
4381.06097200
  0
VERTEX
  8
0
 10
919.46178575
 20
4381.06091300
  0
VERTEX
  8
0
 10
915.67740675
 20
4381.06091000
  0
VERTEX
  8
0
 10
913.97479075
 20
4381.06091000
  0
VERTEX
  8
0
 10
903.70973975
 20
4381.06091100
  0
VERTEX
  8
0
 10
859.71628575
 20
4381.06091200
  0
VERTEX
  8
0
 10
849.09421775
 20
4381.06091200
  0
VERTEX
  8
0
 10
839.55371475
 20
4381.06091300
  0
VERTEX
  8
0
 10
757.85478875
 20
4381.06091100
  0
VERTEX
  8
0
 10
756.43182675
 20
4381.06091200
  0
VERTEX
  8
0
 10
739.09998975
 20
4381.06091000
  0
VERTEX
  8
0
 10
669.53033075
 20
4381.06091200
  0
VERTEX
  8
0
 10
663.83953075
 20
4381.06091300
  0
VERTEX
  8
0
 10
658.84127375
 20
4381.06091300
  0
VERTEX
  8
0
 10
647.29791175
 20
4381.06091400
  0
VERTEX
  8
0
 10
609.03851875
 20
4381.06091200
  0
VERTEX
  8
0
 10
600.10718075
 20
4381.06091000
  0
VERTEX
  8
0
 10
597.20641175
 20
4381.06091000
  0
VERTEX
  8
0
 10
594.50801575
 20
4381.05892400
  0
VERTEX
  8
0
 10
592.47608275
 20
4381.05884700
  0
VERTEX
  8
0
 10
589.34596175
 20
4381.06082800
  0
VERTEX
  8
0
 10
588.78295275
 20
4380.65463800
  0
VERTEX
  8
0
 10
587.75995975
 20
4378.55936400
  0
VERTEX
  8
0
 10
587.75942175
 20
4376.51998200
  0
VERTEX
  8
0
 10
587.75837575
 20
4374.53327100
  0
VERTEX
  8
0
 10
587.75909375
 20
4371.01409200
  0
VERTEX
  8
0
 10
587.75760175
 20
4366.82213100
  0
VERTEX
  8
0
 10
587.75758775
 20
4348.75925000
  0
VERTEX
  8
0
 10
587.75759075
 20
4347.48036000
  0
VERTEX
  8
0
 10
587.75758875
 20
4345.26380900
  0
VERTEX
  8
0
 10
587.75756275
 20
4313.73817800
  0
SEQEND
  0
POLYLINE
  8
Default_Layer
 62
256
 66
   1
 39
0.000000
 70
    0
  0
VERTEX
  8
0
 10
733.39294024
 20
4781.41440820
  0
VERTEX
  8
0
 10
733.48930581
 20
4788.51973676
  0
VERTEX
  8
0
 10
733.62126401
 20
4789.79345037
  0
VERTEX
  8
0
 10
733.96811699
 20
4790.99003267
  0
VERTEX
  8
0
 10
734.50945998
 20
4792.08950952
  0
VERTEX
  8
0
 10
735.22488524
 20
4793.07190684
  0
VERTEX
  8
0
 10
736.09398803
 20
4793.91725051
  0
VERTEX
  8
0
 10
737.09635957
 20
4794.60556545
  0
VERTEX
  8
0
 10
738.21159411
 20
4795.11687656
  0
VERTEX
  8
0
 10
739.41928592
 20
4795.43121073
  0
VERTEX
  8
0
 10
740.69902720
 20
4795.52859187
  0
VERTEX
  8
0
 10
744.25670802
 20
4795.48034105
  0
VERTEX
  8
0
 10
745.53340663
 20
4795.34828836
  0
VERTEX
  8
0
 10
746.73231450
 20
4795.00131484
  0
VERTEX
  8
0
 10
747.83353912
 20
4794.45994314
  0
VERTEX
  8
0
 10
748.81719193
 20
4793.74469286
  0
VERTEX
  8
0
 10
749.66338140
 20
4792.87608565
  0
VERTEX
  8
0
 10
750.35221799
 20
4791.87464312
  0
VERTEX
  8
0
 10
750.86381116
 20
4790.76088589
  0
VERTEX
  8
0
 10
751.17827037
 20
4789.55533459
  0
VERTEX
  8
0
 10
751.27570507
 20
4788.27850985
  0
VERTEX
  8
0
 10
751.14364304
 20
4787.00215540
  0
VERTEX
  8
0
 10
750.79658604
 20
4785.80417174
  0
VERTEX
  8
0
 10
750.25497047
 20
4784.70428555
  0
VERTEX
  8
0
 10
749.53923271
 20
4783.72222249
  0
VERTEX
  8
0
 10
748.66980916
 20
4782.87770925
  0
VERTEX
  8
0
 10
747.66713521
 20
4782.19047251
  0
VERTEX
  8
0
 10
746.55164824
 20
4781.68023792
  0
VERTEX
  8
0
 10
745.34378268
 20
4781.36673318
  0
VERTEX
  8
0
 10
744.06397687
 20
4781.26968295
  0
VERTEX
  8
0
 10
733.39294024
 20
4781.41440820
  0
VERTEX
  8
0
 10
731.23773021
 20
4781.60098157
  0
VERTEX
  8
0
 10
729.17036137
 20
4782.08820035
  0
VERTEX
  8
0
 10
727.21664892
 20
4782.85643766
  0
VERTEX
  8
0
 10
725.40241008
 20
4783.88606658
  0
VERTEX
  8
0
 10
723.75346004
 20
4785.15745922
  0
VERTEX
  8
0
 10
722.29561505
 20
4786.65099067
  0
VERTEX
  8
0
 10
721.05469129
 20
4788.34703303
  0
VERTEX
  8
0
 10
720.05650497
 20
4790.22595941
  0
VERTEX
  8
0
 10
719.32687131
 20
4792.26814290
  0
SEQEND
  0
POLYLINE
  8
Default_Layer
 62
256
 66
   1
 39
0.000000
 70
    0
  0
VERTEX
  8
0
 10
715.17044437
 20
4780.76142887
  0
VERTEX
  8
0
 10
715.38742340
 20
4796.75995755
  0
SEQEND
  0
POLYLINE
  8
Default_Layer
 62
256
 66
   1
 39
0.000000
 70
    0
  0
VERTEX
  8
0
 10
1048.91762952
 20
4808.03637529
  0
VERTEX
  8
0
 10
1055.66997419
 20
4801.10031264
  0
VERTEX
  8
0
 10
1024.88800707
 20
4801.51779111
  0
SEQEND
  0
POLYLINE
  8
Default_Layer
 62
256
 66
   1
 39
0.000000
 70
    0
  0
VERTEX
  8
0
 10
1354.74535658
 20
4856.86948318
  0
VERTEX
  8
0
 10
1361.76424479
 20
4849.65962671
  0
VERTEX
  8
0
 10
1329.76718742
 20
4850.09358477
  0
SEQEND
  0
POLYLINE
  8
Default_Layer
 62
256
 66
   1
 39
0.000000
 70
    0
  0
VERTEX
  8
0
 10
1354.48614789
 20
4837.75723185
  0
VERTEX
  8
0
 10
1361.50503609
 20
4830.54737438
  0
VERTEX
  8
0
 10
1329.50797872
 20
4830.98133244
  0
SEQEND
  0
POLYLINE
  8
Default_Layer
 62
256
 66
   1
 39
0.000000
 70
    0
  0
VERTEX
  8
0
 10
1660.07098968
 20
4919.71561067
  0
VERTEX
  8
0
 10
1666.80963197
 20
4912.79362314
  0
VERTEX
  8
0
 10
1636.09012811
 20
4913.21025445
  0
SEQEND
  0
POLYLINE
  8
Default_Layer
 62
256
 66
   1
 39
0.000000
 70
    0
  0
VERTEX
  8
0
 10
1661.51882175
 20
4901.32282299
  0
VERTEX
  8
0
 10
1663.22508435
 20
4900.40370752
  0
VERTEX
  8
0
 10
1664.22350516
 20
4899.67913912
  0
VERTEX
  8
0
 10
1665.05343514
 20
4898.81480980
  0
VERTEX
  8
0
 10
1665.70848774
 20
4897.83675157
  0
VERTEX
  8
0
 10
1666.18227638
 20
4896.77099443
  0
VERTEX
  8
0
 10
1666.46841349
 20
4895.64357140
  0
VERTEX
  8
0
 10
1666.56051250
 20
4894.48051247
  0
VERTEX
  8
0
 10
1666.45218684
 20
4893.30784966
  0
VERTEX
  8
0
 10
1666.13704994
 20
4892.15161497
  0
VERTEX
  8
0
 10
1665.60871322
 20
4891.03783842
  0
VERTEX
  8
0
 10
1664.88333400
 20
4890.04511414
  0
VERTEX
  8
0
 10
1664.01782991
 20
4889.21860140
  0
VERTEX
  8
0
 10
1663.03847965
 20
4888.56539849
  0
VERTEX
  8
0
 10
1661.97156283
 20
4888.09260067
  0
VERTEX
  8
0
 10
1660.84335816
 20
4887.80730623
  0
VERTEX
  8
0
 10
1659.68014429
 20
4887.71661346
  0
VERTEX
  8
0
 10
1658.50819985
 20
4887.82761663
  0
VERTEX
  8
0
 10
1657.35380456
 20
4888.14741601
  0
VERTEX
  8
0
 10
1656.24323604
 20
4888.68310690
  0
VERTEX
  8
0
 10
1656.21905270
 20
4888.69622406
  0
VERTEX
  8
0
 10
1656.19613662
 20
4888.70927803
  0
VERTEX
  8
0
 10
1656.17433106
 20
4888.72236294
  0
VERTEX
  8
0
 10
1656.15347937
 20
4888.73557893
  0
VERTEX
  8
0
 10
1656.13342382
 20
4888.74902114
  0
VERTEX
  8
0
 10
1656.11400674
 20
4888.76278873
  0
VERTEX
  8
0
 10
1656.09507040
 20
4888.77697683
  0
VERTEX
  8
0
 10
1656.07645915
 20
4888.79168457
  0
VERTEX
  8
0
 10
1656.05801426
 20
4888.80700812
  0
VERTEX
  8
0
 10
1635.93362400
 20
4901.68908838
  0
VERTEX
  8
0
 10
1635.74858807
 20
4888.04582209
  0
SEQEND
  0
POLYLINE
  8
Default_Layer
 62
256
 66
   1
 39
0.000000
 70
    0
  0
VERTEX
  8
0
 10
947.89538541
 20
4866.15816676
  0
VERTEX
  8
0
 10
946.93614798
 20
4795.43065026
  0
VERTEX
  8
0
 10
820.51555898
 20
4867.88574755
  0
VERTEX
  8
0
 10
819.55632154
 20
4797.15823105
  0
SEQEND
  0
POLYLINE
  8
Default_Layer
 62
256
 66
   1
 39
0.000000
 70
    0
  0
VERTEX
  8
0
 10
882.59822896
 20
4748.51502372
  0
VERTEX
  8
0
 10
881.65361734
 20
4678.86591405
  0
SEQEND
  0
POLYLINE
  8
Default_Layer
 62
256
 66
   1
 39
0.000000
 70
    0
  0
VERTEX
  8
0
 10
923.40504988
 20
4630.44591241
  0
VERTEX
  8
0
 10
930.48014575
 20
4626.63476123
  0
VERTEX
  8
0
 10
934.62014343
 20
4623.63030366
  0
VERTEX
  8
0
 10
938.06148685
 20
4620.04632338
  0
VERTEX
  8
0
 10
940.77769235
 20
4615.99075846
  0
VERTEX
  8
0
 10
942.74227827
 20
4611.57154896
  0
VERTEX
  8
0
 10
943.92875901
 20
4606.89663698
  0
VERTEX
  8
0
 10
944.31065291
 20
4602.07396157
  0
VERTEX
  8
0
 10
943.86147534
 20
4597.21146281
  0
VERTEX
  8
0
 10
942.55474366
 20
4592.41708076
  0
VERTEX
  8
0
 10
940.36397324
 20
4587.79875753
  0
VERTEX
  8
0
 10
937.35615467
 20
4583.68237959
  0
VERTEX
  8
0
 10
933.76730212
 20
4580.25520755
  0
VERTEX
  8
0
 10
929.70638370
 20
4577.54666936
  0
VERTEX
  8
0
 10
925.28236450
 20
4575.58619404
  0
VERTEX
  8
0
 10
920.60421162
 20
4574.40320858
  0
VERTEX
  8
0
 10
915.78089118
 20
4574.02714296
  0
VERTEX
  8
0
 10
910.92137130
 20
4574.48742615
  0
VERTEX
  8
0
 10
906.13461708
 20
4575.81348617
  0
VERTEX
  8
0
 10
901.52959463
 20
4578.03475301
  0
VERTEX
  8
0
 10
901.42931606
 20
4578.08914691
  0
VERTEX
  8
0
 10
901.33429533
 20
4578.14327248
  0
VERTEX
  8
0
 10
901.24387886
 20
4578.19753363
  0
VERTEX
  8
0
 10
901.15741504
 20
4578.25233222
  0
VERTEX
  8
0
 10
901.07425229
 20
4578.30807213
  0
VERTEX
  8
0
 10
900.99373804
 20
4578.36515825
  0
VERTEX
  8
0
 10
900.91521967
 20
4578.42399146
  0
VERTEX
  8
0
 10
900.83804662
 20
4578.48497763
  0
VERTEX
  8
0
 10
900.76156527
 20
4578.54851765
  0
VERTEX
  8
0
 10
817.31485802
 20
4631.96465022
  0
VERTEX
  8
0
 10
816.54759808
 20
4575.39222294
  0
SEQEND
  0
POLYLINE
  8
Default_Layer
 62
256
 66
   1
 39
0.000000
 70
    1
  0
VERTEX
  8
0
 10
1025.07043224
 20
4785.02560863
  0
VERTEX
  8
0
 10
1025.22681726
 20
4785.30933296
  0
VERTEX
  8
0
 10
1025.40178569
 20
4785.57836092
  0
VERTEX
  8
0
 10
1025.59451689
 20
4785.83198758
  0
VERTEX
  8
0
 10
1025.80419325
 20
4786.06950896
  0
VERTEX
  8
0
 10
1026.02999315
 20
4786.29022214
  0
VERTEX
  8
0
 10
1026.27109596
 20
4786.49342318
  0
VERTEX
  8
0
 10
1026.52668306
 20
4786.67840613
  0
VERTEX
  8
0
 10
1026.79593383
 20
4786.84446904
  0
VERTEX
  8
0
 10
1027.07802865
 20
4786.99090796
  0
VERTEX
  8
0
 10
1029.87514412
 20
4788.13315679
  0
VERTEX
  8
0
 10
1032.74715752
 20
4788.97934368
  0
VERTEX
  8
0
 10
1035.67130295
 20
4789.52977741
  0
VERTEX
  8
0
 10
1038.62481251
 20
4789.78476676
  0
VERTEX
  8
0
 10
1041.58491828
 20
4789.74462051
  0
VERTEX
  8
0
 10
1044.52885336
 20
4789.40964745
  0
VERTEX
  8
0
 10
1047.43384885
 20
4788.78015637
  0
VERTEX
  8
0
 10
1050.27713984
 20
4787.85645602
  0
VERTEX
  8
0
 10
1053.03595642
 20
4786.63885522
  0
VERTEX
  8
0
 10
1053.69135350
 20
4786.23253489
  0
VERTEX
  8
0
 10
1054.24774344
 20
4785.72968634
  0
VERTEX
  8
0
 10
1054.69990009
 20
4785.14677796
  0
VERTEX
  8
0
 10
1055.04259633
 20
4784.50028114
  0
VERTEX
  8
0
 10
1055.27060506
 20
4783.80666629
  0
VERTEX
  8
0
 10
1055.37869712
 20
4783.08240283
  0
VERTEX
  8
0
 10
1055.36164842
 20
4782.34396212
  0
VERTEX
  8
0
 10
1055.21422882
 20
4781.60781362
  0
VERTEX
  8
0
 10
1054.93121319
 20
4780.89042768
  0
VERTEX
  8
0
 10
1054.78240969
 20
4780.61635042
  0
VERTEX
  8
0
 10
1054.61219742
 20
4780.35371755
  0
VERTEX
  8
0
 10
1054.42191275
 20
4780.10380006
  0
VERTEX
  8
0
 10
1054.21289098
 20
4779.86786595
  0
VERTEX
  8
0
 10
1053.98646946
 20
4779.64718520
  0
VERTEX
  8
0
 10
1053.74398453
 20
4779.44302681
  0
VERTEX
  8
0
 10
1053.48677051
 20
4779.25665880
  0
VERTEX
  8
0
 10
1053.21616573
 20
4779.08935114
  0
VERTEX
  8
0
 10
1052.93350453
 20
4778.94237184
  0
VERTEX
  8
0
 10
1050.13688344
 20
4777.79439579
  0
VERTEX
  8
0
 10
1047.26524080
 20
4776.94391247
  0
VERTEX
  8
0
 10
1044.34134256
 20
4776.39061512
  0
VERTEX
  8
0
 10
1041.38795660
 20
4776.13419397
  0
VERTEX
  8
0
 10
1038.42785083
 20
4776.17434022
  0
VERTEX
  8
0
 10
1035.48379215
 20
4776.51074509
  0
VERTEX
  8
0
 10
1032.57854948
 20
4777.14309978
  0
VERTEX
  8
0
 10
1029.73488772
 20
4778.07109655
  0
VERTEX
  8
0
 10
1026.97557676
 20
4779.29442459
  0
VERTEX
  8
0
 10
1026.32353590
 20
4779.70073840
  0
VERTEX
  8
0
 10
1025.76946766
 20
4780.20354846
  0
VERTEX
  8
0
 10
1025.31856454
 20
4780.78619282
  0
VERTEX
  8
0
 10
1024.97602113
 20
4781.43201250
  0
VERTEX
  8
0
 10
1024.74702893
 20
4782.12434558
  0
VERTEX
  8
0
 10
1024.63678150
 20
4782.84653207
  0
VERTEX
  8
0
 10
1024.65047038
 20
4783.58191206
  0
VERTEX
  8
0
 10
1024.79329012
 20
4784.31382456
  0
VERTEX
  8
0
 10
1025.07043224
 20
4785.02560863
  0
SEQEND
  0
POLYLINE
  8
Default_Layer
 62
256
 66
   1
 39
0.000000
 70
    1
  0
VERTEX
  8
0
 10
546.04000899
 20
4540.07735008
  0
VERTEX
  8
0
 10
545.94497766
 20
4541.50118047
  0
VERTEX
  8
0
 10
545.86150045
 20
4542.95360029
  0
VERTEX
  8
0
 10
545.79207538
 20
4544.40675384
  0
VERTEX
  8
0
 10
545.70085431
 20
4547.06518666
  0
VERTEX
  8
0
 10
545.66797864
 20
4548.72746201
  0
VERTEX
  8
0
 10
545.65181024
 20
4550.38996837
  0
VERTEX
  8
0
 10
545.65462800
 20
4553.62508602
  0
VERTEX
  8
0
 10
545.71303900
 20
4556.85943890
  0
VERTEX
  8
0
 10
545.82702456
 20
4560.09232684
  0
VERTEX
  8
0
 10
545.99656603
 20
4563.32304963
  0
VERTEX
  8
0
 10
546.15326875
 20
4565.60387856
  0
VERTEX
  8
0
 10
546.34692720
 20
4567.88177299
  0
VERTEX
  8
0
 10
546.57750050
 20
4570.15629406
  0
VERTEX
  8
0
 10
546.84494774
 20
4572.42700292
  0
VERTEX
  8
0
 10
547.12095357
 20
4574.47828006
  0
VERTEX
  8
0
 10
547.43342355
 20
4576.52426568
  0
VERTEX
  8
0
 10
547.78228080
 20
4578.56448474
  0
VERTEX
  8
0
 10
548.16744845
 20
4580.59846220
  0
VERTEX
  8
0
 10
548.41410045
 20
4581.79660094
  0
VERTEX
  8
0
 10
548.67576661
 20
4582.99147348
  0
VERTEX
  8
0
 10
548.95241228
 20
4584.18294242
  0
VERTEX
  8
0
 10
549.24400280
 20
4585.37087035
  0
VERTEX
  8
0
 10
549.55050354
 20
4586.55511986
  0
VERTEX
  8
0
 10
549.87187985
 20
4587.73555353
  0
VERTEX
  8
0
 10
550.20809708
 20
4588.91203395
  0
VERTEX
  8
0
 10
550.55912060
 20
4590.08442372
  0
VERTEX
  8
0
 10
550.96381691
 20
4591.36218515
  0
VERTEX
  8
0
 10
551.38874095
 20
4592.63324452
  0
VERTEX
  8
0
 10
551.83380432
 20
4593.89736869
  0
VERTEX
  8
0
 10
552.29891867
 20
4595.15432452
  0
VERTEX
  8
0
 10
552.78399560
 20
4596.40387889
  0
VERTEX
  8
0
 10
553.28894674
 20
4597.64579866
  0
VERTEX
  8
0
 10
553.81368371
 20
4598.87985069
  0
VERTEX
  8
0
 10
554.35811813
 20
4600.10580185
  0
VERTEX
  8
0
 10
554.95863122
 20
4601.38063234
  0
VERTEX
  8
0
 10
555.59083069
 20
4602.64015245
  0
VERTEX
  8
0
 10
556.25441789
 20
4603.88378525
  0
VERTEX
  8
0
 10
556.94909416
 20
4605.11095378
  0
VERTEX
  8
0
 10
557.55469238
 20
4606.11320530
  0
VERTEX
  8
0
 10
558.18817839
 20
4607.09819073
  0
VERTEX
  8
0
 10
558.84917534
 20
4608.06534173
  0
VERTEX
  8
0
 10
559.53730638
 20
4609.01409000
  0
VERTEX
  8
0
 10
560.17909038
 20
4609.83949385
  0
VERTEX
  8
0
 10
560.84938586
 20
4610.64203135
  0
VERTEX
  8
0
 10
561.54756903
 20
4611.42098163
  0
VERTEX
  8
0
 10
562.27301609
 20
4612.17562378
  0
VERTEX
  8
0
 10
562.91244480
 20
4612.78877450
  0
VERTEX
  8
0
 10
563.57663577
 20
4613.37507366
  0
VERTEX
  8
0
 10
564.26472545
 20
4613.93379006
  0
VERTEX
  8
0
 10
564.97585027
 20
4614.46419248
  0
VERTEX
  8
0
 10
565.63095854
 20
4614.90440088
  0
VERTEX
  8
0
 10
566.30722846
 20
4615.31119292
  0
VERTEX
  8
0
 10
567.00335445
 20
4615.68382713
  0
VERTEX
  8
0
 10
567.71803093
 20
4616.02156203
  0
VERTEX
  8
0
 10
568.46410359
 20
4616.31936249
  0
VERTEX
  8
0
 10
569.22784908
 20
4616.56676594
  0
VERTEX
  8
0
 10
570.00666069
 20
4616.76302268
  0
VERTEX
  8
0
 10
570.79793172
 20
4616.90738297
  0
VERTEX
  8
0
 10
571.41914577
 20
4616.97595644
  0
VERTEX
  8
0
 10
572.04177411
 20
4617.00871057
  0
VERTEX
  8
0
 10
572.66425410
 20
4617.00578709
  0
VERTEX
  8
0
 10
573.28502307
 20
4616.96732774
  0
VERTEX
  8
0
 10
573.90251836
 20
4616.89347427
  0
VERTEX
  8
0
 10
574.51517731
 20
4616.78436839
  0
VERTEX
  8
0
 10
575.12143727
 20
4616.64015185
  0
VERTEX
  8
0
 10
575.71973557
 20
4616.46096639
  0
VERTEX
  8
0
 10
576.37425284
 20
4616.22595841
  0
VERTEX
  8
0
 10
577.01449523
 20
4615.95649247
  0
VERTEX
  8
0
 10
577.63907224
 20
4615.65319827
  0
VERTEX
  8
0
 10
578.24659335
 20
4615.31670548
  0
VERTEX
  8
0
 10
578.86796003
 20
4614.93494680
  0
VERTEX
  8
0
 10
579.47144193
 20
4614.52672003
  0
VERTEX
  8
0
 10
580.05617459
 20
4614.09263800
  0
VERTEX
  8
0
 10
580.62129350
 20
4613.63331353
  0
VERTEX
  8
0
 10
581.25991692
 20
4613.07309671
  0
VERTEX
  8
0
 10
581.87617687
 20
4612.48935774
  0
VERTEX
  8
0
 10
582.46940900
 20
4611.88275046
  0
VERTEX
  8
0
 10
583.03894892
 20
4611.25392874
  0
VERTEX
  8
0
 10
583.70329165
 20
4610.47141129
  0
VERTEX
  8
0
 10
584.34047074
 20
4609.66748799
  0
VERTEX
  8
0
 10
584.94995728
 20
4608.84284980
  0
VERTEX
  8
0
 10
585.53122232
 20
4607.99818767
  0
VERTEX
  8
0
 10
586.09713053
 20
4607.13096940
  0
VERTEX
  8
0
 10
586.64073961
 20
4606.25011463
  0
VERTEX
  8
0
 10
587.16179743
 20
4605.35604366
  0
VERTEX
  8
0
 10
587.66005190
 20
4604.44917680
  0
VERTEX
  8
0
 10
588.72394896
 20
4602.46646142
  0
VERTEX
  8
0
 10
589.38289598
 20
4601.27467105
  0
VERTEX
  8
0
 10
590.06039314
 20
4600.09317935
  0
VERTEX
  8
0
 10
590.75631688
 20
4598.92219800
  0
VERTEX
  8
0
 10
591.47054360
 20
4597.76193870
  0
VERTEX
  8
0
 10
591.94910747
 20
4597.01271679
  0
VERTEX
  8
0
 10
592.44126079
 20
4596.27223322
  0
VERTEX
  8
0
 10
592.94688108
 20
4595.54066870
  0
VERTEX
  8
0
 10
593.46584585
 20
4594.81820396
  0
VERTEX
  8
0
 10
593.93410722
 20
4594.19423594
  0
VERTEX
  8
0
 10
594.41722250
 20
4593.58157360
  0
VERTEX
  8
0
 10
594.91498220
 20
4592.98047618
  0
VERTEX
  8
0
 10
595.42717684
 20
4592.39120287
  0
VERTEX
  8
0
 10
595.92242300
 20
4591.85645458
  0
VERTEX
  8
0
 10
596.43574756
 20
4591.33893367
  0
VERTEX
  8
0
 10
596.96669088
 20
4590.83908793
  0
VERTEX
  8
0
 10
597.51479331
 20
4590.35736516
  0
VERTEX
  8
0
 10
598.09320756
 20
4589.89299097
  0
VERTEX
  8
0
 10
598.69407746
 20
4589.45816348
  0
VERTEX
  8
0
 10
599.31624624
 20
4589.05367652
  0
VERTEX
  8
0
 10
599.95855714
 20
4588.68032392
  0
VERTEX
  8
0
 10
600.51222948
 20
4588.40024828
  0
VERTEX
  8
0
 10
601.07810643
 20
4588.14782657
  0
VERTEX
  8
0
 10
601.65511898
 20
4587.92338735
  0
VERTEX
  8
0
 10
602.24219812
 20
4587.72725913
  0
VERTEX
  8
0
 10
602.83827484
 20
4587.55977046
  0
VERTEX
  8
0
 10
603.44228014
 20
4587.42124988
  0
VERTEX
  8
0
 10
604.05314499
 20
4587.31202592
  0
VERTEX
  8
0
 10
604.66980040
 20
4587.23242711
  0
VERTEX
  8
0
 10
605.27088794
 20
4587.17828268
  0
VERTEX
  8
0
 10
605.87353537
 20
4587.15173629
  0
VERTEX
  8
0
 10
606.47677109
 20
4587.15280848
  0
VERTEX
  8
0
 10
607.07962348
 20
4587.18151976
  0
VERTEX
  8
0
 10
607.55713710
 20
4587.22886892
  0
VERTEX
  8
0
 10
608.03184506
 20
4587.29464977
  0
VERTEX
  8
0
 10
608.50320879
 20
4587.37873350
  0
VERTEX
  8
0
 10
608.97068976
 20
4587.48099131
  0
VERTEX
  8
0
 10
609.43374941
 20
4587.60129438
  0
VERTEX
  8
0
 10
609.89184919
 20
4587.73951392
  0
VERTEX
  8
0
 10
610.34445056
 20
4587.89552112
  0
VERTEX
  8
0
 10
610.79101495
 20
4588.06918716
  0
VERTEX
  8
0
 10
611.52480099
 20
4588.39437585
  0
VERTEX
  8
0
 10
612.23982603
 20
4588.75691224
  0
VERTEX
  8
0
 10
612.93463390
 20
4589.15600968
  0
VERTEX
  8
0
 10
613.60776843
 20
4589.59088149
  0
VERTEX
  8
0
 10
614.47999739
 20
4590.22453600
  0
VERTEX
  8
0
 10
615.31735528
 20
4590.90147466
  0
VERTEX
  8
0
 10
616.11819791
 20
4591.62029656
  0
VERTEX
  8
0
 10
616.88088104
 20
4592.37960084
  0
VERTEX
  8
0
 10
617.68052343
 20
4593.24657430
  0
VERTEX
  8
0
 10
618.44511092
 20
4594.14334426
  0
VERTEX
  8
0
 10
619.17379360
 20
4595.06887354
  0
VERTEX
  8
0
 10
619.86572156
 20
4596.02212495
  0
VERTEX
  8
0
 10
620.59792586
 20
4597.10051744
  0
VERTEX
  8
0
 10
621.29614307
 20
4598.20036488
  0
VERTEX
  8
0
 10
621.95989203
 20
4599.32088286
  0
VERTEX
  8
0
 10
622.58869158
 20
4600.46128697
  0
VERTEX
  8
0
 10
623.29035130
 20
4601.81371808
  0
VERTEX
  8
0
 10
623.95577215
 20
4603.18365157
  0
VERTEX
  8
0
 10
624.58462016
 20
4604.57037614
  0
VERTEX
  8
0
 10
625.17656135
 20
4605.97318046
  0
VERTEX
  8
0
 10
625.87675913
 20
4607.74613220
  0
VERTEX
  8
0
 10
626.53246104
 20
4609.53534046
  0
VERTEX
  8
0
 10
627.14337873
 20
4611.33998706
  0
VERTEX
  8
0
 10
627.70922383
 20
4613.15925387
  0
VERTEX
  8
0
 10
628.37449517
 20
4615.48296862
  0
VERTEX
  8
0
 10
628.98199773
 20
4617.82173859
  0
VERTEX
  8
0
 10
629.53147202
 20
4620.17451150
  0
VERTEX
  8
0
 10
630.02265852
 20
4622.54023506
  0
VERTEX
  8
0
 10
630.32476793
 20
4624.13453713
  0
VERTEX
  8
0
 10
630.60488122
 20
4625.73253803
  0
VERTEX
  8
0
 10
630.86296720
 20
4627.33401503
  0
VERTEX
  8
0
 10
631.09899467
 20
4628.93874539
  0
VERTEX
  8
0
 10
631.31293243
 20
4630.54650638
  0
VERTEX
  8
0
 10
631.50474928
 20
4632.15707525
  0
VERTEX
  8
0
 10
631.67441402
 20
4633.77022927
  0
VERTEX
  8
0
 10
631.82189546
 20
4635.38574570
  0
VERTEX
  8
0
 10
631.94599941
 20
4636.93857324
  0
VERTEX
  8
0
 10
632.05163615
 20
4638.49236443
  0
VERTEX
  8
0
 10
632.13880716
 20
4640.04695863
  0
VERTEX
  8
0
 10
632.20751392
 20
4641.60219520
  0
VERTEX
  8
0
 10
632.25775793
 20
4643.15791349
  0
VERTEX
  8
0
 10
632.28954065
 20
4644.71395287
  0
VERTEX
  8
0
 10
632.30286357
 20
4646.27015269
  0
VERTEX
  8
0
 10
632.29772818
 20
4647.82635232
  0
VERTEX
  8
0
 10
632.27413596
 20
4649.38239111
  0
VERTEX
  8
0
 10
632.23208839
 20
4650.93810842
  0
VERTEX
  8
0
 10
632.17158696
 20
4652.49334361
  0
VERTEX
  8
0
 10
632.09263314
 20
4654.04793604
  0
VERTEX
  8
0
 10
631.99522842
 20
4655.60172507
  0
VERTEX
  8
0
 10
631.87937429
 20
4657.15455006
  0
VERTEX
  8
0
 10
631.74507222
 20
4658.70625037
  0
VERTEX
  8
0
 10
631.59232369
 20
4660.25666536
  0
VERTEX
  8
0
 10
631.42522920
 20
4661.80771944
  0
VERTEX
  8
0
 10
631.23877397
 20
4663.35644127
  0
VERTEX
  8
0
 10
631.03298490
 20
4664.90265410
  0
VERTEX
  8
0
 10
630.80788889
 20
4666.44618117
  0
VERTEX
  8
0
 10
630.56351286
 20
4667.98684572
  0
VERTEX
  8
0
 10
630.29988371
 20
4669.52447099
  0
VERTEX
  8
0
 10
630.01702834
 20
4671.05888023
  0
VERTEX
  8
0
 10
629.71497367
 20
4672.58989667
  0
VERTEX
  8
0
 10
629.24762686
 20
4674.74231306
  0
VERTEX
  8
0
 10
628.73177586
 20
4676.88360626
  0
VERTEX
  8
0
 10
628.16762329
 20
4679.01297511
  0
VERTEX
  8
0
 10
627.55537176
 20
4681.12961844
  0
VERTEX
  8
0
 10
627.01518075
 20
4682.83745204
  0
VERTEX
  8
0
 10
626.43392284
 20
4684.53179782
  0
VERTEX
  8
0
 10
625.81185613
 20
4686.21193196
  0
VERTEX
  8
0
 10
625.14923874
 20
4687.87713063
  0
VERTEX
  8
0
 10
624.58844928
 20
4689.18416872
  0
VERTEX
  8
0
 10
623.99414518
 20
4690.47640556
  0
VERTEX
  8
0
 10
623.36662600
 20
4691.75321123
  0
VERTEX
  8
0
 10
622.70619133
 20
4693.01395584
  0
VERTEX
  8
0
 10
622.12429999
 20
4694.05067632
  0
VERTEX
  8
0
 10
621.51189412
 20
4695.06978089
  0
VERTEX
  8
0
 10
620.86938267
 20
4696.07061129
  0
VERTEX
  8
0
 10
620.19717462
 20
4697.05250925
  0
VERTEX
  8
0
 10
619.64393724
 20
4697.80775605
  0
VERTEX
  8
0
 10
619.06665020
 20
4698.54490135
  0
VERTEX
  8
0
 10
618.46576771
 20
4699.26338395
  0
VERTEX
  8
0
 10
617.84174404
 20
4699.96264262
  0
VERTEX
  8
0
 10
617.28074558
 20
4700.54802435
  0
VERTEX
  8
0
 10
616.69803955
 20
4701.11189107
  0
VERTEX
  8
0
 10
616.09425870
 20
4701.65365316
  0
VERTEX
  8
0
 10
615.47003578
 20
4702.17272098
  0
VERTEX
  8
0
 10
614.86694876
 20
4702.63253011
  0
VERTEX
  8
0
 10
614.24268071
 20
4703.06306982
  0
VERTEX
  8
0
 10
613.59832058
 20
4703.46362673
  0
VERTEX
  8
0
 10
612.93495731
 20
4703.83348746
  0
VERTEX
  8
0
 10
612.54115813
 20
4704.03305235
  0
VERTEX
  8
0
 10
612.14066603
 20
4704.21811053
  0
VERTEX
  8
0
 10
611.73389503
 20
4704.38851434
  0
VERTEX
  8
0
 10
611.32125915
 20
4704.54411614
  0
VERTEX
  8
0
 10
610.90317243
 20
4704.68476827
  0
VERTEX
  8
0
 10
610.48004889
 20
4704.81032308
  0
VERTEX
  8
0
 10
610.05230256
 20
4704.92063292
  0
VERTEX
  8
0
 10
609.62034746
 20
4705.01555015
  0
VERTEX
  8
0
 10
608.95053234
 20
4705.12338414
  0
VERTEX
  8
0
 10
608.27719679
 20
4705.18849110
  0
VERTEX
  8
0
 10
607.60240190
 20
4705.21099706
  0
VERTEX
  8
0
 10
606.92820872
 20
4705.19102805
  0
VERTEX
  8
0
 10
606.25667833
 20
4705.12871009
  0
VERTEX
  8
0
 10
605.58987180
 20
4705.02416922
  0
VERTEX
  8
0
 10
604.92985018
 20
4704.87753146
  0
VERTEX
  8
0
 10
604.27867456
 20
4704.68892284
  0
VERTEX
  8
0
 10
603.46187102
 20
4704.39291668
  0
VERTEX
  8
0
 10
602.66755356
 20
4704.04450661
  0
VERTEX
  8
0
 10
601.89829602
 20
4703.64492394
  0
VERTEX
  8
0
 10
601.15667226
 20
4703.19539996
  0
VERTEX
  8
0
 10
600.46442712
 20
4702.72296420
  0
VERTEX
  8
0
 10
599.79539478
 20
4702.21964154
  0
VERTEX
  8
0
 10
599.15063071
 20
4701.68626483
  0
VERTEX
  8
0
 10
598.53119041
 20
4701.12366697
  0
VERTEX
  8
0
 10
597.87740301
 20
4700.47975962
  0
VERTEX
  8
0
 10
597.24762368
 20
4699.81327672
  0
VERTEX
  8
0
 10
596.64244944
 20
4699.12487329
  0
VERTEX
  8
0
 10
596.06247736
 20
4698.41520435
  0
VERTEX
  8
0
 10
595.32078648
 20
4697.43825651
  0
VERTEX
  8
0
 10
594.61256675
 20
4696.43773499
  0
VERTEX
  8
0
 10
593.93839170
 20
4695.41447941
  0
VERTEX
  8
0
 10
593.29883482
 20
4694.36932936
  0
VERTEX
  8
0
 10
592.41807004
 20
4692.91131157
  0
VERTEX
  8
0
 10
591.51057368
 20
4691.46957679
  0
VERTEX
  8
0
 10
590.57657637
 20
4690.04448406
  0
VERTEX
  8
0
 10
589.61630875
 20
4688.63639243
  0
VERTEX
  8
0
 10
588.89280780
 20
4687.61852042
  0
VERTEX
  8
0
 10
588.15028066
 20
4686.61426592
  0
VERTEX
  8
0
 10
587.38892375
 20
4685.62388944
  0
VERTEX
  8
0
 10
586.60893349
 20
4684.64765147
  0
VERTEX
  8
0
 10
585.87461898
 20
4683.77238332
  0
VERTEX
  8
0
 10
585.11853299
 20
4682.91566011
  0
VERTEX
  8
0
 10
584.34103440
 20
4682.07787839
  0
VERTEX
  8
0
 10
583.54248211
 20
4681.25943472
  0
VERTEX
  8
0
 10
582.84535325
 20
4680.58768366
  0
VERTEX
  8
0
 10
582.12687639
 20
4679.93865795
  0
VERTEX
  8
0
 10
581.38761920
 20
4679.31285402
  0
VERTEX
  8
0
 10
580.62814933
 20
4678.71076831
  0
VERTEX
  8
0
 10
580.02052124
 20
4678.26483366
  0
VERTEX
  8
0
 10
579.39670610
 20
4677.84176021
  0
VERTEX
  8
0
 10
578.75736306
 20
4677.44197735
  0
VERTEX
  8
0
 10
578.10315128
 20
4677.06591447
  0
VERTEX
  8
0
 10
577.51270266
 20
4676.76004563
  0
VERTEX
  8
0
 10
576.90878260
 20
4676.48189848
  0
VERTEX
  8
0
 10
576.29238849
 20
4676.23190467
  0
VERTEX
  8
0
 10
575.66451772
 20
4676.01049587
  0
VERTEX
  8
0
 10
575.03361663
 20
4675.82667100
  0
VERTEX
  8
0
 10
574.39306691
 20
4675.68169673
  0
VERTEX
  8
0
 10
573.74470136
 20
4675.57592960
  0
VERTEX
  8
0
 10
573.09035274
 20
4675.50972615
  0
VERTEX
  8
0
 10
572.52483386
 20
4675.49151958
  0
VERTEX
  8
0
 10
571.96068680
 20
4675.50635646
  0
VERTEX
  8
0
 10
571.39936464
 20
4675.55398426
  0
VERTEX
  8
0
 10
570.84232047
 20
4675.63415046
  0
VERTEX
  8
0
 10
570.29100736
 20
4675.74660253
  0
VERTEX
  8
0
 10
569.74687840
 20
4675.89108795
  0
VERTEX
  8
0
 10
569.21138667
 20
4676.06735418
  0
VERTEX
  8
0
 10
568.68598525
 20
4676.27514870
  0
VERTEX
  8
0
 10
568.09674195
 20
4676.54501326
  0
VERTEX
  8
0
 10
567.52342831
 20
4676.84557982
  0
VERTEX
  8
0
 10
566.96727043
 20
4677.17616322
  0
VERTEX
  8
0
 10
566.42949440
 20
4677.53607835
  0
VERTEX
  8
0
 10
565.86281970
 20
4677.95230206
  0
VERTEX
  8
0
 10
565.31467142
 20
4678.39161639
  0
VERTEX
  8
0
 10
564.78577098
 20
4678.85341775
  0
VERTEX
  8
0
 10
564.27683981
 20
4679.33710255
  0
VERTEX
  8
0
 10
563.74034517
 20
4679.88178748
  0
VERTEX
  8
0
 10
563.22226537
 20
4680.44335027
  0
VERTEX
  8
0
 10
562.72300767
 20
4681.02133472
  0
VERTEX
  8
0
 10
562.24297935
 20
4681.61528464
  0
VERTEX
  8
0
 10
561.65514666
 20
4682.38361683
  0
VERTEX
  8
0
 10
561.08994120
 20
4683.16812146
  0
VERTEX
  8
0
 10
560.54770428
 20
4683.96831009
  0
VERTEX
  8
0
 10
560.02877723
 20
4684.78369434
  0
VERTEX
  8
0
 10
559.42423629
 20
4685.78247979
  0
VERTEX
  8
0
 10
558.84366018
 20
4686.79487649
  0
VERTEX
  8
0
 10
558.28728404
 20
4687.82046293
  0
VERTEX
  8
0
 10
557.75534304
 20
4688.85881760
  0
VERTEX
  8
0
 10
557.26195043
 20
4689.86325179
  0
VERTEX
  8
0
 10
556.78377008
 20
4690.87477913
  0
VERTEX
  8
0
 10
556.32088031
 20
4691.89323070
  0
VERTEX
  8
0
 10
555.87335941
 20
4692.91843758
  0
VERTEX
  8
0
 10
555.31759672
 20
4694.22689267
  0
VERTEX
  8
0
 10
554.78219220
 20
4695.54334562
  0
VERTEX
  8
0
 10
554.26723043
 20
4696.86756308
  0
VERTEX
  8
0
 10
553.77279603
 20
4698.19931167
  0
VERTEX
  8
0
 10
553.29897359
 20
4699.53835805
  0
VERTEX
  8
0
 10
552.84584771
 20
4700.88446886
  0
VERTEX
  8
0
 10
552.41350300
 20
4702.23741073
  0
VERTEX
  8
0
 10
552.00202405
 20
4703.59695030
  0
VERTEX
  8
0
 10
551.55748616
 20
4705.17403857
  0
VERTEX
  8
0
 10
551.14167276
 20
4706.75835134
  0
VERTEX
  8
0
 10
550.75466644
 20
4708.34950393
  0
VERTEX
  8
0
 10
550.39654976
 20
4709.94711166
  0
VERTEX
  8
0
 10
550.06740533
 20
4711.55078985
  0
VERTEX
  8
0
 10
549.76731571
 20
4713.16015381
  0
VERTEX
  8
0
 10
549.49636351
 20
4714.77481888
  0
VERTEX
  8
0
 10
549.25463129
 20
4716.39440037
  0
VERTEX
  8
0
 10
548.95029273
 20
4718.71249046
  0
VERTEX
  8
0
 10
548.69330230
 20
4721.03592355
  0
VERTEX
  8
0
 10
548.48373109
 20
4723.36399080
  0
VERTEX
  8
0
 10
548.32165020
 20
4725.69598336
  0
VERTEX
  8
0
 10
548.20060891
 20
4727.93807321
  0
VERTEX
  8
0
 10
548.11138615
 20
4730.18150058
  0
VERTEX
  8
0
 10
548.05399274
 20
4732.42593446
  0
VERTEX
  8
0
 10
548.02843948
 20
4734.67104390
  0
VERTEX
  8
0
 10
548.02903241
 20
4737.74942067
  0
VERTEX
  8
0
 10
548.07875235
 20
4740.82719835
  0
VERTEX
  8
0
 10
548.17758544
 20
4743.90380232
  0
VERTEX
  8
0
 10
548.32551780
 20
4746.97865795
  0
VERTEX
  8
0
 10
548.46698034
 20
4749.20130116
  0
VERTEX
  8
0
 10
548.64235051
 20
4751.42144355
  0
VERTEX
  8
0
 10
548.85159543
 20
4753.63870599
  0
VERTEX
  8
0
 10
549.09468225
 20
4755.85270937
  0
VERTEX
  8
0
 10
549.36842812
 20
4758.00957939
  0
VERTEX
  8
0
 10
549.68122218
 20
4760.16106577
  0
VERTEX
  8
0
 10
550.03298429
 20
4762.30665042
  0
VERTEX
  8
0
 10
550.42363433
 20
4764.44581526
  0
VERTEX
  8
0
 10
550.67125513
 20
4765.68489461
  0
VERTEX
  8
0
 10
550.93477957
 20
4766.92060225
  0
VERTEX
  8
0
 10
551.21417082
 20
4768.15278910
  0
VERTEX
  8
0
 10
551.50939204
 20
4769.38130608
  0
VERTEX
  8
0
 10
551.82040640
 20
4770.60600411
  0
VERTEX
  8
0
 10
552.14717704
 20
4771.82673413
  0
VERTEX
  8
0
 10
552.48966713
 20
4773.04334706
  0
VERTEX
  8
0
 10
552.84783983
 20
4774.25569381
  0
VERTEX
  8
0
 10
553.24622335
 20
4775.52903784
  0
VERTEX
  8
0
 10
553.66459509
 20
4776.79583918
  0
VERTEX
  8
0
 10
554.10286948
 20
4778.05586936
  0
VERTEX
  8
0
 10
554.56096095
 20
4779.30889992
  0
VERTEX
  8
0
 10
555.03878393
 20
4780.55470238
  0
VERTEX
  8
0
 10
555.53625285
 20
4781.79304829
  0
VERTEX
  8
0
 10
556.05328214
 20
4783.02370917
  0
VERTEX
  8
0
 10
556.58978623
 20
4784.24645656
  0
VERTEX
  8
0
 10
557.15346553
 20
4785.46125544
  0
VERTEX
  8
0
 10
557.74484617
 20
4786.66291570
  0
VERTEX
  8
0
 10
558.36369378
 20
4787.85097458
  0
VERTEX
  8
0
 10
559.00977400
 20
4789.02496931
  0
VERTEX
  8
0
 10
559.62702678
 20
4790.07736763
  0
VERTEX
  8
0
 10
560.27379530
 20
4791.11200950
  0
VERTEX
  8
0
 10
560.94968855
 20
4792.12828862
  0
VERTEX
  8
0
 10
561.65431554
 20
4793.12559873
  0
VERTEX
  8
0
 10
562.29356936
 20
4793.96955595
  0
VERTEX
  8
0
 10
562.96141028
 20
4794.79119494
  0
VERTEX
  8
0
 10
563.65724172
 20
4795.58980686
  0
VERTEX
  8
0
 10
564.38046709
 20
4796.36468289
  0
VERTEX
  8
0
 10
565.01812407
 20
4796.99550677
  0
VERTEX
  8
0
 10
565.68077075
 20
4797.60010016
  0
VERTEX
  8
0
 10
566.36758077
 20
4798.17773911
  0
VERTEX
  8
0
 10
567.07772777
 20
4798.72769966
  0
VERTEX
  8
0
 10
567.73147531
 20
4799.18534701
  0
VERTEX
  8
0
 10
568.40687918
 20
4799.61026159
  0
VERTEX
  8
0
 10
569.10268409
 20
4800.00169604
  0
VERTEX
  8
0
 10
569.81763473
 20
4800.35890302
  0
VERTEX
  8
0
 10
570.56035718
 20
4800.67537286
  0
VERTEX
  8
0
 10
571.32177604
 20
4800.94238905
  0
VERTEX
  8
0
 10
572.09936997
 20
4801.15915903
  0
VERTEX
  8
0
 10
572.89061761
 20
4801.32489021
  0
VERTEX
  8
0
 10
573.58868567
 20
4801.41796881
  0
VERTEX
  8
0
 10
574.28918250
 20
4801.46572384
  0
VERTEX
  8
0
 10
574.98988854
 20
4801.46836122
  0
VERTEX
  8
0
 10
575.68858424
 20
4801.42608687
  0
VERTEX
  8
0
 10
576.38305004
 20
4801.33910674
  0
VERTEX
  8
0
 10
577.07106638
 20
4801.20762673
  0
VERTEX
  8
0
 10
577.75041371
 20
4801.03185277
  0
VERTEX
  8
0
 10
578.41887248
 20
4800.81199080
  0
VERTEX
  8
0
 10
579.10748824
 20
4800.54165343
  0
VERTEX
  8
0
 10
579.77934484
 20
4800.23415958
  0
VERTEX
  8
0
 10
580.43290569
 20
4799.89026440
  0
VERTEX
  8
0
 10
581.06663418
 20
4799.51072308
  0
VERTEX
  8
0
 10
581.71541782
 20
4799.08059964
  0
VERTEX
  8
0
 10
582.34399456
 20
4798.62271960
  0
VERTEX
  8
0
 10
582.95145393
 20
4798.13777743
  0
VERTEX
  8
0
 10
583.53688547
 20
4797.62646761
  0
VERTEX
  8
0
 10
584.17233311
 20
4797.02898417
  0
VERTEX
  8
0
 10
584.78499075
 20
4796.40907961
  0
VERTEX
  8
0
 10
585.37425169
 20
4795.76739073
  0
VERTEX
  8
0
 10
585.93950925
 20
4795.10455434
  0
VERTEX
  8
0
 10
586.59839152
 20
4794.28201909
  0
VERTEX
  8
0
 10
587.22994312
 20
4793.43913357
  0
VERTEX
  8
0
 10
587.83368201
 20
4792.57656330
  0
VERTEX
  8
0
 10
588.40912615
 20
4791.69497377
  0
VERTEX
  8
0
 10
588.92160980
 20
4790.86942288
  0
VERTEX
  8
0
 10
589.41556058
 20
4790.03304298
  0
VERTEX
  8
0
 10
589.89080288
 20
4789.18613908
  0
VERTEX
  8
0
 10
590.34716108
 20
4788.32901617
  0
VERTEX
  8
0
 10
591.17409569
 20
4786.79712429
  0
VERTEX
  8
0
 10
592.03043953
 20
4785.28128201
  0
VERTEX
  8
0
 10
592.91595349
 20
4783.78190324
  0
VERTEX
  8
0
 10
593.83039846
 20
4782.29940190
  0
VERTEX
  8
0
 10
594.44664040
 20
4781.34851056
  0
VERTEX
  8
0
 10
595.08281394
 20
4780.41068104
  0
VERTEX
  8
0
 10
595.73870659
 20
4779.48621963
  0
VERTEX
  8
0
 10
596.41410583
 20
4778.57543262
  0
VERTEX
  8
0
 10
596.95606405
 20
4777.88114003
  0
VERTEX
  8
0
 10
597.51584745
 20
4777.20099616
  0
VERTEX
  8
0
 10
598.09317259
 20
4776.53533647
  0
VERTEX
  8
0
 10
598.68775603
 20
4775.88449642
  0
VERTEX
  8
0
 10
599.21842185
 20
4775.33799662
  0
VERTEX
  8
0
 10
599.76738721
 20
4774.80977106
  0
VERTEX
  8
0
 10
600.33416942
 20
4774.30026867
  0
VERTEX
  8
0
 10
600.91828577
 20
4773.80993842
  0
VERTEX
  8
0
 10
601.47828746
 20
4773.37638213
  0
VERTEX
  8
0
 10
602.05793882
 20
4772.96952132
  0
VERTEX
  8
0
 10
602.65626429
 20
4772.59000725
  0
VERTEX
  8
0
 10
603.27228828
 20
4772.23849119
  0
VERTEX
  8
0
 10
603.65002854
 20
4772.04229812
  0
VERTEX
  8
0
 10
604.03484823
 20
4771.86119599
  0
VERTEX
  8
0
 10
604.42628006
 20
4771.69535124
  0
VERTEX
  8
0
 10
604.82385676
 20
4771.54493031
  0
VERTEX
  8
0
 10
605.22711106
 20
4771.41009964
  0
VERTEX
  8
0
 10
605.63557568
 20
4771.29102567
  0
VERTEX
  8
0
 10
606.04878334
 20
4771.18787485
  0
VERTEX
  8
0
 10
606.46626677
 20
4771.10081360
  0
VERTEX
  8
0
 10
607.00888793
 20
4771.01955747
  0
VERTEX
  8
0
 10
607.55395667
 20
4770.96779075
  0
VERTEX
  8
0
 10
608.10025538
 20
4770.94546496
  0
VERTEX
  8
0
 10
608.64656646
 20
4770.95253158
  0
VERTEX
  8
0
 10
609.19167230
 20
4770.98894212
  0
VERTEX
  8
0
 10
609.73435532
 20
4771.05464806
  0
VERTEX
  8
0
 10
610.27339791
 20
4771.14960090
  0
VERTEX
  8
0
 10
610.80758247
 20
4771.27375215
  0
VERTEX
  8
0
 10
611.55176529
 20
4771.48867507
  0
VERTEX
  8
0
 10
612.28187835
 20
4771.74462796
  0
VERTEX
  8
0
 10
612.99618853
 20
4772.04094817
  0
VERTEX
  8
0
 10
613.69296275
 20
4772.37697305
  0
VERTEX
  8
0
 10
614.58399764
 20
4772.86312064
  0
VERTEX
  8
0
 10
615.44551609
 20
4773.39726121
  0
VERTEX
  8
0
 10
616.27553883
 20
4773.97809013
  0
VERTEX
  8
0
 10
617.07208660
 20
4774.60430278
  0
VERTEX
  8
0
 10
617.80823347
 20
4775.23845742
  0
VERTEX
  8
0
 10
618.51815702
 20
4775.90063869
  0
VERTEX
  8
0
 10
619.20103999
 20
4776.59005355
  0
VERTEX
  8
0
 10
619.85606514
 20
4777.30590893
  0
VERTEX
  8
0
 10
620.74723874
 20
4778.36384578
  0
VERTEX
  8
0
 10
621.59424203
 20
4779.45597311
  0
VERTEX
  8
0
 10
622.39607132
 20
4780.58094133
  0
VERTEX
  8
0
 10
623.15172295
 20
4781.73740086
  0
VERTEX
  8
0
 10
623.91527748
 20
4782.99284310
  0
VERTEX
  8
0
 10
624.64029512
 20
4784.27005061
  0
VERTEX
  8
0
 10
625.32630120
 20
4785.56815702
  0
VERTEX
  8
0
 10
625.97282103
 20
4786.88629599
  0
VERTEX
  8
0
 10
626.63904647
 20
4788.33393279
  0
VERTEX
  8
0
 10
627.26969091
 20
4789.79682111
  0
VERTEX
  8
0
 10
627.86448735
 20
4791.27432026
  0
VERTEX
  8
0
 10
628.42316876
 20
4792.76578954
  0
VERTEX
  8
0
 10
629.06239021
 20
4794.59067219
  0
VERTEX
  8
0
 10
629.66006695
 20
4796.42902127
  0
VERTEX
  8
0
 10
630.21598229
 20
4798.28014378
  0
VERTEX
  8
0
 10
630.72991955
 20
4800.14334675
  0
VERTEX
  8
0
 10
631.32463967
 20
4802.48768532
  0
VERTEX
  8
0
 10
631.86628786
 20
4804.84426932
  0
VERTEX
  8
0
 10
632.35467218
 20
4807.21221837
  0
VERTEX
  8
0
 10
632.78960070
 20
4809.59065209
  0
VERTEX
  8
0
 10
633.06525415
 20
4811.25092393
  0
VERTEX
  8
0
 10
633.31913695
 20
4812.91437866
  0
VERTEX
  8
0
 10
633.55122412
 20
4814.58080680
  0
VERTEX
  8
0
 10
633.76149065
 20
4816.24999890
  0
VERTEX
  8
0
 10
633.94991156
 20
4817.92174550
  0
VERTEX
  8
0
 10
634.11646184
 20
4819.59583714
  0
VERTEX
  8
0
 10
634.26111651
 20
4821.27206434
  0
VERTEX
  8
0
 10
634.38385055
 20
4822.95021765
  0
VERTEX
  8
0
 10
634.53620290
 20
4825.55572254
  0
VERTEX
  8
0
 10
634.63736292
 20
4828.16293870
  0
VERTEX
  8
0
 10
634.68733819
 20
4830.77112973
  0
VERTEX
  8
0
 10
634.68613626
 20
4833.37955925
  0
VERTEX
  8
0
 10
634.63376470
 20
4835.98749087
  0
VERTEX
  8
0
 10
634.53023108
 20
4838.59418819
  0
VERTEX
  8
0
 10
634.37554294
 20
4841.19891484
  0
VERTEX
  8
0
 10
634.16970787
 20
4843.80093441
  0
VERTEX
  8
0
 10
634.03629587
 20
4845.18911820
  0
VERTEX
  8
0
 10
633.88583900
 20
4846.57544738
  0
VERTEX
  8
0
 10
633.71835865
 20
4847.95976886
  0
VERTEX
  8
0
 10
633.53387620
 20
4849.34192953
  0
VERTEX
  8
0
 10
633.33241306
 20
4850.72177628
  0
VERTEX
  8
0
 10
633.11399062
 20
4852.09915602
  0
VERTEX
  8
0
 10
632.87863027
 20
4853.47391563
  0
VERTEX
  8
0
 10
632.62635340
 20
4854.84590203
  0
VERTEX
  8
0
 10
632.18177559
 20
4857.03083613
  0
VERTEX
  8
0
 10
631.68486387
 20
4859.20441508
  0
VERTEX
  8
0
 10
631.13583993
 20
4861.36572011
  0
VERTEX
  8
0
 10
630.53492544
 20
4863.51383247
  0
VERTEX
  8
0
 10
630.00027152
 20
4865.25254407
  0
VERTEX
  8
0
 10
629.42420119
 20
4866.97802129
  0
VERTEX
  8
0
 10
628.80696553
 20
4868.68954103
  0
VERTEX
  8
0
 10
628.14881558
 20
4870.38638015
  0
VERTEX
  8
0
 10
627.56661637
 20
4871.80454449
  0
VERTEX
  8
0
 10
626.95655077
 20
4873.21106187
  0
VERTEX
  8
0
 10
626.31879762
 20
4874.60553089
  0
VERTEX
  8
0
 10
625.65353573
 20
4875.98755014
  0
VERTEX
  8
0
 10
625.18890557
 20
4876.90077016
  0
VERTEX
  8
0
 10
624.70544675
 20
4877.80426952
  0
VERTEX
  8
0
 10
624.20331536
 20
4878.69776362
  0
VERTEX
  8
0
 10
623.68266750
 20
4879.58096788
  0
VERTEX
  8
0
 10
623.19006248
 20
4880.36674891
  0
VERTEX
  8
0
 10
622.67453400
 20
4881.13779133
  0
VERTEX
  8
0
 10
622.13642029
 20
4881.89360503
  0
VERTEX
  8
0
 10
621.57605958
 20
4882.63369985
  0
VERTEX
  8
0
 10
621.04967149
 20
4883.27798090
  0
VERTEX
  8
0
 10
620.49824829
 20
4883.90103596
  0
VERTEX
  8
0
 10
619.92244614
 20
4884.50215246
  0
VERTEX
  8
0
 10
619.32292118
 20
4885.08061782
  0
VERTEX
  8
0
 10
618.70734068
 20
4885.61896452
  0
VERTEX
  8
0
 10
618.06403681
 20
4886.12370608
  0
VERTEX
  8
0
 10
617.39441513
 20
4886.59379887
  0
VERTEX
  8
0
 10
616.69988116
 20
4887.02819932
  0
VERTEX
  8
0
 10
616.07580944
 20
4887.36776494
  0
VERTEX
  8
0
 10
615.43591899
 20
4887.67388885
  0
VERTEX
  8
0
 10
614.78159821
 20
4887.94611633
  0
VERTEX
  8
0
 10
614.11423548
 20
4888.18399268
  0
VERTEX
  8
0
 10
613.43521922
 20
4888.38706320
  0
VERTEX
  8
0
 10
612.74593779
 20
4888.55487316
  0
VERTEX
  8
0
 10
612.04777961
 20
4888.68696788
  0
VERTEX
  8
0
 10
611.34213306
 20
4888.78289264
  0
VERTEX
  8
0
 10
610.45827583
 20
4888.86227054
  0
VERTEX
  8
0
 10
609.57200739
 20
4888.88936974
  0
VERTEX
  8
0
 10
608.68569754
 20
4888.86418766
  0
VERTEX
  8
0
 10
607.80171605
 20
4888.78672174
  0
VERTEX
  8
0
 10
607.13124797
 20
4888.68175869
  0
VERTEX
  8
0
 10
606.46946532
 20
4888.53979972
  0
VERTEX
  8
0
 10
605.81788907
 20
4888.36140196
  0
VERTEX
  8
0
 10
605.17804020
 20
4888.14712251
  0
VERTEX
  8
0
 10
604.55143968
 20
4887.89751850
  0
VERTEX
  8
0
 10
603.93960851
 20
4887.61314703
  0
VERTEX
  8
0
 10
603.34406765
 20
4887.29456522
  0
VERTEX
  8
0
 10
602.76633808
 20
4886.94233018
  0
VERTEX
  8
0
 10
602.17579228
 20
4886.54471701
  0
VERTEX
  8
0
 10
601.60378534
 20
4886.12201823
  0
VERTEX
  8
0
 10
601.05113354
 20
4885.67486517
  0
VERTEX
  8
0
 10
600.51865315
 20
4885.20388918
  0
VERTEX
  8
0
 10
599.96174334
 20
4884.67817466
  0
VERTEX
  8
0
 10
599.42222922
 20
4884.13529186
  0
VERTEX
  8
0
 10
598.90051629
 20
4883.57566205
  0
VERTEX
  8
0
 10
598.39701004
 20
4882.99970651
  0
VERTEX
  8
0
 10
597.79648869
 20
4882.27976596
  0
VERTEX
  8
0
 10
597.21381218
 20
4881.54580461
  0
VERTEX
  8
0
 10
596.64923132
 20
4880.79814638
  0
VERTEX
  8
0
 10
596.10299694
 20
4880.03711521
  0
VERTEX
  8
0
 10
595.41174469
 20
4879.03870223
  0
VERTEX
  8
0
 10
594.73854642
 20
4878.02841477
  0
VERTEX
  8
0
 10
594.08355844
 20
4877.00649198
  0
VERTEX
  8
0
 10
593.44693703
 20
4875.97317302
  0
VERTEX
  8
0
 10
592.40596817
 20
4874.22921520
  0
VERTEX
  8
0
 10
591.39685567
 20
4872.46704591
  0
VERTEX
  8
0
 10
590.82423600
 20
4871.46683967
  0
VERTEX
  8
0
 10
590.23074690
 20
4870.47859917
  0
VERTEX
  8
0
 10
589.63670948
 20
4869.53972852
  0
VERTEX
  8
0
 10
589.01674779
 20
4868.61764317
  0
VERTEX
  8
0
 10
588.37122501
 20
4867.71286735
  0
VERTEX
  8
0
 10
587.70050426
 20
4866.82592532
  0
VERTEX
  8
0
 10
587.09325429
 20
4866.07099657
  0
VERTEX
  8
0
 10
586.45970528
 20
4865.33788982
  0
VERTEX
  8
0
 10
585.80045768
 20
4864.62727564
  0
VERTEX
  8
0
 10
585.11611197
 20
4863.93982459
  0
VERTEX
  8
0
 10
584.51714272
 20
4863.37833307
  0
VERTEX
  8
0
 10
583.89469518
 20
4862.84294718
  0
VERTEX
  8
0
 10
583.24964069
 20
4862.33438458
  0
VERTEX
  8
0
 10
582.58285059
 20
4861.85336293
  0
VERTEX
  8
0
 10
582.00065472
 20
4861.46875825
  0
VERTEX
  8
0
 10
581.40026760
 20
4861.11335020
  0
VERTEX
  8
0
 10
580.78281078
 20
4860.78776595
  0
VERTEX
  8
0
 10
580.14940583
 20
4860.49263265
  0
VERTEX
  8
0
 10
579.54553135
 20
4860.24754278
  0
VERTEX
  8
0
 10
578.92896250
 20
4860.03716551
  0
VERTEX
  8
0
 10
578.30122794
 20
4859.86197452
  0
VERTEX
  8
0
 10
577.66385632
 20
4859.72244348
  0
VERTEX
  8
0
 10
577.06631034
 20
4859.63113592
  0
VERTEX
  8
0
 10
576.46592032
 20
4859.57442841
  0
VERTEX
  8
0
 10
575.86420565
 20
4859.55224646
  0
VERTEX
  8
0
 10
575.26268574
 20
4859.56451554
  0
VERTEX
  8
0
 10
574.66288000
 20
4859.61116114
  0
VERTEX
  8
0
 10
574.06630782
 20
4859.69210875
  0
VERTEX
  8
0
 10
573.47448860
 20
4859.80728386
  0
VERTEX
  8
0
 10
572.88894176
 20
4859.95661194
  0
VERTEX
  8
0
 10
572.29248002
 20
4860.14447100
  0
VERTEX
  8
0
 10
571.70678446
 20
4860.36183722
  0
VERTEX
  8
0
 10
571.13297420
 20
4860.60826298
  0
VERTEX
  8
0
 10
570.57216834
 20
4860.88330064
  0
VERTEX
  8
0
 10
569.93488162
 20
4861.23227958
  0
VERTEX
  8
0
 10
569.31503434
 20
4861.60998316
  0
VERTEX
  8
0
 10
568.71361915
 20
4862.01577454
  0
VERTEX
  8
0
 10
568.13162869
 20
4862.44901690
  0
VERTEX
  8
0
 10
567.36770718
 20
4863.07239797
  0
VERTEX
  8
0
 10
566.63291645
 20
4863.72839452
  0
VERTEX
  8
0
 10
565.92832393
 20
4864.41601015
  0
VERTEX
  8
0
 10
565.25499704
 20
4865.13424845
  0
VERTEX
  8
0
 10
564.51259034
 20
4865.99090610
  0
VERTEX
  8
0
 10
563.80144253
 20
4866.87265004
  0
VERTEX
  8
0
 10
563.12220360
 20
4867.77864451
  0
VERTEX
  8
0
 10
562.47552353
 20
4868.70805378
  0
VERTEX
  8
0
 10
561.83392981
 20
4869.68999029
  0
VERTEX
  8
0
 10
561.21927560
 20
4870.68837676
  0
VERTEX
  8
0
 10
560.63188445
 20
4871.70267144
  0
VERTEX
  8
0
 10
560.07207990
 20
4872.73233260
  0
VERTEX
  8
0
 10
559.44798202
 20
4873.94851494
  0
VERTEX
  8
0
 10
558.85318958
 20
4875.17874882
  0
VERTEX
  8
0
 10
558.28794530
 20
4876.42251660
  0
VERTEX
  8
0
 10
557.75249187
 20
4877.67930068
  0
VERTEX
  8
0
 10
557.12341707
 20
4879.25267847
  0
VERTEX
  8
0
 10
556.53016995
 20
4880.83936468
  0
VERTEX
  8
0
 10
555.97296646
 20
4882.43876129
  0
VERTEX
  8
0
 10
555.45202252
 20
4884.05027029
  0
VERTEX
  8
0
 10
554.89277377
 20
4885.91378651
  0
VERTEX
  8
0
 10
554.37199740
 20
4887.78794822
  0
VERTEX
  8
0
 10
553.88984877
 20
4889.67217323
  0
VERTEX
  8
0
 10
553.44648326
 20
4891.56587932
  0
VERTEX
  8
0
 10
552.97774107
 20
4893.76055058
  0
VERTEX
  8
0
 10
552.55203243
 20
4895.96354991
  0
VERTEX
  8
0
 10
552.16947059
 20
4898.17425880
  0
VERTEX
  8
0
 10
551.83016883
 20
4900.39205876
  0
VERTEX
  8
0
 10
551.45784757
 20
4903.19212487
  0
VERTEX
  8
0
 10
551.14374006
 20
4905.99883967
  0
VERTEX
  8
0
 10
550.88793629
 20
4908.81131610
  0
VERTEX
  8
0
 10
550.69052621
 20
4911.62866709
  0
VERTEX
  8
0
 10
550.60199793
 20
4913.23252584
  0
VERTEX
  8
0
 10
550.52982611
 20
4914.83705781
  0
VERTEX
  8
0
 10
550.47401313
 20
4916.44214074
  0
VERTEX
  8
0
 10
550.43456138
 20
4918.04765237
  0
VERTEX
  8
0
 10
550.41147322
 20
4919.65347044
  0
VERTEX
  8
0
 10
550.40475105
 20
4921.25947268
  0
VERTEX
  8
0
 10
550.41439724
 20
4922.86553681
  0
VERTEX
  8
0
 10
550.44041418
 20
4924.47154059
  0
VERTEX
  8
0
 10
550.48525837
 20
4926.31938688
  0
VERTEX
  8
0
 10
550.55109308
 20
4928.16643715
  0
VERTEX
  8
0
 10
550.63790711
 20
4930.01251681
  0
VERTEX
  8
0
 10
550.74568928
 20
4931.85745126
  0
VERTEX
  8
0
 10
550.87442838
 20
4933.70106591
  0
VERTEX
  8
0
 10
551.02411322
 20
4935.54318617
  0
VERTEX
  8
0
 10
551.19473260
 20
4937.38363745
  0
VERTEX
  8
0
 10
551.38627533
 20
4939.22224515
  0
VERTEX
  8
0
 10
551.71804549
 20
4941.98036438
  0
VERTEX
  8
0
 10
552.10845658
 20
4944.73064136
  0
VERTEX
  8
0
 10
552.55736896
 20
4947.47216240
  0
VERTEX
  8
0
 10
553.06464300
 20
4950.20401384
  0
VERTEX
  8
0
 10
553.49900480
 20
4952.29341586
  0
VERTEX
  8
0
 10
553.97549778
 20
4954.37359219
  0
VERTEX
  8
0
 10
554.49397270
 20
4956.44392031
  0
VERTEX
  8
0
 10
555.05428032
 20
4958.50377766
  0
VERTEX
  8
0
 10
555.58956130
 20
4960.30552827
  0
VERTEX
  8
0
 10
556.16618140
 20
4962.09450112
  0
VERTEX
  8
0
 10
556.78390776
 20
4963.87000123
  0
VERTEX
  8
0
 10
557.44250753
 20
4965.63133366
  0
VERTEX
  8
0
 10
557.48887177
 20
4965.74798581
  0
VERTEX
  8
0
 10
578.40650976
 20
4965.45554240
  0
VERTEX
  8
0
 10
618.55878657
 20
4964.88763656
  0
VERTEX
  8
0
 10
628.09007102
 20
4964.75836912
  0
VERTEX
  8
0
 10
652.53433292
 20
4964.42684037
  0
VERTEX
  8
0
 10
726.56628652
 20
4963.42278572
  0
VERTEX
  8
0
 10
751.95485964
 20
4963.07845481
  0
VERTEX
  8
0
 10
827.54292919
 20
4962.05330043
  0
VERTEX
  8
0
 10
841.21570777
 20
4961.86786424
  0
VERTEX
  8
0
 10
869.06420764
 20
4961.49016873
  0
VERTEX
  8
0
 10
929.76533926
 20
4960.66691650
  0
VERTEX
  8
0
 10
954.52336878
 20
4960.36302324
  0
VERTEX
  8
0
 10
1031.26348048
 20
4959.70864789
  0
VERTEX
  8
0
 10
1041.24527515
 20
4959.68591979
  0
VERTEX
  8
0
 10
1066.16923444
 20
4959.72959928
  0
VERTEX
  8
0
 10
1116.51424069
 20
4959.81784125
  0
VERTEX
  8
0
 10
1137.19641985
 20
4959.85325756
  0
VERTEX
  8
0
 10
1220.97818421
 20
4959.99778950
  0
VERTEX
  8
0
 10
1222.57204875
 20
4960.00000000
  0
VERTEX
  8
0
 10
1229.50519466
 20
4959.99427477
  0
VERTEX
  8
0
 10
1298.94348282
 20
4959.98334700
  0
VERTEX
  8
0
 10
1313.99223636
 20
4959.90833211
  0
VERTEX
  8
0
 10
1331.57092410
 20
4959.76005957
  0
VERTEX
  8
0
 10
1362.88966940
 20
4959.53827374
  0
VERTEX
  8
0
 10
1382.93089027
 20
4959.38112951
  0
VERTEX
  8
0
 10
1387.78740226
 20
4959.34340396
  0
VERTEX
  8
0
 10
1390.36018891
 20
4959.43204406
  0
VERTEX
  8
0
 10
1397.60867601
 20
4959.68169392
  0
VERTEX
  8
0
 10
1405.40810589
 20
4959.63078869
  0
VERTEX
  8
0
 10
1414.07917469
 20
4959.17437072
  0
VERTEX
  8
0
 10
1415.00753584
 20
4959.16307300
  0
VERTEX
  8
0
 10
1426.19801616
 20
4959.04156960
  0
VERTEX
  8
0
 10
1427.86442892
 20
4959.02833485
  0
VERTEX
  8
0
 10
1442.42312234
 20
4959.33550890
  0
VERTEX
  8
0
 10
1443.95249197
 20
4959.36765878
  0
VERTEX
  8
0
 10
1446.61426100
 20
4959.42408922
  0
VERTEX
  8
0
 10
1448.59736922
 20
4959.32084342
  0
VERTEX
  8
0
 10
1450.49732618
 20
4959.22227068
  0
VERTEX
  8
0
 10
1458.91896173
 20
4958.78478106
  0
VERTEX
  8
0
 10
1466.84914280
 20
4958.72253265
  0
VERTEX
  8
0
 10
1471.15744362
 20
4958.68880686
  0
VERTEX
  8
0
 10
1479.02054193
 20
4958.62717823
  0
VERTEX
  8
0
 10
1485.58194955
 20
4958.71258760
  0
VERTEX
  8
0
 10
1494.01292565
 20
4958.82207760
  0
VERTEX
  8
0
 10
1509.71121458
 20
4959.02702699
  0
VERTEX
  8
0
 10
1515.80507872
 20
4958.97797243
  0
VERTEX
  8
0
 10
1521.50519052
 20
4958.92470524
  0
VERTEX
  8
0
 10
1573.01262856
 20
4958.47781003
  0
VERTEX
  8
0
 10
1598.80435926
 20
4958.41284252
  0
VERTEX
  8
0
 10
1606.01446465
 20
4958.39428721
  0
VERTEX
  8
0
 10
1612.55892694
 20
4958.35937031
  0
VERTEX
  8
0
 10
1643.38937093
 20
4958.00622335
  0
VERTEX
  8
0
 10
1662.80095445
 20
4957.74404008
  0
VERTEX
  8
0
 10
1702.66774219
 20
4957.20896183
  0
VERTEX
  8
0
 10
1711.94518029
 20
4957.08419226
  0
VERTEX
  8
0
 10
1714.94082955
 20
4957.04435703
  0
VERTEX
  8
0
 10
1721.21202352
 20
4956.96024145
  0
VERTEX
  8
0
 10
1732.09175611
 20
4956.81439293
  0
VERTEX
  8
0
 10
1737.31895042
 20
4956.74187929
  0
VERTEX
  8
0
 10
1739.61390656
 20
4956.71069509
  0
VERTEX
  8
0
 10
1742.74635833
 20
4955.55944745
  0
VERTEX
  8
0
 10
1744.07197411
 20
4955.08057249
  0
VERTEX
  8
0
 10
1744.04883032
 20
4952.42057974
  0
VERTEX
  8
0
 10
1743.67590953
 20
4952.06423222
  0
VERTEX
  8
0
 10
1739.62824572
 20
4950.87542804
  0
VERTEX
  8
0
 10
1737.72556707
 20
4950.90022790
  0
VERTEX
  8
0
 10
1730.71055704
 20
4950.99498749
  0
VERTEX
  8
0
 10
1721.97210693
 20
4951.12082084
  0
VERTEX
  8
0
 10
1719.68783187
 20
4951.15105411
  0
VERTEX
  8
0
 10
1717.82966417
 20
4948.97441391
  0
VERTEX
  8
0
 10
1713.37128893
 20
4943.74203663
  0
VERTEX
  8
0
 10
1713.42788740
 20
4942.62076798
  0
VERTEX
  8
0
 10
1713.65582418
 20
4939.01450726
  0
VERTEX
  8
0
 10
1713.70205639
 20
4938.29509814
  0
VERTEX
  8
0
 10
1713.87961091
 20
4936.13600975
  0
VERTEX
  8
0
 10
1713.95702644
 20
4934.94595247
  0
VERTEX
  8
0
 10
1713.98153295
 20
4934.22700802
  0
VERTEX
  8
0
 10
1714.33319697
 20
4930.79763968
  0
VERTEX
  8
0
 10
1714.47282613
 20
4928.30142160
  0
VERTEX
  8
0
 10
1714.41766485
 20
4927.66355700
  0
VERTEX
  8
0
 10
1714.19392679
 20
4925.89184723
  0
VERTEX
  8
0
 10
1713.70886289
 20
4921.82418822
  0
VERTEX
  8
0
 10
1712.70673318
 20
4920.34654841
  0
VERTEX
  8
0
 10
1712.25101583
 20
4918.58686167
  0
VERTEX
  8
0
 10
1709.85231202
 20
4918.06063655
  0
VERTEX
  8
0
 10
1705.72863990
 20
4916.23418049
  0
VERTEX
  8
0
 10
1703.81496261
 20
4915.37095885
  0
VERTEX
  8
0
 10
1701.56515969
 20
4913.83827392
  0
VERTEX
  8
0
 10
1699.27251984
 20
4912.24895669
  0
VERTEX
  8
0
 10
1697.01587165
 20
4910.67964921
  0
VERTEX
  8
0
 10
1693.99805283
 20
4908.56506297
  0
VERTEX
  8
0
 10
1692.14511792
 20
4906.85330157
  0
VERTEX
  8
0
 10
1689.42121722
 20
4904.99585209
  0
VERTEX
  8
0
 10
1687.94939871
 20
4902.81476313
  0
VERTEX
  8
0
 10
1686.11655529
 20
4900.84311636
  0
VERTEX
  8
0
 10
1684.65623971
 20
4898.41756993
  0
VERTEX
  8
0
 10
1683.51946366
 20
4896.40192662
  0
VERTEX
  8
0
 10
1682.87324083
 20
4894.97090157
  0
VERTEX
  8
0
 10
1682.70596595
 20
4886.34551485
  0
VERTEX
  8
0
 10
1682.50872275
 20
4877.33066673
  0
VERTEX
  8
0
 10
1682.58277577
 20
4875.56947952
  0
VERTEX
  8
0
 10
1682.92946367
 20
4870.43165757
  0
VERTEX
  8
0
 10
1683.29371676
 20
4867.50017329
  0
VERTEX
  8
0
 10
1683.85444418
 20
4865.01144330
  0
VERTEX
  8
0
 10
1684.20018028
 20
4862.64154078
  0
VERTEX
  8
0
 10
1686.11809039
 20
4857.73715864
  0
VERTEX
  8
0
 10
1686.41726421
 20
4857.03193364
  0
VERTEX
  8
0
 10
1687.02415572
 20
4856.18006914
  0
VERTEX
  8
0
 10
1690.46805556
 20
4852.33616928
  0
VERTEX
  8
0
 10
1698.40587487
 20
4845.58214293
  0
VERTEX
  8
0
 10
1704.90609975
 20
4841.49342617
  0
VERTEX
  8
0
 10
1707.07536315
 20
4840.32641306
  0
VERTEX
  8
0
 10
1709.19025477
 20
4839.09740160
  0
VERTEX
  8
0
 10
1709.73458414
 20
4836.44566600
  0
VERTEX
  8
0
 10
1709.91356301
 20
4834.78898349
  0
VERTEX
  8
0
 10
1709.53405944
 20
4832.11851944
  0
VERTEX
  8
0
 10
1708.89158328
 20
4827.16385957
  0
VERTEX
  8
0
 10
1706.61223074
 20
4818.28986327
  0
VERTEX
  8
0
 10
1706.01459109
 20
4815.80831878
  0
VERTEX
  8
0
 10
1705.24684712
 20
4812.98980712
  0
VERTEX
  8
0
 10
1704.96621727
 20
4812.30262260
  0
VERTEX
  8
0
 10
1701.96695918
 20
4805.69256126
  0
VERTEX
  8
0
 10
1701.18784484
 20
4804.31328015
  0
VERTEX
  8
0
 10
1699.30833527
 20
4800.90290592
  0
VERTEX
  8
0
 10
1698.15861541
 20
4799.84443416
  0
VERTEX
  8
0
 10
1696.69251133
 20
4798.63323789
  0
VERTEX
  8
0
 10
1695.15595431
 20
4797.46484999
  0
VERTEX
  8
0
 10
1688.19538452
 20
4790.74753989
  0
VERTEX
  8
0
 10
1686.96266356
 20
4789.82021678
  0
VERTEX
  8
0
 10
1673.45056753
 20
4781.87058284
  0
VERTEX
  8
0
 10
1666.92614021
 20
4778.44143250
  0
VERTEX
  8
0
 10
1663.44360250
 20
4777.19866057
  0
VERTEX
  8
0
 10
1660.46392863
 20
4775.86220960
  0
VERTEX
  8
0
 10
1659.47568731
 20
4776.73599368
  0
VERTEX
  8
0
 10
1660.65340304
 20
4863.57265770
  0
VERTEX
  8
0
 10
1640.90922586
 20
4863.84043985
  0
VERTEX
  8
0
 10
1639.60088182
 20
4767.37237062
  0
VERTEX
  8
0
 10
1638.58931014
 20
4766.52571488
  0
VERTEX
  8
0
 10
1628.88287584
 20
4763.50417182
  0
VERTEX
  8
0
 10
1603.27352049
 20
4754.13888793
  0
VERTEX
  8
0
 10
1583.70179869
 20
4747.77801182
  0
VERTEX
  8
0
 10
1580.16279422
 20
4746.53866396
  0
VERTEX
  8
0
 10
1573.34515865
 20
4743.97748469
  0
VERTEX
  8
0
 10
1545.45746464
 20
4733.07346028
  0
VERTEX
  8
0
 10
1536.35014324
 20
4729.80465280
  0
VERTEX
  8
0
 10
1512.87649996
 20
4720.03591401
  0
VERTEX
  8
0
 10
1488.57303450
 20
4710.54717534
  0
VERTEX
  8
0
 10
1448.83860572
 20
4694.31748401
  0
VERTEX
  8
0
 10
1420.82707372
 20
4682.65404216
  0
VERTEX
  8
0
 10
1353.99298962
 20
4654.72535357
  0
VERTEX
  8
0
 10
1353.00474827
 20
4655.59913565
  0
VERTEX
  8
0
 10
1355.01222844
 20
4803.61694913
  0
VERTEX
  8
0
 10
1335.26804721
 20
4803.88472733
  0
VERTEX
  8
0
 10
1333.13199201
 20
4646.38668271
  0
VERTEX
  8
0
 10
1332.12041130
 20
4645.54002509
  0
VERTEX
  8
0
 10
1323.43345490
 20
4641.89140903
  0
VERTEX
  8
0
 10
1255.52739237
 20
4613.96531199
  0
VERTEX
  8
0
 10
1248.26602706
 20
4611.01914181
  0
VERTEX
  8
0
 10
1214.16877537
 20
4597.91275387
  0
VERTEX
  8
0
 10
1207.42960806
 20
4595.36204843
  0
VERTEX
  8
0
 10
1173.97037908
 20
4583.66933014
  0
VERTEX
  8
0
 10
1170.30263624
 20
4582.38149567
  0
VERTEX
  8
0
 10
1130.48341731
 20
4569.79061881
  0
VERTEX
  8
0
 10
1128.80799596
 20
4569.26439012
  0
VERTEX
  8
0
 10
1089.21105995
 20
4558.36624650
  0
VERTEX
  8
0
 10
1087.46407714
 20
4557.90123090
  0
VERTEX
  8
0
 10
1047.72549466
 20
4548.58942005
  0
VERTEX
  8
0
 10
1046.73725839
 20
4549.46320806
  0
VERTEX
  8
0
 10
1049.48270739
 20
4751.89365143
  0
VERTEX
  8
0
 10
1029.73851922
 20
4752.16143373
  0
VERTEX
  8
0
 10
1026.93225463
 20
4545.24657571
  0
VERTEX
  8
0
 10
1025.92067594
 20
4544.39991906
  0
VERTEX
  8
0
 10
1006.23957875
 20
4540.67249038
  0
VERTEX
  8
0
 10
1004.78002850
 20
4540.42450082
  0
VERTEX
  8
0
 10
979.44244249
 20
4537.06173938
  0
VERTEX
  8
0
 10
963.36530269
 20
4534.75313722
  0
VERTEX
  8
0
 10
962.46645702
 20
4534.68551642
  0
VERTEX
  8
0
 10
922.36174617
 20
4531.45608502
  0
VERTEX
  8
0
 10
918.97726458
 20
4531.39264178
  0
VERTEX
  8
0
 10
880.32525978
 20
4529.76067086
  0
VERTEX
  8
0
 10
868.56220905
 20
4529.86154409
  0
VERTEX
  8
0
 10
840.56741964
 20
4529.67696675
  0
VERTEX
  8
0
 10
815.37352717
 20
4529.91745401
  0
VERTEX
  8
0
 10
808.69384541
 20
4530.21038438
  0
VERTEX
  8
0
 10
797.36292751
 20
4530.53757218
  0
VERTEX
  8
0
 10
792.08614250
 20
4530.68071783
  0
VERTEX
  8
0
 10
788.24374553
 20
4530.78906926
  0
VERTEX
  8
0
 10
783.48520294
 20
4530.93684335
  0
VERTEX
  8
0
 10
782.55350534
 20
4530.97416071
  0
VERTEX
  8
0
 10
780.84396387
 20
4531.04271943
  0
VERTEX
  8
0
 10
776.51088100
 20
4531.21450298
  0
VERTEX
  8
0
 10
773.99803408
 20
4531.31811870
  0
VERTEX
  8
0
 10
770.69157665
 20
4531.45399369
  0
VERTEX
  8
0
 10
769.65808894
 20
4532.31957561
  0
VERTEX
  8
0
 10
768.73051332
 20
4532.32655728
  0
VERTEX
  8
0
 10
765.49697091
 20
4534.93561588
  0
VERTEX
  8
0
 10
764.45621919
 20
4534.83038803
  0
VERTEX
  8
0
 10
761.74734431
 20
4534.55690345
  0
VERTEX
  8
0
 10
759.10380869
 20
4534.29280165
  0
VERTEX
  8
0
 10
757.73646090
 20
4534.15711704
  0
VERTEX
  8
0
 10
756.61199022
 20
4534.04102952
  0
VERTEX
  8
0
 10
753.69238902
 20
4533.74373145
  0
VERTEX
  8
0
 10
752.48180073
 20
4533.62095717
  0
VERTEX
  8
0
 10
749.43171884
 20
4533.30605695
  0
VERTEX
  8
0
 10
748.12751636
 20
4533.24400178
  0
VERTEX
  8
0
 10
745.27709622
 20
4533.15455364
  0
VERTEX
  8
0
 10
742.69114039
 20
4533.37628667
  0
VERTEX
  8
0
 10
741.70289905
 20
4534.25006975
  0
VERTEX
  8
0
 10
744.60501800
 20
4748.23226876
  0
VERTEX
  8
0
 10
724.86083383
 20
4748.50005100
  0
VERTEX
  8
0
 10
721.98714827
 20
4536.61433319
  0
VERTEX
  8
0
 10
720.80502996
 20
4535.78663200
  0
VERTEX
  8
0
 10
719.55620514
 20
4535.28748865
  0
VERTEX
  8
0
 10
716.68949218
 20
4535.60528191
  0
VERTEX
  8
0
 10
715.45283754
 20
4535.65484098
  0
VERTEX
  8
0
 10
712.43390878
 20
4533.95254570
  0
VERTEX
  8
0
 10
709.44549322
 20
4534.08278815
  0
VERTEX
  8
0
 10
707.37996329
 20
4534.17275146
  0
VERTEX
  8
0
 10
700.94795586
 20
4534.45303991
  0
VERTEX
  8
0
 10
697.55010395
 20
4534.58964638
  0
VERTEX
  8
0
 10
691.34422466
 20
4534.83788331
  0
VERTEX
  8
0
 10
687.31998319
 20
4535.01291091
  0
VERTEX
  8
0
 10
662.16341415
 20
4536.10354419
  0
VERTEX
  8
0
 10
650.32256089
 20
4536.61689145
  0
VERTEX
  8
0
 10
638.98958613
 20
4537.16790373
  0
VERTEX
  8
0
 10
574.10821544
 20
4539.61390020
  0
VERTEX
  8
0
 10
564.95263231
 20
4539.77154029
  0
VERTEX
  8
0
 10
564.14386515
 20
4539.77494845
  0
VERTEX
  8
0
 10
546.04000899
 20
4540.07735008
  0
SEQEND
  0
POLYLINE
  8
Default_Layer
 62
256
 66
   1
 39
0.000000
 70
    1
  0
VERTEX
  8
0
 10
539.44704875
 20
2523.12500000
  0
VERTEX
  8
0
 10
539.44704875
 20
5003.12500000
  0
VERTEX
  8
0
 10
1749.44704875
 20
5003.12500000
  0
VERTEX
  8
0
 10
1749.44704875
 20
2523.12500000
  0
VERTEX
  8
0
 10
539.44704875
 20
2523.12500000
  0
SEQEND
  0
ENDSEC
  0
EOF
