0
SECTION
2
HEADER
9
$INSUNITS
70
1
9
$ACADVER
1
AC1014
9
$HANDSEED
5
FFFF
0
ENDSEC
0
SECTION
2
TABLES
0
TABLE
2
VPORT
5
8
100
AcDbSymbolTable
0
ENDTAB
0
TABLE
2
LTYPE
5
5
100
AcDbSymbolTable
0
LTYPE
5
14
100
AcDbSymbolTableRecord
100
AcDbLinetypeTableRecord
2
BYBLOCK
70
0
0
LTYPE
5
15
100
AcDbSymbolTableRecord
100
AcDbLinetypeTableRecord
2
BYLAYER
70
0
0
ENDTAB
0
TABLE
2
LAYER
5
2
100
AcDbSymbolTable
70
2
0
LAYER
5
50
100
AcDbSymbolTableRecord
100
AcDbLayerTableRecord
2
0
70
0
6
CONTINUOUS
0
ENDTAB
0
TABLE
2
STYLE
5
3
100
AcDbSymbolTable
70
1
0
STYLE
5
11
100
AcDbSymbolTableRecord
100
AcDbTextStyleTableRecord
2
STANDARD
70
0
0
ENDTAB
0
TABLE
2
VIEW
5
6
100
AcDbSymbolTable
70
0
0
ENDTAB
0
TABLE
2
UCS
5
7
100
AcDbSymbolTable
70
0
0
ENDTAB
0
TABLE
2
APPID
5
9
100
AcDbSymbolTable
70
2
0
APPID
5
12
100
AcDbSymbolTableRecord
100
AcDbRegAppTableRecord
2
ACAD
70
0
0
ENDTAB
0
TABLE
2
DIMSTYLE
5
A
100
AcDbSymbolTable
70
1
0
ENDTAB
0
TABLE
2
BLOCK_RECORD
5
1
100
AcDbSymbolTable
70
1
0
BLOCK_RECORD
5
1F
100
AcDbSymbolTableRecord
100
AcDbBlockTableRecord
2
*MODEL_SPACE
0
BLOCK_RECORD
5
1B
100
AcDbSymbolTableRecord
100
AcDbBlockTableRecord
2
*PAPER_SPACE
0
ENDTAB
0
ENDSEC
0
SECTION
2
BLOCKS
0
BLOCK
5
20
100
AcDbEntity
100
AcDbBlockBegin
2
*MODEL_SPACE
0
ENDBLK
5
21
100
AcDbEntity
100
AcDbBlockEnd
0
BLOCK
5
1C
100
AcDbEntity
100
AcDbBlockBegin
2
*PAPER_SPACE
0
ENDBLK
5
1D
100
AcDbEntity
100
AcDbBlockEnd
0
ENDSEC
0
SECTION
2
ENTITIES
0
LWPOLYLINE
5
100
100
AcDbEntity
8
0
100
AcDbPolyline
90
4
70
1
43
0.0
10
0
20
0
10
30
20
0
10
30
20
17.999999999999996
10
0
20
17.999999999999996
0
LINE
5
101
100
AcDbEntity
8
0
100
AcDbLine
10
0
20
9.5000003031858302
30
0
11
2.1249999743189631
21
9.5000003031858302
31
0
0
LWPOLYLINE
5
102
100
AcDbEntity
8
0
100
AcDbPolyline
90
4
70
1
43
0.0
10
27.875
20
7
10
27.875
20
11.000000015018491
10
2.1250000000000031
20
11.000000015018491
10
2.1250000000000031
20
7
0
LINE
5
103
100
AcDbEntity
8
0
100
AcDbLine
10
0
20
11.999999999999998
30
0
11
30
21
11.999999999999998
31
0
0
LINE
5
104
100
AcDbEntity
8
0
100
AcDbLine
10
30.000000957428938
20
9.5000003031858302
30
0
11
27.875000174160984
21
9.4990000593490649
31
0
0
LINE
5
105
100
AcDbEntity
8
0
100
AcDbLine
10
0
20
6
30
0
11
30
21
6
31
0
0
LINE
5
106
100
AcDbEntity
8
0
100
AcDbLine
10
30.000000957428938
20
8.5000002712715315
30
0
11
27.875000174160984
21
8.5000002712715315
31
0
0
LINE
5
107
100
AcDbEntity
8
0
100
AcDbLine
10
0
20
11.999999999999998
30
0
11
30
21
11.999999999999998
31
0
0
LINE
5
108
100
AcDbEntity
8
0
100
AcDbLine
10
30
20
0
30
0
11
30
21
17.999999999999996
31
0
0
LINE
5
109
100
AcDbEntity
8
0
100
AcDbLine
10
30
20
17.999999999999996
30
0
11
0
21
17.999999999999996
31
0
0
LINE
5
110
100
AcDbEntity
8
0
100
AcDbLine
10
0
20
8.4999998723428067
30
0
11
2.1250000132768463
21
8.4999998723428067
31
0
0
LINE
5
111
100
AcDbEntity
8
0
100
AcDbLine
10
0
20
6
30
0
11
30
21
6
31
0
0
LINE
5
112
100
AcDbEntity
8
0
100
AcDbLine
10
0
20
17.999999999999996
30
0
11
0
21
0
31
0
0
LINE
5
113
100
AcDbEntity
8
0
100
AcDbLine
10
0
20
0
30
0
11
30
21
0
31
0
0
ENDSEC
0
SECTION
2
OBJECTS
0
DICTIONARY
5
C
100
AcDbDictionary
3
ACAD_GROUP
350
D
3
ACAD_MLINESTYLE
350
17
0
DICTIONARY
5
D
100
AcDbDictionary
0
DICTIONARY
5
1A
330
C
100
AcDbDictionary
0
DICTIONARY
5
17
100
AcDbDictionary
0
ENDSEC
0
EOF
