  0
SECTION
  2
HEADER
  9
$ACADVER
  1
AC1032
  9
$ACADMAINTVER
 90
       55
  9
$DWGCODEPAGE
  3
CNT
  9
$LASTSAVEDBY
  1
dougjoseph
  9
$REQUIREDVERSIONS
160
                 0
  9
$INSBASE
 10
0.0
 20
0.0
 30
0.0
  9
$EXTMIN
 10
-471.1207
 20
-160.0949
 30
0.0
  9
$EXTMAX
 10
470.9555
 20
-80.0225
 30
0.0
  9
$LIMMIN
 10
0.0
 20
0.0
  9
$LIMMAX
 10
12.0
 20
9.0
  9
$ORTHOMODE
 70
     0
  9
$REGENMODE
 70
     1
  9
$FILLMODE
 70
     1
  9
$QTEXTMODE
 70
     0
  9
$MIRRTEXT
 70
     1
  9
$LTSCALE
 40
1.0
  9
$ATTMODE
 70
     1
  9
$TEXTSIZE
 40
0.2
  9
$TRACEWID
 40
0.05
  9
$TEXTSTYLE
  7
Standard
  9
$CLAYER
  8
0
  9
$CELTYPE
  6
ByLayer
  9
$CECOLOR
 62
   256
  9
$CELTSCALE
 40
1.0
  9
$DISPSILH
 70
     0
  9
$DIMSCALE
 40
1.0
  9
$DIMASZ
 40
0.18
  9
$DIMEXO
 40
0.0625
  9
$DIMDLI
 40
0.38
  9
$DIMRND
 40
0.0
  9
$DIMDLE
 40
0.0
  9
$DIMEXE
 40
0.18
  9
$DIMTP
 40
0.0
  9
$DIMTM
 40
0.0
  9
$DIMTXT
 40
0.18
  9
$DIMCEN
 40
0.09
  9
$DIMTSZ
 40
0.0
  9
$DIMTOL
 70
     0
  9
$DIMLIM
 70
     0
  9
$DIMTIH
 70
     1
  9
$DIMTOH
 70
     1
  9
$DIMSE1
 70
     0
  9
$DIMSE2
 70
     0
  9
$DIMTAD
 70
     0
  9
$DIMZIN
 70
     0
  9
$DIMBLK
  1

  9
$DIMASO
 70
     1
  9
$DIMSHO
 70
     1
  9
$DIMPOST
  1

  9
$DIMAPOST
  1

  9
$DIMALT
 70
     0
  9
$DIMALTD
 70
     2
  9
$DIMALTF
 40
25.4
  9
$DIMLFAC
 40
1.0
  9
$DIMTOFL
 70
     0
  9
$DIMTVP
 40
0.0
  9
$DIMTIX
 70
     0
  9
$DIMSOXD
 70
     0
  9
$DIMSAH
 70
     0
  9
$DIMBLK1
  1

  9
$DIMBLK2
  1

  9
$DIMSTYLE
  2
Standard
  9
$DIMCLRD
 70
     0
  9
$DIMCLRE
 70
     0
  9
$DIMCLRT
 70
     0
  9
$DIMTFAC
 40
1.0
  9
$DIMGAP
 40
0.09
  9
$DIMJUST
 70
     0
  9
$DIMSD1
 70
     0
  9
$DIMSD2
 70
     0
  9
$DIMTOLJ
 70
     1
  9
$DIMTZIN
 70
     0
  9
$DIMALTZ
 70
     0
  9
$DIMALTTZ
 70
     0
  9
$DIMUPT
 70
     0
  9
$DIMDEC
 70
     4
  9
$DIMTDEC
 70
     4
  9
$DIMALTU
 70
     2
  9
$DIMALTTD
 70
     2
  9
$DIMTXSTY
  7
Standard
  9
$DIMAUNIT
 70
     0
  9
$DIMADEC
 70
     0
  9
$DIMALTRND
 40
0.0
  9
$DIMAZIN
 70
     0
  9
$DIMDSEP
 70
    46
  9
$DIMATFIT
 70
     3
  9
$DIMFRAC
 70
     0
  9
$DIMLDRBLK
  1

  9
$DIMLUNIT
 70
     2
  9
$DIMLWD
 70
    -2
  9
$DIMLWE
 70
    -2
  9
$DIMTMOVE
 70
     0
  9
$DIMFXL
 40
1.0
  9
$DIMFXLON
 70
     0
  9
$DIMJOGANG
 40
0.7853981633974483
  9
$DIMTFILL
 70
     0
  9
$DIMTFILLCLR
 70
     0
  9
$DIMARCSYM
 70
     0
  9
$DIMLTYPE
  6

  9
$DIMLTEX1
  6

  9
$DIMLTEX2
  6

  9
$DIMTXTDIRECTION
 70
     0
  9
$LUNITS
 70
     2
  9
$LUPREC
 70
     4
  9
$SKETCHINC
 40
0.1
  9
$FILLETRAD
 40
0.0
  9
$AUNITS
 70
     0
  9
$AUPREC
 70
     0
  9
$MENU
  1
.
  9
$ELEVATION
 40
0.0
  9
$PELEVATION
 40
0.0
  9
$THICKNESS
 40
0.0
  9
$LIMCHECK
 70
     0
  9
$CHAMFERA
 40
0.0
  9
$CHAMFERB
 40
0.0
  9
$CHAMFERC
 40
0.0
  9
$CHAMFERD
 40
0.0
  9
$SKPOLY
 70
     0
  9
$TDCREATE
 40
2460285.394317303
  9
$TDUCREATE
 40
2460285.602650636
  9
$TDUPDATE
 40
2460285.394317778
  9
$TDUUPDATE
 40
2460285.602651111
  9
$TDINDWG
 40
0.0000000116
  9
$TDUSRTIMER
 40
0.0000000116
  9
$USRTIMER
 70
     1
  9
$ANGBASE
 50
0.0
  9
$ANGDIR
 70
     0
  9
$PDMODE
 70
     0
  9
$PDSIZE
 40
0.0
  9
$PLINEWID
 40
0.0
  9
$SPLFRAME
 70
     0
  9
$SPLINETYPE
 70
     6
  9
$SPLINESEGS
 70
     8
  9
$HANDSEED
  5
87
  9
$SURFTAB1
 70
     6
  9
$SURFTAB2
 70
     6
  9
$SURFTYPE
 70
     6
  9
$SURFU
 70
     6
  9
$SURFV
 70
     6
  9
$UCSBASE
  2

  9
$UCSNAME
  2

  9
$UCSORG
 10
0.0
 20
0.0
 30
0.0
  9
$UCSXDIR
 10
1.0
 20
0.0
 30
0.0
  9
$UCSYDIR
 10
0.0
 20
1.0
 30
0.0
  9
$UCSORTHOREF
  2

  9
$UCSORTHOVIEW
 70
     0
  9
$UCSORGTOP
 10
0.0
 20
0.0
 30
0.0
  9
$UCSORGBOTTOM
 10
0.0
 20
0.0
 30
0.0
  9
$UCSORGLEFT
 10
0.0
 20
0.0
 30
0.0
  9
$UCSORGRIGHT
 10
0.0
 20
0.0
 30
0.0
  9
$UCSORGFRONT
 10
0.0
 20
0.0
 30
0.0
  9
$UCSORGBACK
 10
0.0
 20
0.0
 30
0.0
  9
$PUCSBASE
  2

  9
$PUCSNAME
  2

  9
$PUCSORG
 10
0.0
 20
0.0
 30
0.0
  9
$PUCSXDIR
 10
1.0
 20
0.0
 30
0.0
  9
$PUCSYDIR
 10
0.0
 20
1.0
 30
0.0
  9
$PUCSORTHOREF
  2

  9
$PUCSORTHOVIEW
 70
     0
  9
$PUCSORGTOP
 10
0.0
 20
0.0
 30
0.0
  9
$PUCSORGBOTTOM
 10
0.0
 20
0.0
 30
0.0
  9
$PUCSORGLEFT
 10
0.0
 20
0.0
 30
0.0
  9
$PUCSORGRIGHT
 10
0.0
 20
0.0
 30
0.0
  9
$PUCSORGFRONT
 10
0.0
 20
0.0
 30
0.0
  9
$PUCSORGBACK
 10
0.0
 20
0.0
 30
0.0
  9
$USERI1
 70
     0
  9
$USERI2
 70
     0
  9
$USERI3
 70
     0
  9
$USERI4
 70
     0
  9
$USERI5
 70
     0
  9
$USERR1
 40
0.0
  9
$USERR2
 40
0.0
  9
$USERR3
 40
0.0
  9
$USERR4
 40
0.0
  9
$USERR5
 40
0.0
  9
$WORLDVIEW
 70
     1
  9
$SHADEDGE
 70
     3
  9
$SHADEDIF
 70
    70
  9
$TILEMODE
 70
     1
  9
$MAXACTVP
 70
    64
  9
$PINSBASE
 10
0.0
 20
0.0
 30
0.0
  9
$PLIMCHECK
 70
     0
  9
$PEXTMIN
 10
1.000000000000000E+20
 20
1.000000000000000E+20
 30
1.000000000000000E+20
  9
$PEXTMAX
 10
-1.000000000000000E+20
 20
-1.000000000000000E+20
 30
-1.000000000000000E+20
  9
$PLIMMIN
 10
0.0
 20
0.0
  9
$PLIMMAX
 10
12.0
 20
9.0
  9
$UNITMODE
 70
     0
  9
$VISRETAIN
 70
     1
  9
$PLINEGEN
 70
     0
  9
$PSLTSCALE
 70
     1
  9
$TREEDEPTH
 70
  3020
  9
$CMLSTYLE
  2
Standard
  9
$CMLJUST
 70
     0
  9
$CMLSCALE
 40
1.0
  9
$PROXYGRAPHICS
 70
     1
  9
$MEASUREMENT
 70
     0
  9
$CELWEIGHT
370
    -1
  9
$ENDCAPS
280
     0
  9
$JOINSTYLE
280
     0
  9
$LWDISPLAY
290
     0
  9
$INSUNITS
 70
     4
  9
$HYPERLINKBASE
  1

  9
$STYLESHEET
  1

  9
$XEDIT
290
     1
  9
$CEPSNTYPE
380
     0
  9
$PSTYLEMODE
290
     1
  9
$FINGERPRINTGUID
  2
{9573d331-641b-9e45-9dc5-16ba1b9a312d}
  9
$VERSIONGUID
  2
{FAEB1C32-E019-11D5-929B-00C0DF256EC4}
  9
$EXTNAMES
290
     1
  9
$PSVPSCALE
 40
0.0
  9
$OLESTARTUP
290
     0
  9
$SORTENTS
280
   127
  9
$INDEXCTL
280
     0
  9
$HIDETEXT
280
     1
  9
$XCLIPFRAME
280
     2
  9
$HALOGAP
280
     0
  9
$OBSCOLOR
 70
   257
  9
$OBSLTYPE
280
     0
  9
$INTERSECTIONDISPLAY
280
     0
  9
$INTERSECTIONCOLOR
 70
   257
  9
$DIMASSOC
280
     2
  9
$PROJECTNAME
  1

  9
$CAMERADISPLAY
290
     0
  9
$LENSLENGTH
 40
50.0
  9
$CAMERAHEIGHT
 40
0.0
  9
$STEPSPERSEC
 40
2.0
  9
$STEPSIZE
 40
6.0
  9
$3DDWFPREC
 40
2.0
  9
$PSOLWIDTH
 40
0.25
  9
$PSOLHEIGHT
 40
4.0
  9
$LOFTANG1
 40
1.570796326794897
  9
$LOFTANG2
 40
1.570796326794897
  9
$LOFTMAG1
 40
0.0
  9
$LOFTMAG2
 40
0.0
  9
$LOFTPARAM
 70
     7
  9
$LOFTNORMALS
280
     1
  9
$LATITUDE
 40
37.795
  9
$LONGITUDE
 40
-122.394
  9
$NORTHDIRECTION
 40
0.0
  9
$TIMEZONE
 70
 -8000
  9
$LIGHTGLYPHDISPLAY
280
     1
  9
$TILEMODELIGHTSYNCH
280
     1
  9
$CMATERIAL
347
44
  9
$SOLIDHIST
280
     0
  9
$SHOWHIST
280
     1
  9
$DWFFRAME
280
     2
  9
$DGNFRAME
280
     2
  9
$REALWORLDSCALE
290
     1
  9
$INTERFERECOLOR
 62
   256
  9
$CSHADOW
280
     0
  9
$SHADOWPLANELOCATION
 40
0.0
  0
ENDSEC
  0
SECTION
  2
CLASSES
  0
CLASS
  1
ACDBDICTIONARYWDFLT
  2
AcDbDictionaryWithDefault
  3
ObjectDBX Classes
 90
        0
 91
        3
280
     0
281
     0
  0
CLASS
  1
VISUALSTYLE
  2
AcDbVisualStyle
  3
ObjectDBX Classes
 90
     4095
 91
        3
280
     0
281
     0
  0
CLASS
  1
MATERIAL
  2
AcDbMaterial
  3
ObjectDBX Classes
 90
     1153
 91
        3
280
     0
281
     0
  0
CLASS
  1
SCALE
  2
AcDbScale
  3
ObjectDBX Classes
 90
     1153
 91
        3
280
     0
281
     0
  0
CLASS
  1
TABLESTYLE
  2
AcDbTableStyle
  3
ObjectDBX Classes
 90
     4095
 91
        3
280
     0
281
     0
  0
CLASS
  1
MLEADERSTYLE
  2
AcDbMLeaderStyle
  3
ACDB_MLEADERSTYLE_CLASS
 90
     4095
 91
        3
280
     0
281
     0
  0
CLASS
  1
SUN
  2
AcDbSun
  3
SCENEOE
 90
     1153
 91
        3
280
     0
281
     0
  0
CLASS
  1
DICTIONARYVAR
  2
AcDbDictionaryVar
  3
ObjectDBX Classes
 90
        0
 91
        3
280
     0
281
     0
  0
CLASS
  1
CELLSTYLEMAP
  2
AcDbCellStyleMap
  3
ObjectDBX Classes
 90
     1152
 91
        3
280
     0
281
     0
  0
ENDSEC
  0
SECTION
  2
TABLES
  0
TABLE
  2
VPORT
  5
8
330
0
100
AcDbSymbolTable
 70
     1
  0
VPORT
  5
29
330
8
100
AcDbSymbolTableRecord
100
AcDbViewportTableRecord
  2
*Active
 70
     0
 10
0.0
 20
0.0
 11
1.0
 21
1.0
 12
10.42990654205607
 22
4.5
 13
0.0
 23
0.0
 14
0.5
 24
0.5
 15
0.5
 25
0.5
 16
0.0
 26
0.0
 36
1.0
 17
0.0
 27
0.0
 37
0.0
 40
9.0
 41
1.972972972850329
 42
50.0
 43
0.0
 44
0.0
 50
0.0
 51
0.0
 71
     0
 72
   100
 73
     1
 74
     3
 75
     0
 76
     0
 77
     0
 78
     0
281
     0
 65
     1
110
0.0
120
0.0
130
0.0
111
1.0
121
0.0
131
0.0
112
0.0
122
1.0
132
0.0
 79
     0
146
0.0
348
2F
 60
     3
 61
     5
292
     1
282
     1
141
0.0
142
0.0
 63
   250
361
5D
  0
ENDTAB
  0
TABLE
  2
LTYPE
  5
5
330
0
100
AcDbSymbolTable
 70
     1
  0
LTYPE
  5
14
330
5
100
AcDbSymbolTableRecord
100
AcDbLinetypeTableRecord
  2
ByBlock
 70
     0
  3

 72
    65
 73
     0
 40
0.0
  0
LTYPE
  5
15
330
5
100
AcDbSymbolTableRecord
100
AcDbLinetypeTableRecord
  2
ByLayer
 70
     0
  3

 72
    65
 73
     0
 40
0.0
  0
LTYPE
  5
16
330
5
100
AcDbSymbolTableRecord
100
AcDbLinetypeTableRecord
  2
Continuous
 70
     0
  3
Solid line
 72
    65
 73
     0
 40
0.0
  0
ENDTAB
  0
TABLE
  2
LAYER
  5
2
330
0
100
AcDbSymbolTable
 70
     2
  0
LAYER
  5
10
330
2
100
AcDbSymbolTableRecord
100
AcDbLayerTableRecord
  2
0
 70
     0
 62
     7
  6
Continuous
370
    -3
390
F
347
46
348
0
  0
LAYER
  5
5F
330
2
100
AcDbSymbolTableRecord
100
AcDbLayerTableRecord
  2
Layer 1
 70
     0
 62
     7
  6
Continuous
370
    -3
390
F
347
46
348
0
  0
ENDTAB
  0
TABLE
  2
STYLE
  5
3
330
0
100
AcDbSymbolTable
 70
     1
  0
STYLE
  5
11
330
3
100
AcDbSymbolTableRecord
100
AcDbTextStyleTableRecord
  2
Standard
 70
     0
 40
0.0
 41
1.0
 50
0.0
 71
     0
 42
0.2
  3
txt
  4

  0
ENDTAB
  0
TABLE
  2
VIEW
  5
6
330
0
100
AcDbSymbolTable
 70
     0
  0
ENDTAB
  0
TABLE
  2
UCS
  5
7
330
0
100
AcDbSymbolTable
 70
     0
  0
ENDTAB
  0
TABLE
  2
APPID
  5
9
330
0
100
AcDbSymbolTable
 70
     2
  0
APPID
  5
12
330
9
100
AcDbSymbolTableRecord
100
AcDbRegAppTableRecord
  2
ACAD
 70
     0
  0
APPID
  5
5E
330
9
100
AcDbSymbolTableRecord
100
AcDbRegAppTableRecord
  2
ODA
 70
     0
  0
ENDTAB
  0
TABLE
  2
DIMSTYLE
  5
A
330
0
100
AcDbSymbolTable
 70
     1
100
AcDbDimStyleTable
  0
DIMSTYLE
105
27
330
A
100
AcDbSymbolTableRecord
100
AcDbDimStyleTableRecord
  2
Standard
 70
     0
178
     0
340
11
  0
ENDTAB
  0
TABLE
  2
BLOCK_RECORD
  5
1
330
0
100
AcDbSymbolTable
 70
     1
  0
BLOCK_RECORD
  5
1F
330
1
100
AcDbSymbolTableRecord
100
AcDbBlockTableRecord
  2
*Model_Space
340
22
 70
     0
280
     1
281
     0
  0
BLOCK_RECORD
  5
1B
330
1
100
AcDbSymbolTableRecord
100
AcDbBlockTableRecord
  2
*Paper_Space
340
1E
 70
     0
280
     1
281
     0
  0
BLOCK_RECORD
  5
23
330
1
100
AcDbSymbolTableRecord
100
AcDbBlockTableRecord
  2
*Paper_Space0
340
26
 70
     0
280
     1
281
     0
  0
ENDTAB
  0
ENDSEC
  0
SECTION
  2
BLOCKS
  0
BLOCK
  5
20
330
1F
100
AcDbEntity
  8
0
100
AcDbBlockBegin
  2
*Model_Space
 70
     0
 10
0.0
 20
0.0
 30
0.0
  3
*Model_Space
  1

  0
ENDBLK
  5
21
330
1F
100
AcDbEntity
  8
0
100
AcDbBlockEnd
  0
BLOCK
  5
1C
330
1B
100
AcDbEntity
 67
     1
  8
0
100
AcDbBlockBegin
  2
*Paper_Space
 70
     0
 10
0.0
 20
0.0
 30
0.0
  3
*Paper_Space
  1

  0
ENDBLK
  5
1D
330
1B
100
AcDbEntity
 67
     1
  8
0
100
AcDbBlockEnd
  0
BLOCK
  5
24
330
23
100
AcDbEntity
  8
0
100
AcDbBlockBegin
  2
*Paper_Space0
 70
     0
 10
0.0
 20
0.0
 30
0.0
  3
*Paper_Space0
  1

  0
ENDBLK
  5
25
330
23
100
AcDbEntity
  8
0
100
AcDbBlockEnd
  0
ENDSEC
  0
SECTION
  2
ENTITIES
  0
SPLINE
  5
60
330
1F
100
AcDbEntity
  8
Layer 1
 62
   250
370
     9
100
AcDbSpline
210
0.0
220
0.0
230
1.0
 70
    11
 71
     3
 72
    17
 73
    13
 74
     0
 42
0.0000000001
 43
0.0000000001
 40
0.0
 40
0.0
 40
0.0
 40
0.0
 40
0.25
 40
0.25
 40
0.25
 40
0.5
 40
0.5
 40
0.5
 40
0.75
 40
0.75
 40
0.75
 40
1.0
 40
1.0
 40
1.0
 40
1.0
 10
-471.0826
 20
-80.0606
 30
0.0
 10
-471.0826
 20
-80.0606
 30
0.0
 10
470.9174
 20
-80.0606
 30
0.0
 10
470.9174
 20
-80.0606
 30
0.0
 10
470.9174
 20
-80.0606
 30
0.0
 10
470.9174
 20
-160.0568
 30
0.0
 10
470.9174
 20
-160.0568
 30
0.0
 10
470.9174
 20
-160.0568
 30
0.0
 10
-471.0826
 20
-160.0568
 30
0.0
 10
-471.0826
 20
-160.0568
 30
0.0
 10
-471.0826
 20
-160.0568
 30
0.0
 10
-471.0826
 20
-80.0606
 30
0.0
 10
-471.0826
 20
-80.0606
 30
0.0
  0
SPLINE
  5
61
330
1F
100
AcDbEntity
  8
Layer 1
 62
   250
370
     9
100
AcDbSpline
210
0.0
220
0.0
230
1.0
 70
    11
 71
     3
 72
    17
 73
    13
 74
     0
 42
0.0000000001
 43
0.0000000001
 40
0.0
 40
0.0
 40
0.0
 40
0.0
 40
0.25
 40
0.25
 40
0.25
 40
0.5
 40
0.5
 40
0.5
 40
0.75
 40
0.75
 40
0.75
 40
1.0
 40
1.0
 40
1.0
 40
1.0
 10
470.9174
 20
-80.0606
 30
0.0
 10
470.9174
 20
-80.0606
 30
0.0
 10
-471.0826
 20
-80.0606
 30
0.0
 10
-471.0826
 20
-80.0606
 30
0.0
 10
-471.0826
 20
-80.0606
 30
0.0
 10
-471.0826
 20
-160.0568
 30
0.0
 10
-471.0826
 20
-160.0568
 30
0.0
 10
-471.0826
 20
-160.0568
 30
0.0
 10
470.9174
 20
-160.0568
 30
0.0
 10
470.9174
 20
-160.0568
 30
0.0
 10
470.9174
 20
-160.0568
 30
0.0
 10
470.9174
 20
-80.0606
 30
0.0
 10
470.9174
 20
-80.0606
 30
0.0
  0
SPLINE
  5
62
330
1F
100
AcDbEntity
  8
Layer 1
 62
   250
370
     9
100
AcDbSpline
210
0.0
220
0.0
230
1.0
 70
    11
 71
     3
 72
    17
 73
    13
 74
     0
 42
0.0000000001
 43
0.0000000001
 40
0.0
 40
0.0
 40
0.0
 40
0.0
 40
0.25
 40
0.25
 40
0.25
 40
0.5
 40
0.5
 40
0.5
 40
0.75
 40
0.75
 40
0.75
 40
1.0
 40
1.0
 40
1.0
 40
1.0
 10
463.4078
 20
-83.4008
 30
0.0
 10
464.841
 20
-83.4008
 30
0.0
 10
466.0028
 20
-84.5626
 30
0.0
 10
466.0028
 20
-85.9958
 30
0.0
 10
466.0028
 20
-87.429
 30
0.0
 10
464.841
 20
-88.5908
 30
0.0
 10
463.4078
 20
-88.5908
 30
0.0
 10
461.9746
 20
-88.5908
 30
0.0
 10
460.8128
 20
-87.429
 30
0.0
 10
460.8128
 20
-85.9958
 30
0.0
 10
460.8128
 20
-84.5626
 30
0.0
 10
461.9746
 20
-83.4008
 30
0.0
 10
463.4078
 20
-83.4008
 30
0.0
  0
SPLINE
  5
63
330
1F
100
AcDbEntity
  8
Layer 1
 62
   250
370
     9
100
AcDbSpline
210
0.0
220
0.0
230
1.0
 70
    11
 71
     3
 72
    17
 73
    13
 74
     0
 42
0.0000000001
 43
0.0000000001
 40
0.0
 40
0.0
 40
0.0
 40
0.0
 40
0.25
 40
0.25
 40
0.25
 40
0.5
 40
0.5
 40
0.5
 40
0.75
 40
0.75
 40
0.75
 40
1.0
 40
1.0
 40
1.0
 40
1.0
 10
463.4078
 20
-156.7166
 30
0.0
 10
464.841
 20
-156.7166
 30
0.0
 10
466.0028
 20
-155.5548
 30
0.0
 10
466.0028
 20
-154.1216
 30
0.0
 10
466.0028
 20
-152.6884
 30
0.0
 10
464.841
 20
-151.5266
 30
0.0
 10
463.4078
 20
-151.5266
 30
0.0
 10
461.9746
 20
-151.5266
 30
0.0
 10
460.8128
 20
-152.6884
 30
0.0
 10
460.8128
 20
-154.1216
 30
0.0
 10
460.8128
 20
-155.5548
 30
0.0
 10
461.9746
 20
-156.7166
 30
0.0
 10
463.4078
 20
-156.7166
 30
0.0
  0
SPLINE
  5
64
330
1F
100
AcDbEntity
  8
Layer 1
 62
   250
370
     9
100
AcDbSpline
210
0.0
220
0.0
230
1.0
 70
    11
 71
     3
 72
    17
 73
    13
 74
     0
 42
0.0000000001
 43
0.0000000001
 40
0.0
 40
0.0
 40
0.0
 40
0.0
 40
0.25
 40
0.25
 40
0.25
 40
0.5
 40
0.5
 40
0.5
 40
0.75
 40
0.75
 40
0.75
 40
1.0
 40
1.0
 40
1.0
 40
1.0
 10
360.4094
 20
-83.4008
 30
0.0
 10
361.8426
 20
-83.4008
 30
0.0
 10
363.0044
 20
-84.5626
 30
0.0
 10
363.0044
 20
-85.9958
 30
0.0
 10
363.0044
 20
-87.429
 30
0.0
 10
361.8426
 20
-88.5908
 30
0.0
 10
360.4094
 20
-88.5908
 30
0.0
 10
358.9762
 20
-88.5908
 30
0.0
 10
357.8144
 20
-87.429
 30
0.0
 10
357.8144
 20
-85.9958
 30
0.0
 10
357.8144
 20
-84.5626
 30
0.0
 10
358.9762
 20
-83.4008
 30
0.0
 10
360.4094
 20
-83.4008
 30
0.0
  0
SPLINE
  5
65
330
1F
100
AcDbEntity
  8
Layer 1
 62
   250
370
     9
100
AcDbSpline
210
0.0
220
0.0
230
1.0
 70
    11
 71
     3
 72
    17
 73
    13
 74
     0
 42
0.0000000001
 43
0.0000000001
 40
0.0
 40
0.0
 40
0.0
 40
0.0
 40
0.25
 40
0.25
 40
0.25
 40
0.5
 40
0.5
 40
0.5
 40
0.75
 40
0.75
 40
0.75
 40
1.0
 40
1.0
 40
1.0
 40
1.0
 10
360.4094
 20
-156.7166
 30
0.0
 10
361.8426
 20
-156.7166
 30
0.0
 10
363.0044
 20
-155.5548
 30
0.0
 10
363.0044
 20
-154.1216
 30
0.0
 10
363.0044
 20
-152.6884
 30
0.0
 10
361.8426
 20
-151.5266
 30
0.0
 10
360.4094
 20
-151.5266
 30
0.0
 10
358.9762
 20
-151.5266
 30
0.0
 10
357.8144
 20
-152.6884
 30
0.0
 10
357.8144
 20
-154.1216
 30
0.0
 10
357.8144
 20
-155.5548
 30
0.0
 10
358.9762
 20
-156.7166
 30
0.0
 10
360.4094
 20
-156.7166
 30
0.0
  0
SPLINE
  5
66
330
1F
100
AcDbEntity
  8
Layer 1
 62
   250
370
     9
100
AcDbSpline
210
0.0
220
0.0
230
1.0
 70
    11
 71
     3
 72
    17
 73
    13
 74
     0
 42
0.0000000001
 43
0.0000000001
 40
0.0
 40
0.0
 40
0.0
 40
0.0
 40
0.25
 40
0.25
 40
0.25
 40
0.5
 40
0.5
 40
0.5
 40
0.75
 40
0.75
 40
0.75
 40
1.0
 40
1.0
 40
1.0
 40
1.0
 10
257.4116
 20
-83.4008
 30
0.0
 10
258.8448
 20
-83.4008
 30
0.0
 10
260.0066
 20
-84.5626
 30
0.0
 10
260.0066
 20
-85.9958
 30
0.0
 10
260.0066
 20
-87.429
 30
0.0
 10
258.8448
 20
-88.5908
 30
0.0
 10
257.4116
 20
-88.5908
 30
0.0
 10
255.9784
 20
-88.5908
 30
0.0
 10
254.8166
 20
-87.429
 30
0.0
 10
254.8166
 20
-85.9958
 30
0.0
 10
254.8166
 20
-84.5626
 30
0.0
 10
255.9784
 20
-83.4008
 30
0.0
 10
257.4116
 20
-83.4008
 30
0.0
  0
SPLINE
  5
67
330
1F
100
AcDbEntity
  8
Layer 1
 62
   250
370
     9
100
AcDbSpline
210
0.0
220
0.0
230
1.0
 70
    11
 71
     3
 72
    17
 73
    13
 74
     0
 42
0.0000000001
 43
0.0000000001
 40
0.0
 40
0.0
 40
0.0
 40
0.0
 40
0.25
 40
0.25
 40
0.25
 40
0.5
 40
0.5
 40
0.5
 40
0.75
 40
0.75
 40
0.75
 40
1.0
 40
1.0
 40
1.0
 40
1.0
 10
257.4116
 20
-156.7166
 30
0.0
 10
258.8448
 20
-156.7166
 30
0.0
 10
260.0066
 20
-155.5548
 30
0.0
 10
260.0066
 20
-154.1216
 30
0.0
 10
260.0066
 20
-152.6884
 30
0.0
 10
258.8448
 20
-151.5266
 30
0.0
 10
257.4116
 20
-151.5266
 30
0.0
 10
255.9784
 20
-151.5266
 30
0.0
 10
254.8166
 20
-152.6884
 30
0.0
 10
254.8166
 20
-154.1216
 30
0.0
 10
254.8166
 20
-155.5548
 30
0.0
 10
255.9784
 20
-156.7166
 30
0.0
 10
257.4116
 20
-156.7166
 30
0.0
  0
SPLINE
  5
68
330
1F
100
AcDbEntity
  8
Layer 1
 62
   250
370
     9
100
AcDbSpline
210
0.0
220
0.0
230
1.0
 70
    11
 71
     3
 72
    17
 73
    13
 74
     0
 42
0.0000000001
 43
0.0000000001
 40
0.0
 40
0.0
 40
0.0
 40
0.0
 40
0.25
 40
0.25
 40
0.25
 40
0.5
 40
0.5
 40
0.5
 40
0.75
 40
0.75
 40
0.75
 40
1.0
 40
1.0
 40
1.0
 40
1.0
 10
154.4138
 20
-83.4008
 30
0.0
 10
155.847
 20
-83.4008
 30
0.0
 10
157.0088
 20
-84.5626
 30
0.0
 10
157.0088
 20
-85.9958
 30
0.0
 10
157.0088
 20
-87.429
 30
0.0
 10
155.847
 20
-88.5908
 30
0.0
 10
154.4138
 20
-88.5908
 30
0.0
 10
152.9806
 20
-88.5908
 30
0.0
 10
151.8188
 20
-87.429
 30
0.0
 10
151.8188
 20
-85.9958
 30
0.0
 10
151.8188
 20
-84.5626
 30
0.0
 10
152.9806
 20
-83.4008
 30
0.0
 10
154.4138
 20
-83.4008
 30
0.0
  0
SPLINE
  5
69
330
1F
100
AcDbEntity
  8
Layer 1
 62
   250
370
     9
100
AcDbSpline
210
0.0
220
0.0
230
1.0
 70
    11
 71
     3
 72
    17
 73
    13
 74
     0
 42
0.0000000001
 43
0.0000000001
 40
0.0
 40
0.0
 40
0.0
 40
0.0
 40
0.25
 40
0.25
 40
0.25
 40
0.5
 40
0.5
 40
0.5
 40
0.75
 40
0.75
 40
0.75
 40
1.0
 40
1.0
 40
1.0
 40
1.0
 10
154.4138
 20
-156.7166
 30
0.0
 10
155.847
 20
-156.7166
 30
0.0
 10
157.0088
 20
-155.5548
 30
0.0
 10
157.0088
 20
-154.1216
 30
0.0
 10
157.0088
 20
-152.6884
 30
0.0
 10
155.847
 20
-151.5266
 30
0.0
 10
154.4138
 20
-151.5266
 30
0.0
 10
152.9806
 20
-151.5266
 30
0.0
 10
151.8188
 20
-152.6884
 30
0.0
 10
151.8188
 20
-154.1216
 30
0.0
 10
151.8188
 20
-155.5548
 30
0.0
 10
152.9806
 20
-156.7166
 30
0.0
 10
154.4138
 20
-156.7166
 30
0.0
  0
SPLINE
  5
6A
330
1F
100
AcDbEntity
  8
Layer 1
 62
   250
370
     9
100
AcDbSpline
210
0.0
220
0.0
230
1.0
 70
    11
 71
     3
 72
    17
 73
    13
 74
     0
 42
0.0000000001
 43
0.0000000001
 40
0.0
 40
0.0
 40
0.0
 40
0.0
 40
0.25
 40
0.25
 40
0.25
 40
0.5
 40
0.5
 40
0.5
 40
0.75
 40
0.75
 40
0.75
 40
1.0
 40
1.0
 40
1.0
 40
1.0
 10
51.416
 20
-83.4008
 30
0.0
 10
52.8492
 20
-83.4008
 30
0.0
 10
54.011
 20
-84.5626
 30
0.0
 10
54.011
 20
-85.9958
 30
0.0
 10
54.011
 20
-87.429
 30
0.0
 10
52.8492
 20
-88.5908
 30
0.0
 10
51.416
 20
-88.5908
 30
0.0
 10
49.9828
 20
-88.5908
 30
0.0
 10
48.821
 20
-87.429
 30
0.0
 10
48.821
 20
-85.9958
 30
0.0
 10
48.821
 20
-84.5626
 30
0.0
 10
49.9828
 20
-83.4008
 30
0.0
 10
51.416
 20
-83.4008
 30
0.0
  0
SPLINE
  5
6B
330
1F
100
AcDbEntity
  8
Layer 1
 62
   250
370
     9
100
AcDbSpline
210
0.0
220
0.0
230
1.0
 70
    11
 71
     3
 72
    17
 73
    13
 74
     0
 42
0.0000000001
 43
0.0000000001
 40
0.0
 40
0.0
 40
0.0
 40
0.0
 40
0.25
 40
0.25
 40
0.25
 40
0.5
 40
0.5
 40
0.5
 40
0.75
 40
0.75
 40
0.75
 40
1.0
 40
1.0
 40
1.0
 40
1.0
 10
51.416
 20
-156.7166
 30
0.0
 10
52.8492
 20
-156.7166
 30
0.0
 10
54.011
 20
-155.5548
 30
0.0
 10
54.011
 20
-154.1216
 30
0.0
 10
54.011
 20
-152.6884
 30
0.0
 10
52.8492
 20
-151.5266
 30
0.0
 10
51.416
 20
-151.5266
 30
0.0
 10
49.9828
 20
-151.5266
 30
0.0
 10
48.821
 20
-152.6884
 30
0.0
 10
48.821
 20
-154.1216
 30
0.0
 10
48.821
 20
-155.5548
 30
0.0
 10
49.9828
 20
-156.7166
 30
0.0
 10
51.416
 20
-156.7166
 30
0.0
  0
SPLINE
  5
6C
330
1F
100
AcDbEntity
  8
Layer 1
 62
   250
370
     9
100
AcDbSpline
210
0.0
220
0.0
230
1.0
 70
    11
 71
     3
 72
    17
 73
    13
 74
     0
 42
0.0000000001
 43
0.0000000001
 40
0.0
 40
0.0
 40
0.0
 40
0.0
 40
0.25
 40
0.25
 40
0.25
 40
0.5
 40
0.5
 40
0.5
 40
0.75
 40
0.75
 40
0.75
 40
1.0
 40
1.0
 40
1.0
 40
1.0
 10
-51.5818
 20
-83.4008
 30
0.0
 10
-50.1486
 20
-83.4008
 30
0.0
 10
-48.9868
 20
-84.5626
 30
0.0
 10
-48.9868
 20
-85.9958
 30
0.0
 10
-48.9868
 20
-87.429
 30
0.0
 10
-50.1486
 20
-88.5908
 30
0.0
 10
-51.5818
 20
-88.5908
 30
0.0
 10
-53.015
 20
-88.5908
 30
0.0
 10
-54.1768
 20
-87.429
 30
0.0
 10
-54.1768
 20
-85.9958
 30
0.0
 10
-54.1768
 20
-84.5626
 30
0.0
 10
-53.015
 20
-83.4008
 30
0.0
 10
-51.5818
 20
-83.4008
 30
0.0
  0
SPLINE
  5
6D
330
1F
100
AcDbEntity
  8
Layer 1
 62
   250
370
     9
100
AcDbSpline
210
0.0
220
0.0
230
1.0
 70
    11
 71
     3
 72
    17
 73
    13
 74
     0
 42
0.0000000001
 43
0.0000000001
 40
0.0
 40
0.0
 40
0.0
 40
0.0
 40
0.25
 40
0.25
 40
0.25
 40
0.5
 40
0.5
 40
0.5
 40
0.75
 40
0.75
 40
0.75
 40
1.0
 40
1.0
 40
1.0
 40
1.0
 10
-51.5818
 20
-156.7166
 30
0.0
 10
-50.1486
 20
-156.7166
 30
0.0
 10
-48.9868
 20
-155.5548
 30
0.0
 10
-48.9868
 20
-154.1216
 30
0.0
 10
-48.9868
 20
-152.6884
 30
0.0
 10
-50.1486
 20
-151.5266
 30
0.0
 10
-51.5818
 20
-151.5266
 30
0.0
 10
-53.015
 20
-151.5266
 30
0.0
 10
-54.1768
 20
-152.6884
 30
0.0
 10
-54.1768
 20
-154.1216
 30
0.0
 10
-54.1768
 20
-155.5548
 30
0.0
 10
-53.015
 20
-156.7166
 30
0.0
 10
-51.5818
 20
-156.7166
 30
0.0
  0
SPLINE
  5
6E
330
1F
100
AcDbEntity
  8
Layer 1
 62
   250
370
     9
100
AcDbSpline
210
0.0
220
0.0
230
1.0
 70
    11
 71
     3
 72
    17
 73
    13
 74
     0
 42
0.0000000001
 43
0.0000000001
 40
0.0
 40
0.0
 40
0.0
 40
0.0
 40
0.25
 40
0.25
 40
0.25
 40
0.5
 40
0.5
 40
0.5
 40
0.75
 40
0.75
 40
0.75
 40
1.0
 40
1.0
 40
1.0
 40
1.0
 10
-154.5796
 20
-83.4008
 30
0.0
 10
-153.1464
 20
-83.4008
 30
0.0
 10
-151.9846
 20
-84.5626
 30
0.0
 10
-151.9846
 20
-85.9958
 30
0.0
 10
-151.9846
 20
-87.429
 30
0.0
 10
-153.1464
 20
-88.5908
 30
0.0
 10
-154.5796
 20
-88.5908
 30
0.0
 10
-156.0128
 20
-88.5908
 30
0.0
 10
-157.1746
 20
-87.429
 30
0.0
 10
-157.1746
 20
-85.9958
 30
0.0
 10
-157.1746
 20
-84.5626
 30
0.0
 10
-156.0128
 20
-83.4008
 30
0.0
 10
-154.5796
 20
-83.4008
 30
0.0
  0
SPLINE
  5
6F
330
1F
100
AcDbEntity
  8
Layer 1
 62
   250
370
     9
100
AcDbSpline
210
0.0
220
0.0
230
1.0
 70
    11
 71
     3
 72
    17
 73
    13
 74
     0
 42
0.0000000001
 43
0.0000000001
 40
0.0
 40
0.0
 40
0.0
 40
0.0
 40
0.25
 40
0.25
 40
0.25
 40
0.5
 40
0.5
 40
0.5
 40
0.75
 40
0.75
 40
0.75
 40
1.0
 40
1.0
 40
1.0
 40
1.0
 10
-154.5796
 20
-156.7166
 30
0.0
 10
-153.1464
 20
-156.7166
 30
0.0
 10
-151.9846
 20
-155.5548
 30
0.0
 10
-151.9846
 20
-154.1216
 30
0.0
 10
-151.9846
 20
-152.6884
 30
0.0
 10
-153.1464
 20
-151.5266
 30
0.0
 10
-154.5796
 20
-151.5266
 30
0.0
 10
-156.0128
 20
-151.5266
 30
0.0
 10
-157.1746
 20
-152.6884
 30
0.0
 10
-157.1746
 20
-154.1216
 30
0.0
 10
-157.1746
 20
-155.5548
 30
0.0
 10
-156.0128
 20
-156.7166
 30
0.0
 10
-154.5796
 20
-156.7166
 30
0.0
  0
SPLINE
  5
70
330
1F
100
AcDbEntity
  8
Layer 1
 62
   250
370
     9
100
AcDbSpline
210
0.0
220
0.0
230
1.0
 70
    11
 71
     3
 72
    17
 73
    13
 74
     0
 42
0.0000000001
 43
0.0000000001
 40
0.0
 40
0.0
 40
0.0
 40
0.0
 40
0.25
 40
0.25
 40
0.25
 40
0.5
 40
0.5
 40
0.5
 40
0.75
 40
0.75
 40
0.75
 40
1.0
 40
1.0
 40
1.0
 40
1.0
 10
-257.5774
 20
-83.4008
 30
0.0
 10
-256.1442
 20
-83.4008
 30
0.0
 10
-254.9824
 20
-84.5626
 30
0.0
 10
-254.9824
 20
-85.9958
 30
0.0
 10
-254.9824
 20
-87.429
 30
0.0
 10
-256.1442
 20
-88.5908
 30
0.0
 10
-257.5774
 20
-88.5908
 30
0.0
 10
-259.0106
 20
-88.5908
 30
0.0
 10
-260.1724
 20
-87.429
 30
0.0
 10
-260.1724
 20
-85.9958
 30
0.0
 10
-260.1724
 20
-84.5626
 30
0.0
 10
-259.0106
 20
-83.4008
 30
0.0
 10
-257.5774
 20
-83.4008
 30
0.0
  0
SPLINE
  5
71
330
1F
100
AcDbEntity
  8
Layer 1
 62
   250
370
     9
100
AcDbSpline
210
0.0
220
0.0
230
1.0
 70
    11
 71
     3
 72
    17
 73
    13
 74
     0
 42
0.0000000001
 43
0.0000000001
 40
0.0
 40
0.0
 40
0.0
 40
0.0
 40
0.25
 40
0.25
 40
0.25
 40
0.5
 40
0.5
 40
0.5
 40
0.75
 40
0.75
 40
0.75
 40
1.0
 40
1.0
 40
1.0
 40
1.0
 10
-257.5774
 20
-156.7166
 30
0.0
 10
-256.1442
 20
-156.7166
 30
0.0
 10
-254.9824
 20
-155.5548
 30
0.0
 10
-254.9824
 20
-154.1216
 30
0.0
 10
-254.9824
 20
-152.6884
 30
0.0
 10
-256.1442
 20
-151.5266
 30
0.0
 10
-257.5774
 20
-151.5266
 30
0.0
 10
-259.0106
 20
-151.5266
 30
0.0
 10
-260.1724
 20
-152.6884
 30
0.0
 10
-260.1724
 20
-154.1216
 30
0.0
 10
-260.1724
 20
-155.5548
 30
0.0
 10
-259.0106
 20
-156.7166
 30
0.0
 10
-257.5774
 20
-156.7166
 30
0.0
  0
SPLINE
  5
72
330
1F
100
AcDbEntity
  8
Layer 1
 62
   250
370
     9
100
AcDbSpline
210
0.0
220
0.0
230
1.0
 70
    11
 71
     3
 72
    17
 73
    13
 74
     0
 42
0.0000000001
 43
0.0000000001
 40
0.0
 40
0.0
 40
0.0
 40
0.0
 40
0.25
 40
0.25
 40
0.25
 40
0.5
 40
0.5
 40
0.5
 40
0.75
 40
0.75
 40
0.75
 40
1.0
 40
1.0
 40
1.0
 40
1.0
 10
-360.5752
 20
-83.4008
 30
0.0
 10
-359.142
 20
-83.4008
 30
0.0
 10
-357.9802
 20
-84.5626
 30
0.0
 10
-357.9802
 20
-85.9958
 30
0.0
 10
-357.9802
 20
-87.429
 30
0.0
 10
-359.142
 20
-88.5908
 30
0.0
 10
-360.5752
 20
-88.5908
 30
0.0
 10
-362.0084
 20
-88.5908
 30
0.0
 10
-363.1702
 20
-87.429
 30
0.0
 10
-363.1702
 20
-85.9958
 30
0.0
 10
-363.1702
 20
-84.5626
 30
0.0
 10
-362.0084
 20
-83.4008
 30
0.0
 10
-360.5752
 20
-83.4008
 30
0.0
  0
SPLINE
  5
73
330
1F
100
AcDbEntity
  8
Layer 1
 62
   250
370
     9
100
AcDbSpline
210
0.0
220
0.0
230
1.0
 70
    11
 71
     3
 72
    17
 73
    13
 74
     0
 42
0.0000000001
 43
0.0000000001
 40
0.0
 40
0.0
 40
0.0
 40
0.0
 40
0.25
 40
0.25
 40
0.25
 40
0.5
 40
0.5
 40
0.5
 40
0.75
 40
0.75
 40
0.75
 40
1.0
 40
1.0
 40
1.0
 40
1.0
 10
-360.5752
 20
-156.7166
 30
0.0
 10
-359.142
 20
-156.7166
 30
0.0
 10
-357.9802
 20
-155.5548
 30
0.0
 10
-357.9802
 20
-154.1216
 30
0.0
 10
-357.9802
 20
-152.6884
 30
0.0
 10
-359.142
 20
-151.5266
 30
0.0
 10
-360.5752
 20
-151.5266
 30
0.0
 10
-362.0084
 20
-151.5266
 30
0.0
 10
-363.1702
 20
-152.6884
 30
0.0
 10
-363.1702
 20
-154.1216
 30
0.0
 10
-363.1702
 20
-155.5548
 30
0.0
 10
-362.0084
 20
-156.7166
 30
0.0
 10
-360.5752
 20
-156.7166
 30
0.0
  0
SPLINE
  5
74
330
1F
100
AcDbEntity
  8
Layer 1
 62
   250
370
     9
100
AcDbSpline
210
0.0
220
0.0
230
1.0
 70
    11
 71
     3
 72
    17
 73
    13
 74
     0
 42
0.0000000001
 43
0.0000000001
 40
0.0
 40
0.0
 40
0.0
 40
0.0
 40
0.25
 40
0.25
 40
0.25
 40
0.5
 40
0.5
 40
0.5
 40
0.75
 40
0.75
 40
0.75
 40
1.0
 40
1.0
 40
1.0
 40
1.0
 10
-463.573
 20
-83.4008
 30
0.0
 10
-465.0062
 20
-83.4008
 30
0.0
 10
-466.168
 20
-84.5626
 30
0.0
 10
-466.168
 20
-85.9958
 30
0.0
 10
-466.168
 20
-87.429
 30
0.0
 10
-465.0062
 20
-88.5908
 30
0.0
 10
-463.573
 20
-88.5908
 30
0.0
 10
-462.1398
 20
-88.5908
 30
0.0
 10
-460.978
 20
-87.429
 30
0.0
 10
-460.978
 20
-85.9958
 30
0.0
 10
-460.978
 20
-84.5626
 30
0.0
 10
-462.1398
 20
-83.4008
 30
0.0
 10
-463.573
 20
-83.4008
 30
0.0
  0
SPLINE
  5
75
330
1F
100
AcDbEntity
  8
Layer 1
 62
   250
370
     9
100
AcDbSpline
210
0.0
220
0.0
230
1.0
 70
    11
 71
     3
 72
    17
 73
    13
 74
     0
 42
0.0000000001
 43
0.0000000001
 40
0.0
 40
0.0
 40
0.0
 40
0.0
 40
0.25
 40
0.25
 40
0.25
 40
0.5
 40
0.5
 40
0.5
 40
0.75
 40
0.75
 40
0.75
 40
1.0
 40
1.0
 40
1.0
 40
1.0
 10
-463.573
 20
-156.7166
 30
0.0
 10
-465.0062
 20
-156.7166
 30
0.0
 10
-466.168
 20
-155.5548
 30
0.0
 10
-466.168
 20
-154.1216
 30
0.0
 10
-466.168
 20
-152.6884
 30
0.0
 10
-465.0062
 20
-151.5266
 30
0.0
 10
-463.573
 20
-151.5266
 30
0.0
 10
-462.1398
 20
-151.5266
 30
0.0
 10
-460.978
 20
-152.6884
 30
0.0
 10
-460.978
 20
-154.1216
 30
0.0
 10
-460.978
 20
-155.5548
 30
0.0
 10
-462.1398
 20
-156.7166
 30
0.0
 10
-463.573
 20
-156.7166
 30
0.0
  0
SPLINE
  5
76
330
1F
100
AcDbEntity
  8
Layer 1
 62
   250
370
     9
100
AcDbSpline
210
0.0
220
0.0
230
1.0
 70
    11
 71
     3
 72
    50
 73
    46
 74
     0
 42
0.0000000001
 43
0.0000000001
 40
0.0
 40
0.0
 40
0.0
 40
0.0
 40
0.0666666666666667
 40
0.0666666666666667
 40
0.0666666666666667
 40
0.1333333333333333
 40
0.1333333333333333
 40
0.1333333333333333
 40
0.2
 40
0.2
 40
0.2
 40
0.2666666666666667
 40
0.2666666666666667
 40
0.2666666666666667
 40
0.3333333333333333
 40
0.3333333333333333
 40
0.3333333333333333
 40
0.4
 40
0.4
 40
0.4
 40
0.4666666666666667
 40
0.4666666666666667
 40
0.4666666666666667
 40
0.5333333333333333
 40
0.5333333333333333
 40
0.5333333333333333
 40
0.6
 40
0.6
 40
0.6
 40
0.6666666666666666
 40
0.6666666666666666
 40
0.6666666666666666
 40
0.7333333333333333
 40
0.7333333333333333
 40
0.7333333333333333
 40
0.8
 40
0.8
 40
0.8
 40
0.8666666666666667
 40
0.8666666666666667
 40
0.8666666666666667
 40
0.9333333333333333
 40
0.9333333333333333
 40
0.9333333333333333
 40
1.0
 40
1.0
 40
1.0
 40
1.0
 10
-191.4335
 20
-127.6983
 30
0.0
 10
-191.6735
 20
-127.7883
 30
0.0
 10
-191.9235
 20
-127.8783
 30
0.0
 10
-192.1935
 20
-127.9383
 30
0.0
 10
-192.1935
 20
-127.9383
 30
0.0
 10
-192.2035
 20
-127.9383
 30
0.0
 10
-192.2035
 20
-127.9383
 30
0.0
 10
-192.4035
 20
-127.9783
 30
0.0
 10
-192.6035
 20
-127.9983
 30
0.0
 10
-192.8135
 20
-127.9983
 30
0.0
 10
-194.1234
 20
-127.9983
 30
0.0
 10
-195.0734
 20
-127.0483
 30
0.0
 10
-195.0734
 20
-125.7384
 30
0.0
 10
-195.0734
 20
-124.8084
 30
0.0
 10
-194.4934
 20
-123.9685
 30
0.0
 10
-193.6335
 20
-123.6385
 30
0.0
 10
-193.6335
 20
-123.6385
 30
0.0
 10
-193.6135
 20
-123.6285
 30
0.0
 10
-193.6135
 20
-123.6285
 30
0.0
 10
-193.6135
 20
-123.6285
 30
0.0
 10
-193.6035
 20
-123.6285
 30
0.0
 10
-193.6035
 20
-123.6285
 30
0.0
 10
-192.3736
 20
-123.2085
 30
0.0
 10
-191.1436
 20
-122.7985
 30
0.0
 10
-189.9137
 20
-122.3886
 30
0.0
 10
-189.6737
 20
-122.3086
 30
0.0
 10
-189.4237
 20
-122.2686
 30
0.0
 10
-189.1737
 20
-122.2686
 30
0.0
 10
-187.9338
 20
-122.2686
 30
0.0
 10
-186.9238
 20
-123.2786
 30
0.0
 10
-186.9238
 20
-124.5285
 30
0.0
 10
-186.9238
 20
-131.9082
 30
0.0
 10
-186.9238
 20
-139.2978
 30
0.0
 10
-186.9238
 20
-146.6874
 30
0.0
 10
-186.9238
 20
-147.9273
 30
0.0
 10
-187.9338
 20
-148.9373
 30
0.0
 10
-189.1737
 20
-148.9373
 30
0.0
 10
-190.4236
 20
-148.9373
 30
0.0
 10
-191.4336
 20
-147.9273
 30
0.0
 10
-191.4336
 20
-146.6874
 30
0.0
 10
-191.4336
 20
-140.3577
 30
0.0
 10
-191.4336
 20
-134.028
 30
0.0
 10
-191.4336
 20
-127.6983
 30
0.0
 10
-191.4336
 20
-127.6983
 30
0.0
 10
-191.4335
 20
-127.6983
 30
0.0
 10
-191.4335
 20
-127.6983
 30
0.0
  0
SPLINE
  5
77
330
1F
100
AcDbEntity
  8
Layer 1
 62
   250
370
     9
100
AcDbSpline
210
0.0
220
0.0
230
1.0
 70
    11
 71
     3
 72
    53
 73
    49
 74
     0
 42
0.0000000001
 43
0.0000000001
 40
0.0
 40
0.0
 40
0.0
 40
0.0
 40
0.0625
 40
0.0625
 40
0.0625
 40
0.125
 40
0.125
 40
0.125
 40
0.1875
 40
0.1875
 40
0.1875
 40
0.25
 40
0.25
 40
0.25
 40
0.3125
 40
0.3125
 40
0.3125
 40
0.375
 40
0.375
 40
0.375
 40
0.4375
 40
0.4375
 40
0.4375
 40
0.5
 40
0.5
 40
0.5
 40
0.5625
 40
0.5625
 40
0.5625
 40
0.625
 40
0.625
 40
0.625
 40
0.6875
 40
0.6875
 40
0.6875
 40
0.75
 40
0.75
 40
0.75
 40
0.8125
 40
0.8125
 40
0.8125
 40
0.875
 40
0.875
 40
0.875
 40
0.9375
 40
0.9375
 40
0.9375
 40
1.0
 40
1.0
 40
1.0
 40
1.0
 10
-207.6028
 20
-140.4177
 30
0.0
 10
-205.4429
 20
-134.828
 30
0.0
 10
-203.293
 20
-129.2282
 30
0.0
 10
-201.1231
 20
-123.6385
 30
0.0
 10
-200.7631
 20
-122.7185
 30
0.0
 10
-199.9832
 20
-122.2386
 30
0.0
 10
-199.0032
 20
-122.2486
 30
0.0
 10
-198.2732
 20
-122.2586
 30
0.0
 10
-197.6233
 20
-122.5686
 30
0.0
 10
-197.1733
 20
-123.1486
 30
0.0
 10
-196.6033
 20
-123.8786
 30
0.0
 10
-196.6233
 20
-124.7885
 30
0.0
 10
-196.9433
 20
-125.6185
 30
0.0
 10
-199.7932
 20
-132.8982
 30
0.0
 10
-202.633
 20
-140.1778
 30
0.0
 10
-205.4829
 20
-147.4475
 30
0.0
 10
-205.8229
 20
-148.3875
 30
0.0
 10
-206.6028
 20
-148.9374
 30
0.0
 10
-207.6028
 20
-148.9374
 30
0.0
 10
-208.6128
 20
-148.9374
 30
0.0
 10
-209.3827
 20
-148.3874
 30
0.0
 10
-209.7227
 20
-147.4675
 30
0.0
 10
-212.5726
 20
-140.1778
 30
0.0
 10
-215.4124
 20
-132.8982
 30
0.0
 10
-218.2623
 20
-125.6185
 30
0.0
 10
-218.2623
 20
-125.6185
 30
0.0
 10
-218.2623
 20
-125.6085
 30
0.0
 10
-218.2623
 20
-125.6085
 30
0.0
 10
-218.2623
 20
-125.6085
 30
0.0
 10
-218.2723
 20
-125.5985
 30
0.0
 10
-218.2723
 20
-125.5985
 30
0.0
 10
-218.4623
 20
-125.0285
 30
0.0
 10
-218.5723
 20
-124.5186
 30
0.0
 10
-218.4123
 20
-123.9286
 30
0.0
 10
-218.3223
 20
-123.6286
 30
0.0
 10
-218.1823
 20
-123.3286
 30
0.0
 10
-217.9923
 20
-123.0886
 30
0.0
 10
-217.5723
 20
-122.5586
 30
0.0
 10
-216.8724
 20
-122.2486
 30
0.0
 10
-216.2024
 20
-122.2486
 30
0.0
 10
-215.2124
 20
-122.2486
 30
0.0
 10
-214.4025
 20
-122.7586
 30
0.0
 10
-214.0625
 20
-123.6885
 30
0.0
 10
-212.9126
 20
-126.7284
 30
0.0
 10
-211.7226
 20
-129.7482
 30
0.0
 10
-210.5527
 20
-132.7781
 30
0.0
 10
-209.5727
 20
-135.328
 30
0.0
 10
-208.5828
 20
-137.8779
 30
0.0
 10
-207.6028
 20
-140.4177
 30
0.0
  0
SPLINE
  5
78
330
1F
100
AcDbEntity
  8
Layer 1
 62
   250
370
     9
100
AcDbSpline
210
0.0
220
0.0
230
1.0
 70
    11
 71
     3
 72
    47
 73
    43
 74
     0
 42
0.0000000001
 43
0.0000000001
 40
0.0
 40
0.0
 40
0.0
 40
0.0
 40
0.0714285714285714
 40
0.0714285714285714
 40
0.0714285714285714
 40
0.1428571428571428
 40
0.1428571428571428
 40
0.1428571428571428
 40
0.2142857142857143
 40
0.2142857142857143
 40
0.2142857142857143
 40
0.2857142857142857
 40
0.2857142857142857
 40
0.2857142857142857
 40
0.3571428571428571
 40
0.3571428571428571
 40
0.3571428571428571
 40
0.4285714285714285
 40
0.4285714285714285
 40
0.4285714285714285
 40
0.5
 40
0.5
 40
0.5
 40
0.5714285714285714
 40
0.5714285714285714
 40
0.5714285714285714
 40
0.6428571428571428
 40
0.6428571428571428
 40
0.6428571428571428
 40
0.7142857142857142
 40
0.7142857142857142
 40
0.7142857142857142
 40
0.7857142857142857
 40
0.7857142857142857
 40
0.7857142857142857
 40
0.8571428571428571
 40
0.8571428571428571
 40
0.8571428571428571
 40
0.9285714285714285
 40
0.9285714285714285
 40
0.9285714285714285
 40
1.0
 40
1.0
 40
1.0
 40
1.0
 10
-156.0652
 20
-123.1586
 30
0.0
 10
-156.4252
 20
-123.7786
 30
0.0
 10
-156.7952
 20
-124.4085
 30
0.0
 10
-157.1551
 20
-125.0385
 30
0.0
 10
-156.8451
 20
-125.4585
 30
0.0
 10
-156.8051
 20
-126.0385
 30
0.0
 10
-157.0751
 20
-126.4984
 30
0.0
 10
-158.165
 20
-128.3883
 30
0.0
 10
-159.255
 20
-130.2782
 30
0.0
 10
-160.3449
 20
-132.1581
 30
0.0
 10
-160.4949
 20
-132.4281
 30
0.0
 10
-160.4949
 20
-132.7581
 30
0.0
 10
-160.3349
 20
-133.0281
 30
0.0
 10
-159.3649
 20
-134.598
 30
0.0
 10
-159.3649
 20
-136.5879
 30
0.0
 10
-160.3349
 20
-138.1579
 30
0.0
 10
-160.4949
 20
-138.4279
 30
0.0
 10
-160.4949
 20
-138.7579
 30
0.0
 10
-160.3449
 20
-139.0279
 30
0.0
 10
-159.255
 20
-140.9178
 30
0.0
 10
-158.165
 20
-142.7977
 30
0.0
 10
-157.0751
 20
-144.6876
 30
0.0
 10
-156.8051
 20
-145.1576
 30
0.0
 10
-156.8451
 20
-145.7276
 30
0.0
 10
-157.1551
 20
-146.1575
 30
0.0
 10
-156.7951
 20
-146.7775
 30
0.0
 10
-156.4251
 20
-147.4074
 30
0.0
 10
-156.0652
 20
-148.0374
 30
0.0
 10
-155.4052
 20
-147.6574
 30
0.0
 10
-154.7453
 20
-147.2774
 30
0.0
 10
-154.0853
 20
-146.8975
 30
0.0
 10
-153.7653
 20
-146.7075
 30
0.0
 10
-153.6053
 20
-146.3275
 30
0.0
 10
-153.6853
 20
-145.9675
 30
0.0
 10
-155.2952
 20
-139.1478
 30
0.0
 10
-155.2952
 20
-132.0382
 30
0.0
 10
-153.6853
 20
-125.2185
 30
0.0
 10
-153.6053
 20
-124.8585
 30
0.0
 10
-153.7653
 20
-124.4785
 30
0.0
 10
-154.0853
 20
-124.2985
 30
0.0
 10
-154.7453
 20
-123.9185
 30
0.0
 10
-155.4052
 20
-123.5385
 30
0.0
 10
-156.0652
 20
-123.1586
 30
0.0
  0
SPLINE
  5
79
330
1F
100
AcDbEntity
  8
Layer 1
 62
   250
370
     9
100
AcDbSpline
210
0.0
220
0.0
230
1.0
 70
    11
 71
     3
 72
    56
 73
    52
 74
     0
 42
0.0000000001
 43
0.0000000001
 40
0.0
 40
0.0
 40
0.0
 40
0.0
 40
0.0588235294117647
 40
0.0588235294117647
 40
0.0588235294117647
 40
0.1176470588235294
 40
0.1176470588235294
 40
0.1176470588235294
 40
0.1764705882352941
 40
0.1764705882352941
 40
0.1764705882352941
 40
0.2352941176470588
 40
0.2352941176470588
 40
0.2352941176470588
 40
0.2941176470588235
 40
0.2941176470588235
 40
0.2941176470588235
 40
0.3529411764705882
 40
0.3529411764705882
 40
0.3529411764705882
 40
0.4117647058823529
 40
0.4117647058823529
 40
0.4117647058823529
 40
0.4705882352941176
 40
0.4705882352941176
 40
0.4705882352941176
 40
0.5294117647058824
 40
0.5294117647058824
 40
0.5294117647058824
 40
0.5882352941176471
 40
0.5882352941176471
 40
0.5882352941176471
 40
0.6470588235294118
 40
0.6470588235294118
 40
0.6470588235294118
 40
0.7058823529411764
 40
0.7058823529411764
 40
0.7058823529411764
 40
0.7647058823529411
 40
0.7647058823529411
 40
0.7647058823529411
 40
0.8235294117647058
 40
0.8235294117647058
 40
0.8235294117647058
 40
0.8823529411764706
 40
0.8823529411764706
 40
0.8823529411764706
 40
0.9411764705882353
 40
0.9411764705882353
 40
0.9411764705882353
 40
1.0
 40
1.0
 40
1.0
 40
1.0
 10
-177.3342
 20
-134.498
 30
0.0
 10
-177.1242
 20
-134.018
 30
0.0
 10
-176.6442
 20
-133.698
 30
0.0
 10
-176.1043
 20
-133.698
 30
0.0
 10
-173.9244
 20
-133.698
 30
0.0
 10
-171.7445
 20
-133.698
 30
0.0
 10
-169.5646
 20
-133.698
 30
0.0
 10
-169.2546
 20
-133.698
 30
0.0
 10
-168.9746
 20
-133.528
 30
0.0
 10
-168.8246
 20
-133.258
 30
0.0
 10
-167.9446
 20
-131.6381
 30
0.0
 10
-166.2247
 20
-130.6381
 30
0.0
 10
-164.3748
 20
-130.6881
 30
0.0
 10
-164.0648
 20
-130.6981
 30
0.0
 10
-163.7748
 20
-130.5381
 30
0.0
 10
-163.6248
 20
-130.2681
 30
0.0
 10
-162.5349
 20
-128.3782
 30
0.0
 10
-161.4449
 20
-126.4983
 30
0.0
 10
-160.355
 20
-124.6084
 30
0.0
 10
-160.105
 20
-124.1784
 30
0.0
 10
-159.645
 20
-123.9184
 30
0.0
 10
-159.1551
 20
-123.9384
 30
0.0
 10
-159.1151
 20
-123.9384
 30
0.0
 10
-159.0751
 20
-123.9384
 30
0.0
 10
-159.0451
 20
-123.9384
 30
0.0
 10
-158.6851
 20
-123.3184
 30
0.0
 10
-158.3251
 20
-122.6885
 30
0.0
 10
-157.9552
 20
-122.0585
 30
0.0
 10
-158.6152
 20
-121.6785
 30
0.0
 10
-159.2751
 20
-121.2985
 30
0.0
 10
-159.9351
 20
-120.9186
 30
0.0
 10
-160.0751
 20
-120.8386
 30
0.0
 10
-160.2351
 20
-120.7986
 30
0.0
 10
-160.3951
 20
-120.8086
 30
0.0
 10
-160.5951
 20
-120.8186
 30
0.0
 10
-160.7951
 20
-120.8986
 30
0.0
 10
-160.9351
 20
-121.0386
 30
0.0
 10
-166.0449
 20
-125.8384
 30
0.0
 10
-172.1946
 20
-129.3882
 30
0.0
 10
-178.9042
 20
-131.4081
 30
0.0
 10
-179.2642
 20
-131.5181
 30
0.0
 10
-179.5042
 20
-131.8481
 30
0.0
 10
-179.5042
 20
-132.2181
 30
0.0
 10
-179.5042
 20
-132.9781
 30
0.0
 10
-179.5042
 20
-133.738
 30
0.0
 10
-179.5042
 20
-134.498
 30
0.0
 10
-178.7842
 20
-134.498
 30
0.0
 10
-178.0643
 20
-134.498
 30
0.0
 10
-177.3343
 20
-134.498
 30
0.0
 10
-177.3343
 20
-134.498
 30
0.0
 10
-177.3342
 20
-134.498
 30
0.0
 10
-177.3342
 20
-134.498
 30
0.0
  0
SPLINE
  5
7A
330
1F
100
AcDbEntity
  8
Layer 1
 62
   250
370
     9
100
AcDbSpline
210
0.0
220
0.0
230
1.0
 70
    11
 71
     3
 72
    50
 73
    46
 74
     0
 42
0.0000000001
 43
0.0000000001
 40
0.0
 40
0.0
 40
0.0
 40
0.0
 40
0.0666666666666667
 40
0.0666666666666667
 40
0.0666666666666667
 40
0.1333333333333333
 40
0.1333333333333333
 40
0.1333333333333333
 40
0.2
 40
0.2
 40
0.2
 40
0.2666666666666667
 40
0.2666666666666667
 40
0.2666666666666667
 40
0.3333333333333333
 40
0.3333333333333333
 40
0.3333333333333333
 40
0.4
 40
0.4
 40
0.4
 40
0.4666666666666667
 40
0.4666666666666667
 40
0.4666666666666667
 40
0.5333333333333333
 40
0.5333333333333333
 40
0.5333333333333333
 40
0.6
 40
0.6
 40
0.6
 40
0.6666666666666666
 40
0.6666666666666666
 40
0.6666666666666666
 40
0.7333333333333333
 40
0.7333333333333333
 40
0.7333333333333333
 40
0.8
 40
0.8
 40
0.8
 40
0.8666666666666667
 40
0.8666666666666667
 40
0.8666666666666667
 40
0.9333333333333333
 40
0.9333333333333333
 40
0.9333333333333333
 40
1.0
 40
1.0
 40
1.0
 40
1.0
 10
-157.9551
 20
-149.1273
 30
0.0
 10
-158.3251
 20
-148.4973
 30
0.0
 10
-158.6851
 20
-147.8774
 30
0.0
 10
-159.045
 20
-147.2474
 30
0.0
 10
-159.565
 20
-147.3074
 30
0.0
 10
-160.085
 20
-147.0474
 30
0.0
 10
-160.3549
 20
-146.5774
 30
0.0
 10
-161.4448
 20
-144.6975
 30
0.0
 10
-162.5348
 20
-142.8076
 30
0.0
 10
-163.6247
 20
-140.9177
 30
0.0
 10
-163.7747
 20
-140.6577
 30
0.0
 10
-164.0647
 20
-140.4877
 30
0.0
 10
-164.3747
 20
-140.4977
 30
0.0
 10
-166.2246
 20
-140.5477
 30
0.0
 10
-167.9445
 20
-139.5577
 30
0.0
 10
-168.8245
 20
-137.9278
 30
0.0
 10
-168.9745
 20
-137.6578
 30
0.0
 10
-169.2545
 20
-137.4878
 30
0.0
 10
-169.5645
 20
-137.4878
 30
0.0
 10
-171.7444
 20
-137.4878
 30
0.0
 10
-173.9243
 20
-137.4878
 30
0.0
 10
-176.1042
 20
-137.4878
 30
0.0
 10
-176.6442
 20
-137.4878
 30
0.0
 10
-177.1242
 20
-137.1678
 30
0.0
 10
-177.3341
 20
-136.6878
 30
0.0
 10
-178.0541
 20
-136.6878
 30
0.0
 10
-178.784
 20
-136.6878
 30
0.0
 10
-179.504
 20
-136.6878
 30
0.0
 10
-179.504
 20
-137.4478
 30
0.0
 10
-179.504
 20
-138.2077
 30
0.0
 10
-179.504
 20
-138.9677
 30
0.0
 10
-179.504
 20
-139.3477
 30
0.0
 10
-179.264
 20
-139.6777
 30
0.0
 10
-178.904
 20
-139.7777
 30
0.0
 10
-172.1943
 20
-141.7976
 30
0.0
 10
-166.0446
 20
-145.3474
 30
0.0
 10
-160.9349
 20
-150.1572
 30
0.0
 10
-160.6649
 20
-150.4072
 30
0.0
 10
-160.2649
 20
-150.4572
 30
0.0
 10
-159.9349
 20
-150.2672
 30
0.0
 10
-159.2749
 20
-149.8872
 30
0.0
 10
-158.615
 20
-149.5072
 30
0.0
 10
-157.955
 20
-149.1273
 30
0.0
 10
-157.955
 20
-149.1273
 30
0.0
 10
-157.9551
 20
-149.1273
 30
0.0
 10
-157.9551
 20
-149.1273
 30
0.0
  0
SPLINE
  5
7B
330
1F
100
AcDbEntity
  8
Layer 1
 62
   250
370
     9
100
AcDbSpline
210
0.0
220
0.0
230
1.0
 70
    11
 71
     3
 72
   929
 73
   925
 74
     0
 42
0.0000000001
 43
0.0000000001
 40
0.0
 40
0.0
 40
0.0
 40
0.0
 40
0.0032467532467532
 40
0.0032467532467532
 40
0.0032467532467532
 40
0.0064935064935065
 40
0.0064935064935065
 40
0.0064935064935065
 40
0.0097402597402597
 40
0.0097402597402597
 40
0.0097402597402597
 40
0.012987012987013
 40
0.012987012987013
 40
0.012987012987013
 40
0.0162337662337662
 40
0.0162337662337662
 40
0.0162337662337662
 40
0.0194805194805195
 40
0.0194805194805195
 40
0.0194805194805195
 40
0.0227272727272727
 40
0.0227272727272727
 40
0.0227272727272727
 40
0.025974025974026
 40
0.025974025974026
 40
0.025974025974026
 40
0.0292207792207792
 40
0.0292207792207792
 40
0.0292207792207792
 40
0.0324675324675325
 40
0.0324675324675325
 40
0.0324675324675325
 40
0.0357142857142857
 40
0.0357142857142857
 40
0.0357142857142857
 40
0.038961038961039
 40
0.038961038961039
 40
0.038961038961039
 40
0.0422077922077922
 40
0.0422077922077922
 40
0.0422077922077922
 40
0.0454545454545455
 40
0.0454545454545455
 40
0.0454545454545455
 40
0.0487012987012987
 40
0.0487012987012987
 40
0.0487012987012987
 40
0.051948051948052
 40
0.051948051948052
 40
0.051948051948052
 40
0.0551948051948052
 40
0.0551948051948052
 40
0.0551948051948052
 40
0.0584415584415584
 40
0.0584415584415584
 40
0.0584415584415584
 40
0.0616883116883117
 40
0.0616883116883117
 40
0.0616883116883117
 40
0.0649350649350649
 40
0.0649350649350649
 40
0.0649350649350649
 40
0.0681818181818182
 40
0.0681818181818182
 40
0.0681818181818182
 40
0.0714285714285714
 40
0.0714285714285714
 40
0.0714285714285714
 40
0.0746753246753247
 40
0.0746753246753247
 40
0.0746753246753247
 40
0.0779220779220779
 40
0.0779220779220779
 40
0.0779220779220779
 40
0.0811688311688312
 40
0.0811688311688312
 40
0.0811688311688312
 40
0.0844155844155844
 40
0.0844155844155844
 40
0.0844155844155844
 40
0.0876623376623377
 40
0.0876623376623377
 40
0.0876623376623377
 40
0.0909090909090909
 40
0.0909090909090909
 40
0.0909090909090909
 40
0.0941558441558442
 40
0.0941558441558442
 40
0.0941558441558442
 40
0.0974025974025974
 40
0.0974025974025974
 40
0.0974025974025974
 40
0.1006493506493507
 40
0.1006493506493507
 40
0.1006493506493507
 40
0.1038961038961039
 40
0.1038961038961039
 40
0.1038961038961039
 40
0.1071428571428572
 40
0.1071428571428572
 40
0.1071428571428572
 40
0.1103896103896104
 40
0.1103896103896104
 40
0.1103896103896104
 40
0.1136363636363636
 40
0.1136363636363636
 40
0.1136363636363636
 40
0.1168831168831169
 40
0.1168831168831169
 40
0.1168831168831169
 40
0.1201298701298701
 40
0.1201298701298701
 40
0.1201298701298701
 40
0.1233766233766234
 40
0.1233766233766234
 40
0.1233766233766234
 40
0.1266233766233766
 40
0.1266233766233766
 40
0.1266233766233766
 40
0.1298701298701299
 40
0.1298701298701299
 40
0.1298701298701299
 40
0.1331168831168831
 40
0.1331168831168831
 40
0.1331168831168831
 40
0.1363636363636364
 40
0.1363636363636364
 40
0.1363636363636364
 40
0.1396103896103896
 40
0.1396103896103896
 40
0.1396103896103896
 40
0.1428571428571429
 40
0.1428571428571429
 40
0.1428571428571429
 40
0.1461038961038961
 40
0.1461038961038961
 40
0.1461038961038961
 40
0.1493506493506494
 40
0.1493506493506494
 40
0.1493506493506494
 40
0.1525974025974026
 40
0.1525974025974026
 40
0.1525974025974026
 40
0.1558441558441558
 40
0.1558441558441558
 40
0.1558441558441558
 40
0.1590909090909091
 40
0.1590909090909091
 40
0.1590909090909091
 40
0.1623376623376623
 40
0.1623376623376623
 40
0.1623376623376623
 40
0.1655844155844156
 40
0.1655844155844156
 40
0.1655844155844156
 40
0.1688311688311688
 40
0.1688311688311688
 40
0.1688311688311688
 40
0.1720779220779221
 40
0.1720779220779221
 40
0.1720779220779221
 40
0.1753246753246753
 40
0.1753246753246753
 40
0.1753246753246753
 40
0.1785714285714286
 40
0.1785714285714286
 40
0.1785714285714286
 40
0.1818181818181818
 40
0.1818181818181818
 40
0.1818181818181818
 40
0.1850649350649351
 40
0.1850649350649351
 40
0.1850649350649351
 40
0.1883116883116883
 40
0.1883116883116883
 40
0.1883116883116883
 40
0.1915584415584416
 40
0.1915584415584416
 40
0.1915584415584416
 40
0.1948051948051948
 40
0.1948051948051948
 40
0.1948051948051948
 40
0.1980519480519481
 40
0.1980519480519481
 40
0.1980519480519481
 40
0.2012987012987013
 40
0.2012987012987013
 40
0.2012987012987013
 40
0.2045454545454546
 40
0.2045454545454546
 40
0.2045454545454546
 40
0.2077922077922078
 40
0.2077922077922078
 40
0.2077922077922078
 40
0.2110389610389611
 40
0.2110389610389611
 40
0.2110389610389611
 40
0.2142857142857143
 40
0.2142857142857143
 40
0.2142857142857143
 40
0.2175324675324675
 40
0.2175324675324675
 40
0.2175324675324675
 40
0.2207792207792208
 40
0.2207792207792208
 40
0.2207792207792208
 40
0.224025974025974
 40
0.224025974025974
 40
0.224025974025974
 40
0.2272727272727273
 40
0.2272727272727273
 40
0.2272727272727273
 40
0.2305194805194805
 40
0.2305194805194805
 40
0.2305194805194805
 40
0.2337662337662338
 40
0.2337662337662338
 40
0.2337662337662338
 40
0.237012987012987
 40
0.237012987012987
 40
0.237012987012987
 40
0.2402597402597403
 40
0.2402597402597403
 40
0.2402597402597403
 40
0.2435064935064935
 40
0.2435064935064935
 40
0.2435064935064935
 40
0.2467532467532468
 40
0.2467532467532468
 40
0.2467532467532468
 40
0.25
 40
0.25
 40
0.25
 40
0.2532467532467533
 40
0.2532467532467533
 40
0.2532467532467533
 40
0.2564935064935065
 40
0.2564935064935065
 40
0.2564935064935065
 40
0.2597402597402598
 40
0.2597402597402598
 40
0.2597402597402598
 40
0.262987012987013
 40
0.262987012987013
 40
0.262987012987013
 40
0.2662337662337663
 40
0.2662337662337663
 40
0.2662337662337663
 40
0.2694805194805195
 40
0.2694805194805195
 40
0.2694805194805195
 40
0.2727272727272728
 40
0.2727272727272728
 40
0.2727272727272728
 40
0.275974025974026
 40
0.275974025974026
 40
0.275974025974026
 40
0.2792207792207793
 40
0.2792207792207793
 40
0.2792207792207793
 40
0.2824675324675325
 40
0.2824675324675325
 40
0.2824675324675325
 40
0.2857142857142858
 40
0.2857142857142858
 40
0.2857142857142858
 40
0.288961038961039
 40
0.288961038961039
 40
0.288961038961039
 40
0.2922077922077922
 40
0.2922077922077922
 40
0.2922077922077922
 40
0.2954545454545455
 40
0.2954545454545455
 40
0.2954545454545455
 40
0.2987012987012987
 40
0.2987012987012987
 40
0.2987012987012987
 40
0.301948051948052
 40
0.301948051948052
 40
0.301948051948052
 40
0.3051948051948052
 40
0.3051948051948052
 40
0.3051948051948052
 40
0.3084415584415585
 40
0.3084415584415585
 40
0.3084415584415585
 40
0.3116883116883117
 40
0.3116883116883117
 40
0.3116883116883117
 40
0.314935064935065
 40
0.314935064935065
 40
0.314935064935065
 40
0.3181818181818182
 40
0.3181818181818182
 40
0.3181818181818182
 40
0.3214285714285715
 40
0.3214285714285715
 40
0.3214285714285715
 40
0.3246753246753247
 40
0.3246753246753247
 40
0.3246753246753247
 40
0.3279220779220779
 40
0.3279220779220779
 40
0.3279220779220779
 40
0.3311688311688312
 40
0.3311688311688312
 40
0.3311688311688312
 40
0.3344155844155844
 40
0.3344155844155844
 40
0.3344155844155844
 40
0.3376623376623377
 40
0.3376623376623377
 40
0.3376623376623377
 40
0.3409090909090909
 40
0.3409090909090909
 40
0.3409090909090909
 40
0.3441558441558442
 40
0.3441558441558442
 40
0.3441558441558442
 40
0.3474025974025974
 40
0.3474025974025974
 40
0.3474025974025974
 40
0.3506493506493507
 40
0.3506493506493507
 40
0.3506493506493507
 40
0.3538961038961039
 40
0.3538961038961039
 40
0.3538961038961039
 40
0.3571428571428572
 40
0.3571428571428572
 40
0.3571428571428572
 40
0.3603896103896104
 40
0.3603896103896104
 40
0.3603896103896104
 40
0.3636363636363636
 40
0.3636363636363636
 40
0.3636363636363636
 40
0.3668831168831169
 40
0.3668831168831169
 40
0.3668831168831169
 40
0.3701298701298701
 40
0.3701298701298701
 40
0.3701298701298701
 40
0.3733766233766234
 40
0.3733766233766234
 40
0.3733766233766234
 40
0.3766233766233766
 40
0.3766233766233766
 40
0.3766233766233766
 40
0.3798701298701299
 40
0.3798701298701299
 40
0.3798701298701299
 40
0.3831168831168831
 40
0.3831168831168831
 40
0.3831168831168831
 40
0.3863636363636364
 40
0.3863636363636364
 40
0.3863636363636364
 40
0.3896103896103896
 40
0.3896103896103896
 40
0.3896103896103896
 40
0.3928571428571429
 40
0.3928571428571429
 40
0.3928571428571429
 40
0.3961038961038961
 40
0.3961038961038961
 40
0.3961038961038961
 40
0.3993506493506494
 40
0.3993506493506494
 40
0.3993506493506494
 40
0.4025974025974026
 40
0.4025974025974026
 40
0.4025974025974026
 40
0.4058441558441559
 40
0.4058441558441559
 40
0.4058441558441559
 40
0.4090909090909091
 40
0.4090909090909091
 40
0.4090909090909091
 40
0.4123376623376624
 40
0.4123376623376624
 40
0.4123376623376624
 40
0.4155844155844156
 40
0.4155844155844156
 40
0.4155844155844156
 40
0.4188311688311688
 40
0.4188311688311688
 40
0.4188311688311688
 40
0.4220779220779221
 40
0.4220779220779221
 40
0.4220779220779221
 40
0.4253246753246753
 40
0.4253246753246753
 40
0.4253246753246753
 40
0.4285714285714286
 40
0.4285714285714286
 40
0.4285714285714286
 40
0.4318181818181818
 40
0.4318181818181818
 40
0.4318181818181818
 40
0.4350649350649351
 40
0.4350649350649351
 40
0.4350649350649351
 40
0.4383116883116883
 40
0.4383116883116883
 40
0.4383116883116883
 40
0.4415584415584416
 40
0.4415584415584416
 40
0.4415584415584416
 40
0.4448051948051948
 40
0.4448051948051948
 40
0.4448051948051948
 40
0.4480519480519481
 40
0.4480519480519481
 40
0.4480519480519481
 40
0.4512987012987013
 40
0.4512987012987013
 40
0.4512987012987013
 40
0.4545454545454546
 40
0.4545454545454546
 40
0.4545454545454546
 40
0.4577922077922078
 40
0.4577922077922078
 40
0.4577922077922078
 40
0.4610389610389611
 40
0.4610389610389611
 40
0.4610389610389611
 40
0.4642857142857143
 40
0.4642857142857143
 40
0.4642857142857143
 40
0.4675324675324676
 40
0.4675324675324676
 40
0.4675324675324676
 40
0.4707792207792208
 40
0.4707792207792208
 40
0.4707792207792208
 40
0.4740259740259741
 40
0.4740259740259741
 40
0.4740259740259741
 40
0.4772727272727273
 40
0.4772727272727273
 40
0.4772727272727273
 40
0.4805194805194806
 40
0.4805194805194806
 40
0.4805194805194806
 40
0.4837662337662338
 40
0.4837662337662338
 40
0.4837662337662338
 40
0.4870129870129871
 40
0.4870129870129871
 40
0.4870129870129871
 40
0.4902597402597403
 40
0.4902597402597403
 40
0.4902597402597403
 40
0.4935064935064936
 40
0.4935064935064936
 40
0.4935064935064936
 40
0.4967532467532468
 40
0.4967532467532468
 40
0.4967532467532468
 40
0.5
 40
0.5
 40
0.5
 40
0.5032467532467533
 40
0.5032467532467533
 40
0.5032467532467533
 40
0.5064935064935066
 40
0.5064935064935066
 40
0.5064935064935066
 40
0.5097402597402598
 40
0.5097402597402598
 40
0.5097402597402598
 40
0.512987012987013
 40
0.512987012987013
 40
0.512987012987013
 40
0.5162337662337663
 40
0.5162337662337663
 40
0.5162337662337663
 40
0.5194805194805195
 40
0.5194805194805195
 40
0.5194805194805195
 40
0.5227272727272727
 40
0.5227272727272727
 40
0.5227272727272727
 40
0.525974025974026
 40
0.525974025974026
 40
0.525974025974026
 40
0.5292207792207793
 40
0.5292207792207793
 40
0.5292207792207793
 40
0.5324675324675325
 40
0.5324675324675325
 40
0.5324675324675325
 40
0.5357142857142857
 40
0.5357142857142857
 40
0.5357142857142857
 40
0.538961038961039
 40
0.538961038961039
 40
0.538961038961039
 40
0.5422077922077922
 40
0.5422077922077922
 40
0.5422077922077922
 40
0.5454545454545455
 40
0.5454545454545455
 40
0.5454545454545455
 40
0.5487012987012987
 40
0.5487012987012987
 40
0.5487012987012987
 40
0.551948051948052
 40
0.551948051948052
 40
0.551948051948052
 40
0.5551948051948052
 40
0.5551948051948052
 40
0.5551948051948052
 40
0.5584415584415585
 40
0.5584415584415585
 40
0.5584415584415585
 40
0.5616883116883117
 40
0.5616883116883117
 40
0.5616883116883117
 40
0.564935064935065
 40
0.564935064935065
 40
0.564935064935065
 40
0.5681818181818182
 40
0.5681818181818182
 40
0.5681818181818182
 40
0.5714285714285715
 40
0.5714285714285715
 40
0.5714285714285715
 40
0.5746753246753247
 40
0.5746753246753247
 40
0.5746753246753247
 40
0.577922077922078
 40
0.577922077922078
 40
0.577922077922078
 40
0.5811688311688312
 40
0.5811688311688312
 40
0.5811688311688312
 40
0.5844155844155845
 40
0.5844155844155845
 40
0.5844155844155845
 40
0.5876623376623377
 40
0.5876623376623377
 40
0.5876623376623377
 40
0.5909090909090909
 40
0.5909090909090909
 40
0.5909090909090909
 40
0.5941558441558442
 40
0.5941558441558442
 40
0.5941558441558442
 40
0.5974025974025975
 40
0.5974025974025975
 40
0.5974025974025975
 40
0.6006493506493507
 40
0.6006493506493507
 40
0.6006493506493507
 40
0.6038961038961039
 40
0.6038961038961039
 40
0.6038961038961039
 40
0.6071428571428572
 40
0.6071428571428572
 40
0.6071428571428572
 40
0.6103896103896105
 40
0.6103896103896105
 40
0.6103896103896105
 40
0.6136363636363636
 40
0.6136363636363636
 40
0.6136363636363636
 40
0.6168831168831169
 40
0.6168831168831169
 40
0.6168831168831169
 40
0.6201298701298702
 40
0.6201298701298702
 40
0.6201298701298702
 40
0.6233766233766234
 40
0.6233766233766234
 40
0.6233766233766234
 40
0.6266233766233766
 40
0.6266233766233766
 40
0.6266233766233766
 40
0.6298701298701299
 40
0.6298701298701299
 40
0.6298701298701299
 40
0.6331168831168832
 40
0.6331168831168832
 40
0.6331168831168832
 40
0.6363636363636364
 40
0.6363636363636364
 40
0.6363636363636364
 40
0.6396103896103896
 40
0.6396103896103896
 40
0.6396103896103896
 40
0.6428571428571429
 40
0.6428571428571429
 40
0.6428571428571429
 40
0.6461038961038962
 40
0.6461038961038962
 40
0.6461038961038962
 40
0.6493506493506493
 40
0.6493506493506493
 40
0.6493506493506493
 40
0.6525974025974026
 40
0.6525974025974026
 40
0.6525974025974026
 40
0.6558441558441559
 40
0.6558441558441559
 40
0.6558441558441559
 40
0.6590909090909092
 40
0.6590909090909092
 40
0.6590909090909092
 40
0.6623376623376623
 40
0.6623376623376623
 40
0.6623376623376623
 40
0.6655844155844156
 40
0.6655844155844156
 40
0.6655844155844156
 40
0.6688311688311689
 40
0.6688311688311689
 40
0.6688311688311689
 40
0.6720779220779222
 40
0.6720779220779222
 40
0.6720779220779222
 40
0.6753246753246753
 40
0.6753246753246753
 40
0.6753246753246753
 40
0.6785714285714286
 40
0.6785714285714286
 40
0.6785714285714286
 40
0.6818181818181819
 40
0.6818181818181819
 40
0.6818181818181819
 40
0.6850649350649352
 40
0.6850649350649352
 40
0.6850649350649352
 40
0.6883116883116883
 40
0.6883116883116883
 40
0.6883116883116883
 40
0.6915584415584416
 40
0.6915584415584416
 40
0.6915584415584416
 40
0.6948051948051949
 40
0.6948051948051949
 40
0.6948051948051949
 40
0.6980519480519481
 40
0.6980519480519481
 40
0.6980519480519481
 40
0.7012987012987013
 40
0.7012987012987013
 40
0.7012987012987013
 40
0.7045454545454546
 40
0.7045454545454546
 40
0.7045454545454546
 40
0.7077922077922079
 40
0.7077922077922079
 40
0.7077922077922079
 40
0.7110389610389611
 40
0.7110389610389611
 40
0.7110389610389611
 40
0.7142857142857143
 40
0.7142857142857143
 40
0.7142857142857143
 40
0.7175324675324676
 40
0.7175324675324676
 40
0.7175324675324676
 40
0.7207792207792209
 40
0.7207792207792209
 40
0.7207792207792209
 40
0.7240259740259741
 40
0.7240259740259741
 40
0.7240259740259741
 40
0.7272727272727273
 40
0.7272727272727273
 40
0.7272727272727273
 40
0.7305194805194806
 40
0.7305194805194806
 40
0.7305194805194806
 40
0.7337662337662338
 40
0.7337662337662338
 40
0.7337662337662338
 40
0.737012987012987
 40
0.737012987012987
 40
0.737012987012987
 40
0.7402597402597403
 40
0.7402597402597403
 40
0.7402597402597403
 40
0.7435064935064936
 40
0.7435064935064936
 40
0.7435064935064936
 40
0.7467532467532468
 40
0.7467532467532468
 40
0.7467532467532468
 40
0.75
 40
0.75
 40
0.75
 40
0.7532467532467533
 40
0.7532467532467533
 40
0.7532467532467533
 40
0.7564935064935066
 40
0.7564935064935066
 40
0.7564935064935066
 40
0.7597402597402598
 40
0.7597402597402598
 40
0.7597402597402598
 40
0.762987012987013
 40
0.762987012987013
 40
0.762987012987013
 40
0.7662337662337663
 40
0.7662337662337663
 40
0.7662337662337663
 40
0.7694805194805195
 40
0.7694805194805195
 40
0.7694805194805195
 40
0.7727272727272728
 40
0.7727272727272728
 40
0.7727272727272728
 40
0.775974025974026
 40
0.775974025974026
 40
0.775974025974026
 40
0.7792207792207793
 40
0.7792207792207793
 40
0.7792207792207793
 40
0.7824675324675325
 40
0.7824675324675325
 40
0.7824675324675325
 40
0.7857142857142858
 40
0.7857142857142858
 40
0.7857142857142858
 40
0.788961038961039
 40
0.788961038961039
 40
0.788961038961039
 40
0.7922077922077922
 40
0.7922077922077922
 40
0.7922077922077922
 40
0.7954545454545455
 40
0.7954545454545455
 40
0.7954545454545455
 40
0.7987012987012988
 40
0.7987012987012988
 40
0.7987012987012988
 40
0.801948051948052
 40
0.801948051948052
 40
0.801948051948052
 40
0.8051948051948052
 40
0.8051948051948052
 40
0.8051948051948052
 40
0.8084415584415585
 40
0.8084415584415585
 40
0.8084415584415585
 40
0.8116883116883118
 40
0.8116883116883118
 40
0.8116883116883118
 40
0.814935064935065
 40
0.814935064935065
 40
0.814935064935065
 40
0.8181818181818182
 40
0.8181818181818182
 40
0.8181818181818182
 40
0.8214285714285715
 40
0.8214285714285715
 40
0.8214285714285715
 40
0.8246753246753248
 40
0.8246753246753248
 40
0.8246753246753248
 40
0.827922077922078
 40
0.827922077922078
 40
0.827922077922078
 40
0.8311688311688312
 40
0.8311688311688312
 40
0.8311688311688312
 40
0.8344155844155845
 40
0.8344155844155845
 40
0.8344155844155845
 40
0.8376623376623377
 40
0.8376623376623377
 40
0.8376623376623377
 40
0.8409090909090909
 40
0.8409090909090909
 40
0.8409090909090909
 40
0.8441558441558442
 40
0.8441558441558442
 40
0.8441558441558442
 40
0.8474025974025975
 40
0.8474025974025975
 40
0.8474025974025975
 40
0.8506493506493507
 40
0.8506493506493507
 40
0.8506493506493507
 40
0.8538961038961039
 40
0.8538961038961039
 40
0.8538961038961039
 40
0.8571428571428572
 40
0.8571428571428572
 40
0.8571428571428572
 40
0.8603896103896105
 40
0.8603896103896105
 40
0.8603896103896105
 40
0.8636363636363636
 40
0.8636363636363636
 40
0.8636363636363636
 40
0.8668831168831169
 40
0.8668831168831169
 40
0.8668831168831169
 40
0.8701298701298702
 40
0.8701298701298702
 40
0.8701298701298702
 40
0.8733766233766235
 40
0.8733766233766235
 40
0.8733766233766235
 40
0.8766233766233766
 40
0.8766233766233766
 40
0.8766233766233766
 40
0.8798701298701299
 40
0.8798701298701299
 40
0.8798701298701299
 40
0.8831168831168832
 40
0.8831168831168832
 40
0.8831168831168832
 40
0.8863636363636365
 40
0.8863636363636365
 40
0.8863636363636365
 40
0.8896103896103896
 40
0.8896103896103896
 40
0.8896103896103896
 40
0.8928571428571429
 40
0.8928571428571429
 40
0.8928571428571429
 40
0.8961038961038962
 40
0.8961038961038962
 40
0.8961038961038962
 40
0.8993506493506495
 40
0.8993506493506495
 40
0.8993506493506495
 40
0.9025974025974026
 40
0.9025974025974026
 40
0.9025974025974026
 40
0.9058441558441559
 40
0.9058441558441559
 40
0.9058441558441559
 40
0.9090909090909092
 40
0.9090909090909092
 40
0.9090909090909092
 40
0.9123376623376624
 40
0.9123376623376624
 40
0.9123376623376624
 40
0.9155844155844156
 40
0.9155844155844156
 40
0.9155844155844156
 40
0.9188311688311689
 40
0.9188311688311689
 40
0.9188311688311689
 40
0.9220779220779222
 40
0.9220779220779222
 40
0.9220779220779222
 40
0.9253246753246754
 40
0.9253246753246754
 40
0.9253246753246754
 40
0.9285714285714286
 40
0.9285714285714286
 40
0.9285714285714286
 40
0.9318181818181819
 40
0.9318181818181819
 40
0.9318181818181819
 40
0.9350649350649352
 40
0.9350649350649352
 40
0.9350649350649352
 40
0.9383116883116883
 40
0.9383116883116883
 40
0.9383116883116883
 40
0.9415584415584416
 40
0.9415584415584416
 40
0.9415584415584416
 40
0.9448051948051949
 40
0.9448051948051949
 40
0.9448051948051949
 40
0.9480519480519481
 40
0.9480519480519481
 40
0.9480519480519481
 40
0.9512987012987013
 40
0.9512987012987013
 40
0.9512987012987013
 40
0.9545454545454546
 40
0.9545454545454546
 40
0.9545454545454546
 40
0.9577922077922079
 40
0.9577922077922079
 40
0.9577922077922079
 40
0.9610389610389611
 40
0.9610389610389611
 40
0.9610389610389611
 40
0.9642857142857143
 40
0.9642857142857143
 40
0.9642857142857143
 40
0.9675324675324676
 40
0.9675324675324676
 40
0.9675324675324676
 40
0.9707792207792209
 40
0.9707792207792209
 40
0.9707792207792209
 40
0.9740259740259741
 40
0.9740259740259741
 40
0.9740259740259741
 40
0.9772727272727273
 40
0.9772727272727273
 40
0.9772727272727273
 40
0.9805194805194806
 40
0.9805194805194806
 40
0.9805194805194806
 40
0.9837662337662338
 40
0.9837662337662338
 40
0.9837662337662338
 40
0.9870129870129871
 40
0.9870129870129871
 40
0.9870129870129871
 40
0.9902597402597403
 40
0.9902597402597403
 40
0.9902597402597403
 40
0.9935064935064936
 40
0.9935064935064936
 40
0.9935064935064936
 40
0.9967532467532468
 40
0.9967532467532468
 40
0.9967532467532468
 40
1.0
 40
1.0
 40
1.0
 40
1.0
 10
-119.6169
 20
-122.8086
 30
0.0
 10
-119.6169
 20
-122.8086
 30
0.0
 10
-116.617
 20
-122.8086
 30
0.0
 10
-116.617
 20
-122.8086
 30
0.0
 10
-115.607
 20
-122.8086
 30
0.0
 10
-115.2771
 20
-123.2986
 30
0.0
 10
-115.617
 20
-124.3085
 30
0.0
 10
-115.617
 20
-124.3085
 30
0.0
 10
-120.9767
 20
-140.8577
 30
0.0
 10
-120.9767
 20
-140.8577
 30
0.0
 10
-121.6367
 20
-142.8676
 30
0.0
 10
-120.9667
 20
-143.8676
 30
0.0
 10
-118.9568
 20
-143.8676
 30
0.0
 10
-118.9568
 20
-143.8676
 30
0.0
 10
-91.7381
 20
-143.8676
 30
0.0
 10
-91.7381
 20
-143.8676
 30
0.0
 10
-91.6781
 20
-143.4076
 30
0.0
 10
-91.5681
 20
-142.8976
 30
0.0
 10
-91.3881
 20
-142.3677
 30
0.0
 10
-90.9181
 20
-140.8978
 30
0.0
 10
-90.4381
 20
-139.4378
 30
0.0
 10
-89.9582
 20
-137.9779
 30
0.0
 10
-89.7182
 20
-137.2379
 30
0.0
 10
-89.1282
 20
-136.468
 30
0.0
 10
-87.9283
 20
-136.468
 30
0.0
 10
-86.9183
 20
-136.468
 30
0.0
 10
-85.9184
 20
-136.468
 30
0.0
 10
-84.9084
 20
-136.468
 30
0.0
 10
-83.8784
 20
-136.468
 30
0.0
 10
-83.5685
 20
-136.948
 30
0.0
 10
-83.9484
 20
-138.0179
 30
0.0
 10
-84.4684
 20
-139.4578
 30
0.0
 10
-84.8984
 20
-140.9178
 30
0.0
 10
-85.3683
 20
-142.3677
 30
0.0
 10
-85.6983
 20
-143.3677
 30
0.0
 10
-85.3483
 20
-143.8676
 30
0.0
 10
-84.3483
 20
-143.8676
 30
0.0
 10
-84.3483
 20
-143.8676
 30
0.0
 10
-78.3286
 20
-143.8676
 30
0.0
 10
-78.3286
 20
-143.8676
 30
0.0
 10
-77.3286
 20
-143.8676
 30
0.0
 10
-76.6687
 20
-143.3676
 30
0.0
 10
-76.3387
 20
-142.3677
 30
0.0
 10
-76.3387
 20
-142.3677
 30
0.0
 10
-73.8788
 20
-134.8381
 30
0.0
 10
-73.8788
 20
-134.8381
 30
0.0
 10
-73.5588
 20
-133.8681
 30
0.0
 10
-73.8788
 20
-133.3682
 30
0.0
 10
-74.8088
 20
-133.3382
 30
0.0
 10
-74.8088
 20
-133.3382
 30
0.0
 10
-74.8988
 20
-133.3382
 30
0.0
 10
-74.8988
 20
-133.3382
 30
0.0
 10
-74.8988
 20
-133.3382
 30
0.0
 10
-80.9185
 20
-133.3382
 30
0.0
 10
-80.9185
 20
-133.3382
 30
0.0
 10
-80.9185
 20
-133.3382
 30
0.0
 10
-85.8383
 20
-133.3382
 30
0.0
 10
-85.8383
 20
-133.3382
 30
0.0
 10
-87.1282
 20
-133.3382
 30
0.0
 10
-87.9882
 20
-132.6482
 30
0.0
 10
-87.3282
 20
-131.8583
 30
0.0
 10
-85.6283
 20
-129.8384
 30
0.0
 10
-83.0084
 20
-128.8184
 30
0.0
 10
-79.4486
 20
-128.8184
 30
0.0
 10
-79.4486
 20
-128.8184
 30
0.0
 10
-73.4289
 20
-128.8184
 30
0.0
 10
-73.4289
 20
-128.8184
 30
0.0
 10
-68.4091
 20
-128.8184
 30
0.0
 10
-66.5492
 20
-130.8283
 30
0.0
 10
-67.8592
 20
-134.8381
 30
0.0
 10
-67.8592
 20
-134.8381
 30
0.0
 10
-69.8191
 20
-140.8578
 30
0.0
 10
-69.8191
 20
-140.8578
 30
0.0
 10
-70.4791
 20
-142.8677
 30
0.0
 10
-69.8091
 20
-143.8677
 30
0.0
 10
-67.7992
 20
-143.8677
 30
0.0
 10
-67.7992
 20
-143.8677
 30
0.0
 10
-52.6199
 20
-143.8677
 30
0.0
 10
-52.6199
 20
-143.8677
 30
0.0
 10
-52.5599
 20
-143.4077
 30
0.0
 10
-52.4399
 20
-142.8977
 30
0.0
 10
-52.2699
 20
-142.3678
 30
0.0
 10
-52.2699
 20
-142.3678
 30
0.0
 10
-48.3601
 20
-130.3284
 30
0.0
 10
-48.3601
 20
-130.3284
 30
0.0
 10
-48.0201
 20
-129.3184
 30
0.0
 10
-47.3401
 20
-128.8185
 30
0.0
 10
-46.3402
 20
-128.8185
 30
0.0
 10
-46.3402
 20
-128.8185
 30
0.0
 10
-43.3303
 20
-128.8185
 30
0.0
 10
-43.3303
 20
-128.8185
 30
0.0
 10
-42.3203
 20
-128.8185
 30
0.0
 10
-42.0004
 20
-129.3185
 30
0.0
 10
-42.3403
 20
-130.3284
 30
0.0
 10
-42.3403
 20
-130.3284
 30
0.0
 10
-46.2501
 20
-142.3678
 30
0.0
 10
-46.2501
 20
-142.3678
 30
0.0
 10
-46.5701
 20
-143.3678
 30
0.0
 10
-46.2301
 20
-143.8677
 30
0.0
 10
-45.2301
 20
-143.8677
 30
0.0
 10
-45.2301
 20
-143.8677
 30
0.0
 10
-43.7202
 20
-143.8677
 30
0.0
 10
-43.7202
 20
-143.8677
 30
0.0
 10
-42.7202
 20
-143.8677
 30
0.0
 10
-42.0603
 20
-143.3677
 30
0.0
 10
-41.7303
 20
-142.3678
 30
0.0
 10
-41.7303
 20
-142.3678
 30
0.0
 10
-37.8205
 20
-130.3284
 30
0.0
 10
-37.8205
 20
-130.3284
 30
0.0
 10
-37.4805
 20
-129.3184
 30
0.0
 10
-36.8105
 20
-128.8185
 30
0.0
 10
-35.8106
 20
-128.8185
 30
0.0
 10
-35.8106
 20
-128.8185
 30
0.0
 10
-32.8007
 20
-128.8185
 30
0.0
 10
-32.8007
 20
-128.8185
 30
0.0
 10
-31.7907
 20
-128.8185
 30
0.0
 10
-31.4608
 20
-129.3185
 30
0.0
 10
-31.8107
 20
-130.3284
 30
0.0
 10
-31.8107
 20
-130.3284
 30
0.0
 10
-35.7105
 20
-142.3678
 30
0.0
 10
-35.7105
 20
-142.3678
 30
0.0
 10
-36.0405
 20
-143.3678
 30
0.0
 10
-35.6905
 20
-143.8677
 30
0.0
 10
-34.6905
 20
-143.8677
 30
0.0
 10
-34.6905
 20
-143.8677
 30
0.0
 10
-33.1906
 20
-143.8677
 30
0.0
 10
-33.1906
 20
-143.8677
 30
0.0
 10
-32.1906
 20
-143.8677
 30
0.0
 10
-31.5207
 20
-143.3677
 30
0.0
 10
-31.2007
 20
-142.3678
 30
0.0
 10
-31.2007
 20
-142.3678
 30
0.0
 10
-27.2909
 20
-130.3284
 30
0.0
 10
-27.2909
 20
-130.3284
 30
0.0
 10
-26.9509
 20
-129.3184
 30
0.0
 10
-26.2709
 20
-128.8185
 30
0.0
 10
-25.271
 20
-128.8185
 30
0.0
 10
-25.271
 20
-128.8185
 30
0.0
 10
-22.2611
 20
-128.8185
 30
0.0
 10
-22.2611
 20
-128.8185
 30
0.0
 10
-21.2611
 20
-128.8185
 30
0.0
 10
-20.9312
 20
-129.3185
 30
0.0
 10
-21.2711
 20
-130.3284
 30
0.0
 10
-21.2711
 20
-130.3284
 30
0.0
 10
-24.6709
 20
-140.8579
 30
0.0
 10
-24.6709
 20
-140.8579
 30
0.0
 10
-25.3309
 20
-142.8678
 30
0.0
 10
-24.6609
 20
-143.8678
 30
0.0
 10
-22.651
 20
-143.8678
 30
0.0
 10
-22.651
 20
-143.8678
 30
0.0
 10
-7.5917
 20
-143.8678
 30
0.0
 10
-7.5917
 20
-143.8678
 30
0.0
 10
-6.3018
 20
-139.888
 30
0.0
 10
-5.0118
 20
-135.9082
 30
0.0
 10
-3.7319
 20
-131.9384
 30
0.0
 10
-3.4619
 20
-131.0984
 30
0.0
 10
-2.7819
 20
-130.4385
 30
0.0
 10
-1.662
 20
-130.4485
 30
0.0
 10
-0.662
 20
-130.4485
 30
0.0
 10
0.3279
 20
-130.4585
 30
0.0
 10
1.3279
 20
-130.4485
 30
0.0
 10
1.9779
 20
-130.4385
 30
0.0
 10
2.7478
 20
-130.5885
 30
0.0
 10
2.2879
 20
-131.9884
 30
0.0
 10
2.2879
 20
-131.9884
 30
0.0
 10
1.3579
 20
-134.8383
 30
0.0
 10
1.3579
 20
-134.8383
 30
0.0
 10
1.3579
 20
-134.8383
 30
0.0
 10
11.8974
 20
-134.8383
 30
0.0
 10
11.8974
 20
-134.8383
 30
0.0
 10
12.8974
 20
-134.8383
 30
0.0
 10
13.5573
 20
-134.3383
 30
0.0
 10
13.8773
 20
-133.3384
 30
0.0
 10
13.8773
 20
-133.3384
 30
0.0
 10
15.3572
 20
-128.8186
 30
0.0
 10
15.3572
 20
-128.8186
 30
0.0
 10
15.6772
 20
-127.8186
 30
0.0
 10
15.3372
 20
-127.3187
 30
0.0
 10
14.3372
 20
-127.3187
 30
0.0
 10
14.3372
 20
-127.3187
 30
0.0
 10
12.3873
 20
-127.3187
 30
0.0
 10
12.3873
 20
-127.3187
 30
0.0
 10
9.5174
 20
-127.3187
 30
0.0
 10
6.6576
 20
-127.3187
 30
0.0
 10
3.7977
 20
-127.3187
 30
0.0
 10
2.3678
 20
-127.3187
 30
0.0
 10
0.9378
 20
-127.3187
 30
0.0
 10
-0.4821
 20
-127.3187
 30
0.0
 10
-1.672
 20
-127.3187
 30
0.0
 10
-1.982
 20
-126.5487
 30
0.0
 10
-1.802
 20
-126.0088
 30
0.0
 10
-1.622
 20
-125.4388
 30
0.0
 10
-1.442
 20
-124.8689
 30
0.0
 10
-1.252
 20
-124.3089
 30
0.0
 10
-0.912
 20
-123.2989
 30
0.0
 10
-0.242
 20
-122.809
 30
0.0
 10
0.7579
 20
-122.809
 30
0.0
 10
0.7579
 20
-122.809
 30
0.0
 10
15.8072
 20
-122.809
 30
0.0
 10
15.8072
 20
-122.809
 30
0.0
 10
20.817
 20
-122.809
 30
0.0
 10
22.6769
 20
-124.8089
 30
0.0
 10
21.3769
 20
-128.8187
 30
0.0
 10
21.3769
 20
-128.8187
 30
0.0
 10
19.897
 20
-133.3385
 30
0.0
 10
19.897
 20
-133.3385
 30
0.0
 10
18.5971
 20
-137.3483
 30
0.0
 10
15.9372
 20
-139.3582
 30
0.0
 10
11.9274
 20
-139.3582
 30
0.0
 10
11.9474
 20
-142.3681
 30
0.0
 10
12.9574
 20
-143.868
 30
0.0
 10
14.9673
 20
-143.868
 30
0.0
 10
14.9673
 20
-143.868
 30
0.0
 10
35.0063
 20
-143.868
 30
0.0
 10
35.0063
 20
-143.868
 30
0.0
 10
34.9863
 20
-142.988
 30
0.0
 10
35.1563
 20
-141.9881
 30
0.0
 10
35.5263
 20
-140.8581
 30
0.0
 10
35.5263
 20
-140.8581
 30
0.0
 10
38.9261
 20
-130.3286
 30
0.0
 10
38.9261
 20
-130.3286
 30
0.0
 10
39.2561
 20
-129.3186
 30
0.0
 10
39.9361
 20
-128.8187
 30
0.0
 10
40.936
 20
-128.8187
 30
0.0
 10
40.936
 20
-128.8187
 30
0.0
 10
43.9459
 20
-128.8187
 30
0.0
 10
43.9459
 20
-128.8187
 30
0.0
 10
44.9559
 20
-128.8187
 30
0.0
 10
45.2758
 20
-129.3187
 30
0.0
 10
44.9459
 20
-130.3286
 30
0.0
 10
44.9459
 20
-130.3286
 30
0.0
 10
41.5361
 20
-140.8581
 30
0.0
 10
41.5361
 20
-140.8581
 30
0.0
 10
40.8761
 20
-142.868
 30
0.0
 10
41.5461
 20
-143.868
 30
0.0
 10
43.556
 20
-143.868
 30
0.0
 10
43.556
 20
-143.868
 30
0.0
 10
58.7453
 20
-143.868
 30
0.0
 10
58.7453
 20
-143.868
 30
0.0
 10
58.7953
 20
-143.408
 30
0.0
 10
58.9153
 20
-142.898
 30
0.0
 10
59.0853
 20
-142.3681
 30
0.0
 10
59.0853
 20
-142.3681
 30
0.0
 10
61.5552
 20
-134.8385
 30
0.0
 10
61.5552
 20
-134.8385
 30
0.0
 10
62.8551
 20
-130.8287
 30
0.0
 10
66.025
 20
-128.8188
 30
0.0
 10
71.0348
 20
-128.8188
 30
0.0
 10
71.9548
 20
-128.8188
 30
0.0
 10
72.8747
 20
-128.8188
 30
0.0
 10
73.7947
 20
-128.8188
 30
0.0
 10
74.4547
 20
-128.8188
 30
0.0
 10
75.2146
 20
-128.9688
 30
0.0
 10
74.7547
 20
-130.3887
 30
0.0
 10
74.6047
 20
-130.8487
 30
0.0
 10
74.4547
 20
-131.3187
 30
0.0
 10
74.2947
 20
-131.7786
 30
0.0
 10
73.7847
 20
-133.3485
 30
0.0
 10
73.2148
 20
-133.3385
 30
0.0
 10
72.3448
 20
-133.3385
 30
0.0
 10
72.3448
 20
-133.3385
 30
0.0
 10
69.5649
 20
-133.3385
 30
0.0
 10
69.5649
 20
-133.3385
 30
0.0
 10
68.5549
 20
-133.3385
 30
0.0
 10
67.895
 20
-133.8385
 30
0.0
 10
67.575
 20
-134.8384
 30
0.0
 10
67.575
 20
-134.8384
 30
0.0
 10
65.1051
 20
-142.368
 30
0.0
 10
65.1051
 20
-142.368
 30
0.0
 10
64.7851
 20
-143.368
 30
0.0
 10
65.1251
 20
-143.8679
 30
0.0
 10
66.1251
 20
-143.8679
 30
0.0
 10
66.1251
 20
-143.8679
 30
0.0
 10
72.1448
 20
-143.8679
 30
0.0
 10
72.1448
 20
-143.8679
 30
0.0
 10
73.1548
 20
-143.8679
 30
0.0
 10
73.8147
 20
-143.3679
 30
0.0
 10
74.1347
 20
-142.368
 30
0.0
 10
74.1347
 20
-142.368
 30
0.0
 10
77.0846
 20
-133.3384
 30
0.0
 10
77.0846
 20
-133.3384
 30
0.0
 10
77.0846
 20
-133.3384
 30
0.0
 10
78.5545
 20
-128.8186
 30
0.0
 10
78.5545
 20
-128.8186
 30
0.0
 10
78.5545
 20
-128.8186
 30
0.0
 10
78.5645
 20
-128.7986
 30
0.0
 10
78.5645
 20
-128.7986
 30
0.0
 10
78.5645
 20
-128.7986
 30
0.0
 10
80.1544
 20
-123.9488
 30
0.0
 10
80.1544
 20
-123.9488
 30
0.0
 10
80.5244
 20
-123.1788
 30
0.0
 10
81.1444
 20
-122.8089
 30
0.0
 10
82.0243
 20
-122.8089
 30
0.0
 10
82.0243
 20
-122.8089
 30
0.0
 10
85.0342
 20
-122.8089
 30
0.0
 10
85.0342
 20
-122.8089
 30
0.0
 10
86.0342
 20
-122.8089
 30
0.0
 10
86.3641
 20
-123.2989
 30
0.0
 10
86.0242
 20
-124.3088
 30
0.0
 10
86.0242
 20
-124.3088
 30
0.0
 10
82.6244
 20
-134.8383
 30
0.0
 10
82.6244
 20
-134.8383
 30
0.0
 10
82.6244
 20
-134.8383
 30
0.0
 10
80.6645
 20
-140.858
 30
0.0
 10
80.6645
 20
-140.858
 30
0.0
 10
80.0045
 20
-142.8679
 30
0.0
 10
80.6745
 20
-143.8679
 30
0.0
 10
82.6844
 20
-143.8679
 30
0.0
 10
82.6844
 20
-143.8679
 30
0.0
 10
97.8637
 20
-143.8679
 30
0.0
 10
97.8637
 20
-143.8679
 30
0.0
 10
97.9237
 20
-143.4079
 30
0.0
 10
98.0337
 20
-142.8979
 30
0.0
 10
98.2137
 20
-142.368
 30
0.0
 10
98.2137
 20
-142.368
 30
0.0
 10
100.6736
 20
-134.8384
 30
0.0
 10
100.6736
 20
-134.8384
 30
0.0
 10
101.9835
 20
-130.8286
 30
0.0
 10
105.1434
 20
-128.8187
 30
0.0
 10
110.1532
 20
-128.8187
 30
0.0
 10
110.1532
 20
-128.8187
 30
0.0
 10
116.1729
 20
-128.8187
 30
0.0
 10
116.1729
 20
-128.8187
 30
0.0
 10
121.1927
 20
-128.8187
 30
0.0
 10
123.0526
 20
-130.8286
 30
0.0
 10
121.7426
 20
-134.8384
 30
0.0
 10
120.4427
 20
-138.8582
 30
0.0
 10
117.2828
 20
-140.8581
 30
0.0
 10
112.263
 20
-140.8581
 30
0.0
 10
111.333
 20
-140.8581
 30
0.0
 10
110.4131
 20
-140.8581
 30
0.0
 10
109.4831
 20
-140.8581
 30
0.0
 10
108.8131
 20
-140.8581
 30
0.0
 10
108.0932
 20
-140.6081
 30
0.0
 10
108.5131
 20
-139.3082
 30
0.0
 10
108.6631
 20
-138.8482
 30
0.0
 10
108.8131
 20
-138.3782
 30
0.0
 10
108.9731
 20
-137.9083
 30
0.0
 10
109.2331
 20
-137.0883
 30
0.0
 10
109.7231
 20
-136.3484
 30
0.0
 10
110.953
 20
-136.3484
 30
0.0
 10
110.953
 20
-136.3484
 30
0.0
 10
113.7129
 20
-136.3484
 30
0.0
 10
113.7129
 20
-136.3484
 30
0.0
 10
114.7129
 20
-136.3484
 30
0.0
 10
115.3828
 20
-135.8484
 30
0.0
 10
115.7228
 20
-134.8385
 30
0.0
 10
116.0528
 20
-133.8385
 30
0.0
 10
115.7028
 20
-133.3386
 30
0.0
 10
114.7028
 20
-133.3386
 30
0.0
 10
114.7028
 20
-133.3386
 30
0.0
 10
108.6831
 20
-133.3386
 30
0.0
 10
108.6831
 20
-133.3386
 30
0.0
 10
107.6831
 20
-133.3386
 30
0.0
 10
107.0232
 20
-133.8386
 30
0.0
 10
106.6932
 20
-134.8385
 30
0.0
 10
106.6932
 20
-134.8385
 30
0.0
 10
106.4832
 20
-135.4685
 30
0.0
 10
106.4832
 20
-135.4685
 30
0.0
 10
106.4832
 20
-135.4685
 30
0.0
 10
106.4732
 20
-135.4685
 30
0.0
 10
106.4732
 20
-135.4685
 30
0.0
 10
106.4732
 20
-135.4685
 30
0.0
 10
104.2633
 20
-142.2482
 30
0.0
 10
104.2633
 20
-142.2482
 30
0.0
 10
104.2633
 20
-142.2482
 30
0.0
 10
104.2733
 20
-142.2382
 30
0.0
 10
104.2733
 20
-142.2382
 30
0.0
 10
104.2733
 20
-142.2382
 30
0.0
 10
104.2333
 20
-142.3682
 30
0.0
 10
104.2333
 20
-142.3682
 30
0.0
 10
103.9033
 20
-143.3682
 30
0.0
 10
104.2533
 20
-143.8681
 30
0.0
 10
105.2533
 20
-143.8681
 30
0.0
 10
105.2533
 20
-143.8681
 30
0.0
 10
136.8618
 20
-143.8681
 30
0.0
 10
136.8618
 20
-143.8681
 30
0.0
 10
136.8618
 20
-143.8681
 30
0.0
 10
140.7616
 20
-131.8287
 30
0.0
 10
140.7616
 20
-131.8287
 30
0.0
 10
141.4316
 20
-129.8288
 30
0.0
 10
143.2615
 20
-128.8188
 30
0.0
 10
146.2713
 20
-128.8188
 30
0.0
 10
146.2713
 20
-128.8188
 30
0.0
 10
152.291
 20
-128.8188
 30
0.0
 10
152.291
 20
-128.8188
 30
0.0
 10
157.3108
 20
-128.8188
 30
0.0
 10
159.1607
 20
-130.8287
 30
0.0
 10
157.8607
 20
-134.8385
 30
0.0
 10
157.8607
 20
-134.8385
 30
0.0
 10
155.9008
 20
-140.8582
 30
0.0
 10
155.9008
 20
-140.8582
 30
0.0
 10
155.2408
 20
-142.8681
 30
0.0
 10
155.9108
 20
-143.8681
 30
0.0
 10
157.9207
 20
-143.8681
 30
0.0
 10
157.9207
 20
-143.8681
 30
0.0
 10
182.6795
 20
-143.8681
 30
0.0
 10
182.6795
 20
-143.8681
 30
0.0
 10
183.6795
 20
-143.8681
 30
0.0
 10
184.0194
 20
-144.3681
 30
0.0
 10
183.6995
 20
-145.378
 30
0.0
 10
183.6995
 20
-145.378
 30
0.0
 10
183.2195
 20
-146.8779
 30
0.0
 10
183.2195
 20
-146.8779
 30
0.0
 10
182.8995
 20
-147.8779
 30
0.0
 10
182.2295
 20
-148.3878
 30
0.0
 10
181.2296
 20
-148.3878
 30
0.0
 10
181.2296
 20
-148.3878
 30
0.0
 10
156.4808
 20
-148.3878
 30
0.0
 10
156.4808
 20
-148.3878
 30
0.0
 10
150.4611
 20
-148.3878
 30
0.0
 10
148.2612
 20
-145.8779
 30
0.0
 10
149.8811
 20
-140.8582
 30
0.0
 10
149.8811
 20
-140.8582
 30
0.0
 10
151.841
 20
-134.8385
 30
0.0
 10
151.841
 20
-134.8385
 30
0.0
 10
152.161
 20
-133.8385
 30
0.0
 10
151.821
 20
-133.3386
 30
0.0
 10
150.821
 20
-133.3386
 30
0.0
 10
150.821
 20
-133.3386
 30
0.0
 10
146.3012
 20
-133.3386
 30
0.0
 10
146.3012
 20
-133.3386
 30
0.0
 10
146.3012
 20
-133.3386
 30
0.0
 10
141.9114
 20
-146.878
 30
0.0
 10
141.9114
 20
-146.878
 30
0.0
 10
141.9114
 20
-146.878
 30
0.0
 10
141.8914
 20
-146.928
 30
0.0
 10
141.8914
 20
-146.928
 30
0.0
 10
141.8914
 20
-146.928
 30
0.0
 10
141.8814
 20
-146.968
 30
0.0
 10
141.8814
 20
-146.968
 30
0.0
 10
141.8814
 20
-146.968
 30
0.0
 10
141.8614
 20
-147.018
 30
0.0
 10
141.8614
 20
-147.018
 30
0.0
 10
141.8614
 20
-147.018
 30
0.0
 10
141.8414
 20
-147.058
 30
0.0
 10
141.8414
 20
-147.058
 30
0.0
 10
141.8414
 20
-147.058
 30
0.0
 10
141.8314
 20
-147.108
 30
0.0
 10
141.8314
 20
-147.108
 30
0.0
 10
141.8314
 20
-147.108
 30
0.0
 10
141.8114
 20
-147.148
 30
0.0
 10
141.8114
 20
-147.148
 30
0.0
 10
141.8114
 20
-147.148
 30
0.0
 10
141.7914
 20
-147.188
 30
0.0
 10
141.7914
 20
-147.188
 30
0.0
 10
141.7914
 20
-147.188
 30
0.0
 10
141.7714
 20
-147.228
 30
0.0
 10
141.7714
 20
-147.228
 30
0.0
 10
141.7714
 20
-147.228
 30
0.0
 10
141.7514
 20
-147.268
 30
0.0
 10
141.7514
 20
-147.268
 30
0.0
 10
141.7514
 20
-147.268
 30
0.0
 10
141.7314
 20
-147.308
 30
0.0
 10
141.7314
 20
-147.308
 30
0.0
 10
141.7314
 20
-147.308
 30
0.0
 10
141.7114
 20
-147.348
 30
0.0
 10
141.7114
 20
-147.348
 30
0.0
 10
141.7114
 20
-147.348
 30
0.0
 10
141.6914
 20
-147.388
 30
0.0
 10
141.6914
 20
-147.388
 30
0.0
 10
141.6914
 20
-147.388
 30
0.0
 10
141.6714
 20
-147.428
 30
0.0
 10
141.6714
 20
-147.428
 30
0.0
 10
141.6714
 20
-147.428
 30
0.0
 10
141.6514
 20
-147.468
 30
0.0
 10
141.6514
 20
-147.468
 30
0.0
 10
141.6514
 20
-147.468
 30
0.0
 10
141.6314
 20
-147.498
 30
0.0
 10
141.6314
 20
-147.498
 30
0.0
 10
141.6314
 20
-147.498
 30
0.0
 10
141.6014
 20
-147.538
 30
0.0
 10
141.6014
 20
-147.538
 30
0.0
 10
141.6014
 20
-147.538
 30
0.0
 10
141.5814
 20
-147.568
 30
0.0
 10
141.5814
 20
-147.568
 30
0.0
 10
141.5814
 20
-147.568
 30
0.0
 10
141.5614
 20
-147.608
 30
0.0
 10
141.5614
 20
-147.608
 30
0.0
 10
141.5614
 20
-147.608
 30
0.0
 10
141.5314
 20
-147.638
 30
0.0
 10
141.5314
 20
-147.638
 30
0.0
 10
141.5314
 20
-147.638
 30
0.0
 10
141.5114
 20
-147.668
 30
0.0
 10
141.5114
 20
-147.668
 30
0.0
 10
141.5114
 20
-147.668
 30
0.0
 10
141.4814
 20
-147.708
 30
0.0
 10
141.4814
 20
-147.708
 30
0.0
 10
141.4814
 20
-147.708
 30
0.0
 10
141.4614
 20
-147.738
 30
0.0
 10
141.4614
 20
-147.738
 30
0.0
 10
141.4614
 20
-147.738
 30
0.0
 10
141.4514
 20
-147.738
 30
0.0
 10
141.4514
 20
-147.738
 30
0.0
 10
141.4514
 20
-147.738
 30
0.0
 10
141.4314
 20
-147.768
 30
0.0
 10
141.4314
 20
-147.768
 30
0.0
 10
141.4314
 20
-147.768
 30
0.0
 10
141.4014
 20
-147.798
 30
0.0
 10
141.4014
 20
-147.798
 30
0.0
 10
141.4014
 20
-147.798
 30
0.0
 10
141.3714
 20
-147.828
 30
0.0
 10
141.3714
 20
-147.828
 30
0.0
 10
141.3714
 20
-147.828
 30
0.0
 10
141.3514
 20
-147.848
 30
0.0
 10
141.3514
 20
-147.848
 30
0.0
 10
141.3514
 20
-147.848
 30
0.0
 10
141.3214
 20
-147.878
 30
0.0
 10
141.3214
 20
-147.878
 30
0.0
 10
141.3214
 20
-147.878
 30
0.0
 10
141.2914
 20
-147.908
 30
0.0
 10
141.2914
 20
-147.908
 30
0.0
 10
141.2914
 20
-147.908
 30
0.0
 10
141.2614
 20
-147.938
 30
0.0
 10
141.2614
 20
-147.938
 30
0.0
 10
141.2614
 20
-147.938
 30
0.0
 10
141.2314
 20
-147.958
 30
0.0
 10
141.2314
 20
-147.958
 30
0.0
 10
141.2314
 20
-147.958
 30
0.0
 10
141.2014
 20
-147.988
 30
0.0
 10
141.2014
 20
-147.988
 30
0.0
 10
141.2014
 20
-147.988
 30
0.0
 10
141.1714
 20
-148.008
 30
0.0
 10
141.1714
 20
-148.008
 30
0.0
 10
141.1714
 20
-148.008
 30
0.0
 10
141.1414
 20
-148.028
 30
0.0
 10
141.1414
 20
-148.028
 30
0.0
 10
141.1414
 20
-148.028
 30
0.0
 10
141.1114
 20
-148.048
 30
0.0
 10
141.1114
 20
-148.048
 30
0.0
 10
141.1114
 20
-148.048
 30
0.0
 10
141.0714
 20
-148.078
 30
0.0
 10
141.0714
 20
-148.078
 30
0.0
 10
141.0714
 20
-148.078
 30
0.0
 10
141.0414
 20
-148.098
 30
0.0
 10
141.0414
 20
-148.098
 30
0.0
 10
141.0414
 20
-148.098
 30
0.0
 10
141.0114
 20
-148.118
 30
0.0
 10
141.0114
 20
-148.118
 30
0.0
 10
141.0114
 20
-148.118
 30
0.0
 10
140.9714
 20
-148.138
 30
0.0
 10
140.9714
 20
-148.138
 30
0.0
 10
140.9714
 20
-148.138
 30
0.0
 10
140.9414
 20
-148.158
 30
0.0
 10
140.9414
 20
-148.158
 30
0.0
 10
140.9414
 20
-148.158
 30
0.0
 10
140.9014
 20
-148.168
 30
0.0
 10
140.9014
 20
-148.168
 30
0.0
 10
140.9014
 20
-148.168
 30
0.0
 10
140.8714
 20
-148.188
 30
0.0
 10
140.8714
 20
-148.188
 30
0.0
 10
140.8714
 20
-148.188
 30
0.0
 10
140.8314
 20
-148.208
 30
0.0
 10
140.8314
 20
-148.208
 30
0.0
 10
140.8314
 20
-148.208
 30
0.0
 10
140.8014
 20
-148.218
 30
0.0
 10
140.8014
 20
-148.218
 30
0.0
 10
140.8014
 20
-148.218
 30
0.0
 10
140.7614
 20
-148.238
 30
0.0
 10
140.7614
 20
-148.238
 30
0.0
 10
140.7614
 20
-148.238
 30
0.0
 10
140.7214
 20
-148.248
 30
0.0
 10
140.7214
 20
-148.248
 30
0.0
 10
140.7214
 20
-148.248
 30
0.0
 10
140.6914
 20
-148.268
 30
0.0
 10
140.6914
 20
-148.268
 30
0.0
 10
140.6914
 20
-148.268
 30
0.0
 10
140.6514
 20
-148.278
 30
0.0
 10
140.6514
 20
-148.278
 30
0.0
 10
140.6514
 20
-148.278
 30
0.0
 10
140.6114
 20
-148.288
 30
0.0
 10
140.6114
 20
-148.288
 30
0.0
 10
140.6114
 20
-148.288
 30
0.0
 10
140.5714
 20
-148.298
 30
0.0
 10
140.5714
 20
-148.298
 30
0.0
 10
140.5714
 20
-148.298
 30
0.0
 10
140.5314
 20
-148.308
 30
0.0
 10
140.5314
 20
-148.308
 30
0.0
 10
140.5314
 20
-148.308
 30
0.0
 10
140.4914
 20
-148.318
 30
0.0
 10
140.4914
 20
-148.318
 30
0.0
 10
140.4914
 20
-148.318
 30
0.0
 10
140.4514
 20
-148.328
 30
0.0
 10
140.4514
 20
-148.328
 30
0.0
 10
140.4514
 20
-148.328
 30
0.0
 10
140.4114
 20
-148.338
 30
0.0
 10
140.4114
 20
-148.338
 30
0.0
 10
140.4114
 20
-148.338
 30
0.0
 10
140.3714
 20
-148.348
 30
0.0
 10
140.3714
 20
-148.348
 30
0.0
 10
140.3714
 20
-148.348
 30
0.0
 10
140.3214
 20
-148.358
 30
0.0
 10
140.3214
 20
-148.358
 30
0.0
 10
140.3214
 20
-148.358
 30
0.0
 10
140.2814
 20
-148.358
 30
0.0
 10
140.2814
 20
-148.358
 30
0.0
 10
140.2814
 20
-148.358
 30
0.0
 10
140.2414
 20
-148.368
 30
0.0
 10
140.2414
 20
-148.368
 30
0.0
 10
140.2414
 20
-148.368
 30
0.0
 10
140.1914
 20
-148.368
 30
0.0
 10
140.1914
 20
-148.368
 30
0.0
 10
140.1914
 20
-148.368
 30
0.0
 10
140.1514
 20
-148.378
 30
0.0
 10
140.1514
 20
-148.378
 30
0.0
 10
140.1514
 20
-148.378
 30
0.0
 10
140.1014
 20
-148.378
 30
0.0
 10
140.1014
 20
-148.378
 30
0.0
 10
140.1014
 20
-148.378
 30
0.0
 10
140.0614
 20
-148.378
 30
0.0
 10
140.0614
 20
-148.378
 30
0.0
 10
140.0614
 20
-148.378
 30
0.0
 10
140.0114
 20
-148.378
 30
0.0
 10
140.0114
 20
-148.378
 30
0.0
 10
140.0114
 20
-148.378
 30
0.0
 10
139.9714
 20
-148.388
 30
0.0
 10
139.9714
 20
-148.388
 30
0.0
 10
139.9714
 20
-148.388
 30
0.0
 10
139.9214
 20
-148.388
 30
0.0
 10
139.9214
 20
-148.388
 30
0.0
 10
139.9214
 20
-148.388
 30
0.0
 10
136.9115
 20
-148.388
 30
0.0
 10
136.9115
 20
-148.388
 30
0.0
 10
136.9115
 20
-148.388
 30
0.0
 10
103.8131
 20
-148.388
 30
0.0
 10
103.8131
 20
-148.388
 30
0.0
 10
103.0131
 20
-148.388
 30
0.0
 10
102.2932
 20
-148.328
 30
0.0
 10
101.6532
 20
-148.228
 30
0.0
 10
101.4032
 20
-148.328
 30
0.0
 10
101.1132
 20
-148.388
 30
0.0
 10
100.8032
 20
-148.388
 30
0.0
 10
100.8032
 20
-148.388
 30
0.0
 10
81.2441
 20
-148.388
 30
0.0
 10
81.2441
 20
-148.388
 30
0.0
 10
78.4642
 20
-148.388
 30
0.0
 10
76.5543
 20
-148.098
 30
0.0
 10
75.4844
 20
-147.538
 30
0.0
 10
73.9845
 20
-148.098
 30
0.0
 10
72.3945
 20
-148.388
 30
0.0
 10
70.7046
 20
-148.388
 30
0.0
 10
70.7046
 20
-148.388
 30
0.0
 10
64.6849
 20
-148.388
 30
0.0
 10
64.6849
 20
-148.388
 30
0.0
 10
63.8849
 20
-148.388
 30
0.0
 10
63.165
 20
-148.328
 30
0.0
 10
62.525
 20
-148.228
 30
0.0
 10
62.275
 20
-148.328
 30
0.0
 10
61.995
 20
-148.388
 30
0.0
 10
61.675
 20
-148.388
 30
0.0
 10
61.675
 20
-148.388
 30
0.0
 10
42.1159
 20
-148.388
 30
0.0
 10
42.1159
 20
-148.388
 30
0.0
 10
40.836
 20
-148.388
 30
0.0
 10
39.726
 20
-148.268
 30
0.0
 10
38.7961
 20
-148.048
 30
0.0
 10
38.4661
 20
-148.268
 30
0.0
 10
38.0761
 20
-148.388
 30
0.0
 10
37.5962
 20
-148.388
 30
0.0
 10
37.5962
 20
-148.388
 30
0.0
 10
13.5273
 20
-148.388
 30
0.0
 10
13.5273
 20
-148.388
 30
0.0
 10
7.5076
 20
-148.388
 30
0.0
 10
4.9677
 20
-145.3781
 30
0.0
 10
5.9077
 20
-139.3584
 30
0.0
 10
5.9077
 20
-139.3584
 30
0.0
 10
-0.112
 20
-139.3584
 30
0.0
 10
-0.112
 20
-139.3584
 30
0.0
 10
-0.112
 20
-139.3584
 30
0.0
 10
-2.5519
 20
-146.878
 30
0.0
 10
-2.5519
 20
-146.878
 30
0.0
 10
-2.5519
 20
-146.878
 30
0.0
 10
-2.5619
 20
-146.928
 30
0.0
 10
-2.5619
 20
-146.928
 30
0.0
 10
-2.5619
 20
-146.928
 30
0.0
 10
-2.5819
 20
-146.968
 30
0.0
 10
-2.5819
 20
-146.968
 30
0.0
 10
-2.5819
 20
-146.968
 30
0.0
 10
-2.5919
 20
-147.018
 30
0.0
 10
-2.5919
 20
-147.018
 30
0.0
 10
-2.5919
 20
-147.018
 30
0.0
 10
-2.6119
 20
-147.058
 30
0.0
 10
-2.6119
 20
-147.058
 30
0.0
 10
-2.6119
 20
-147.058
 30
0.0
 10
-2.6319
 20
-147.108
 30
0.0
 10
-2.6319
 20
-147.108
 30
0.0
 10
-2.6319
 20
-147.108
 30
0.0
 10
-2.6519
 20
-147.148
 30
0.0
 10
-2.6519
 20
-147.148
 30
0.0
 10
-2.6519
 20
-147.148
 30
0.0
 10
-2.6719
 20
-147.188
 30
0.0
 10
-2.6719
 20
-147.188
 30
0.0
 10
-2.6719
 20
-147.188
 30
0.0
 10
-2.6819
 20
-147.228
 30
0.0
 10
-2.6819
 20
-147.228
 30
0.0
 10
-2.6819
 20
-147.228
 30
0.0
 10
-2.7019
 20
-147.268
 30
0.0
 10
-2.7019
 20
-147.268
 30
0.0
 10
-2.7019
 20
-147.268
 30
0.0
 10
-2.7219
 20
-147.308
 30
0.0
 10
-2.7219
 20
-147.308
 30
0.0
 10
-2.7219
 20
-147.308
 30
0.0
 10
-2.7419
 20
-147.348
 30
0.0
 10
-2.7419
 20
-147.348
 30
0.0
 10
-2.7419
 20
-147.348
 30
0.0
 10
-2.7619
 20
-147.388
 30
0.0
 10
-2.7619
 20
-147.388
 30
0.0
 10
-2.7619
 20
-147.388
 30
0.0
 10
-2.7919
 20
-147.428
 30
0.0
 10
-2.7919
 20
-147.428
 30
0.0
 10
-2.7919
 20
-147.428
 30
0.0
 10
-2.8119
 20
-147.468
 30
0.0
 10
-2.8119
 20
-147.468
 30
0.0
 10
-2.8119
 20
-147.468
 30
0.0
 10
-2.8319
 20
-147.498
 30
0.0
 10
-2.8319
 20
-147.498
 30
0.0
 10
-2.8319
 20
-147.498
 30
0.0
 10
-2.8519
 20
-147.538
 30
0.0
 10
-2.8519
 20
-147.538
 30
0.0
 10
-2.8519
 20
-147.538
 30
0.0
 10
-2.8819
 20
-147.568
 30
0.0
 10
-2.8819
 20
-147.568
 30
0.0
 10
-2.8819
 20
-147.568
 30
0.0
 10
-2.9019
 20
-147.608
 30
0.0
 10
-2.9019
 20
-147.608
 30
0.0
 10
-2.9019
 20
-147.608
 30
0.0
 10
-2.9319
 20
-147.638
 30
0.0
 10
-2.9319
 20
-147.638
 30
0.0
 10
-2.9319
 20
-147.638
 30
0.0
 10
-2.9519
 20
-147.668
 30
0.0
 10
-2.9519
 20
-147.668
 30
0.0
 10
-2.9519
 20
-147.668
 30
0.0
 10
-2.9819
 20
-147.708
 30
0.0
 10
-2.9819
 20
-147.708
 30
0.0
 10
-2.9819
 20
-147.708
 30
0.0
 10
-3.0019
 20
-147.738
 30
0.0
 10
-3.0019
 20
-147.738
 30
0.0
 10
-3.0019
 20
-147.738
 30
0.0
 10
-3.0319
 20
-147.768
 30
0.0
 10
-3.0319
 20
-147.768
 30
0.0
 10
-3.0319
 20
-147.768
 30
0.0
 10
-3.0519
 20
-147.798
 30
0.0
 10
-3.0519
 20
-147.798
 30
0.0
 10
-3.0519
 20
-147.798
 30
0.0
 10
-3.0819
 20
-147.828
 30
0.0
 10
-3.0819
 20
-147.828
 30
0.0
 10
-3.0819
 20
-147.828
 30
0.0
 10
-3.1119
 20
-147.848
 30
0.0
 10
-3.1119
 20
-147.848
 30
0.0
 10
-3.1119
 20
-147.848
 30
0.0
 10
-3.1419
 20
-147.878
 30
0.0
 10
-3.1419
 20
-147.878
 30
0.0
 10
-3.1419
 20
-147.878
 30
0.0
 10
-3.1719
 20
-147.908
 30
0.0
 10
-3.1719
 20
-147.908
 30
0.0
 10
-3.1719
 20
-147.908
 30
0.0
 10
-3.2019
 20
-147.938
 30
0.0
 10
-3.2019
 20
-147.938
 30
0.0
 10
-3.2019
 20
-147.938
 30
0.0
 10
-3.2319
 20
-147.958
 30
0.0
 10
-3.2319
 20
-147.958
 30
0.0
 10
-3.2319
 20
-147.958
 30
0.0
 10
-3.2619
 20
-147.988
 30
0.0
 10
-3.2619
 20
-147.988
 30
0.0
 10
-3.2619
 20
-147.988
 30
0.0
 10
-3.2919
 20
-148.008
 30
0.0
 10
-3.2919
 20
-148.008
 30
0.0
 10
-3.2919
 20
-148.008
 30
0.0
 10
-3.3219
 20
-148.028
 30
0.0
 10
-3.3219
 20
-148.028
 30
0.0
 10
-3.3219
 20
-148.028
 30
0.0
 10
-3.3519
 20
-148.048
 30
0.0
 10
-3.3519
 20
-148.048
 30
0.0
 10
-3.3519
 20
-148.048
 30
0.0
 10
-3.3819
 20
-148.078
 30
0.0
 10
-3.3819
 20
-148.078
 30
0.0
 10
-3.3819
 20
-148.078
 30
0.0
 10
-3.4119
 20
-148.098
 30
0.0
 10
-3.4119
 20
-148.098
 30
0.0
 10
-3.4119
 20
-148.098
 30
0.0
 10
-3.4219
 20
-148.098
 30
0.0
 10
-3.4219
 20
-148.098
 30
0.0
 10
-3.4219
 20
-148.098
 30
0.0
 10
-3.4519
 20
-148.118
 30
0.0
 10
-3.4519
 20
-148.118
 30
0.0
 10
-3.4519
 20
-148.118
 30
0.0
 10
-3.4819
 20
-148.138
 30
0.0
 10
-3.4819
 20
-148.138
 30
0.0
 10
-3.4819
 20
-148.138
 30
0.0
 10
-3.5219
 20
-148.158
 30
0.0
 10
-3.5219
 20
-148.158
 30
0.0
 10
-3.5219
 20
-148.158
 30
0.0
 10
-3.5519
 20
-148.168
 30
0.0
 10
-3.5519
 20
-148.168
 30
0.0
 10
-3.5519
 20
-148.168
 30
0.0
 10
-3.5919
 20
-148.188
 30
0.0
 10
-3.5919
 20
-148.188
 30
0.0
 10
-3.5919
 20
-148.188
 30
0.0
 10
-3.6219
 20
-148.208
 30
0.0
 10
-3.6219
 20
-148.208
 30
0.0
 10
-3.6219
 20
-148.208
 30
0.0
 10
-3.6619
 20
-148.218
 30
0.0
 10
-3.6619
 20
-148.218
 30
0.0
 10
-3.6619
 20
-148.218
 30
0.0
 10
-3.7019
 20
-148.238
 30
0.0
 10
-3.7019
 20
-148.238
 30
0.0
 10
-3.7019
 20
-148.238
 30
0.0
 10
-3.7319
 20
-148.248
 30
0.0
 10
-3.7319
 20
-148.248
 30
0.0
 10
-3.7319
 20
-148.248
 30
0.0
 10
-3.7719
 20
-148.268
 30
0.0
 10
-3.7719
 20
-148.268
 30
0.0
 10
-3.7719
 20
-148.268
 30
0.0
 10
-3.8119
 20
-148.278
 30
0.0
 10
-3.8119
 20
-148.278
 30
0.0
 10
-3.8119
 20
-148.278
 30
0.0
 10
-3.8519
 20
-148.288
 30
0.0
 10
-3.8519
 20
-148.288
 30
0.0
 10
-3.8519
 20
-148.288
 30
0.0
 10
-3.8919
 20
-148.298
 30
0.0
 10
-3.8919
 20
-148.298
 30
0.0
 10
-3.8919
 20
-148.298
 30
0.0
 10
-3.9319
 20
-148.308
 30
0.0
 10
-3.9319
 20
-148.308
 30
0.0
 10
-3.9319
 20
-148.308
 30
0.0
 10
-3.9719
 20
-148.318
 30
0.0
 10
-3.9719
 20
-148.318
 30
0.0
 10
-3.9719
 20
-148.318
 30
0.0
 10
-4.0119
 20
-148.328
 30
0.0
 10
-4.0119
 20
-148.328
 30
0.0
 10
-4.0119
 20
-148.328
 30
0.0
 10
-4.0519
 20
-148.338
 30
0.0
 10
-4.0519
 20
-148.338
 30
0.0
 10
-4.0519
 20
-148.338
 30
0.0
 10
-4.0919
 20
-148.348
 30
0.0
 10
-4.0919
 20
-148.348
 30
0.0
 10
-4.0919
 20
-148.348
 30
0.0
 10
-4.1319
 20
-148.358
 30
0.0
 10
-4.1319
 20
-148.358
 30
0.0
 10
-4.1319
 20
-148.358
 30
0.0
 10
-4.1819
 20
-148.358
 30
0.0
 10
-4.1819
 20
-148.358
 30
0.0
 10
-4.1819
 20
-148.358
 30
0.0
 10
-4.2219
 20
-148.368
 30
0.0
 10
-4.2219
 20
-148.368
 30
0.0
 10
-4.2219
 20
-148.368
 30
0.0
 10
-4.2619
 20
-148.368
 30
0.0
 10
-4.2619
 20
-148.368
 30
0.0
 10
-4.2619
 20
-148.368
 30
0.0
 10
-4.3119
 20
-148.378
 30
0.0
 10
-4.3119
 20
-148.378
 30
0.0
 10
-4.3119
 20
-148.378
 30
0.0
 10
-4.3519
 20
-148.378
 30
0.0
 10
-4.3519
 20
-148.378
 30
0.0
 10
-4.3519
 20
-148.378
 30
0.0
 10
-4.4019
 20
-148.378
 30
0.0
 10
-4.4019
 20
-148.378
 30
0.0
 10
-4.4019
 20
-148.378
 30
0.0
 10
-4.4419
 20
-148.378
 30
0.0
 10
-4.4419
 20
-148.378
 30
0.0
 10
-4.4419
 20
-148.378
 30
0.0
 10
-4.4919
 20
-148.388
 30
0.0
 10
-4.4919
 20
-148.388
 30
0.0
 10
-4.4919
 20
-148.388
 30
0.0
 10
-4.5319
 20
-148.388
 30
0.0
 10
-4.5319
 20
-148.388
 30
0.0
 10
-4.5319
 20
-148.388
 30
0.0
 10
-7.5518
 20
-148.388
 30
0.0
 10
-7.5518
 20
-148.388
 30
0.0
 10
-7.5518
 20
-148.388
 30
0.0
 10
-24.101
 20
-148.388
 30
0.0
 10
-24.101
 20
-148.388
 30
0.0
 10
-27.1109
 20
-148.388
 30
0.0
 10
-29.0308
 20
-148.078
 30
0.0
 10
-29.8507
 20
-147.478
 30
0.0
 10
-31.0306
 20
-148.078
 30
0.0
 10
-32.6306
 20
-148.388
 30
0.0
 10
-34.6305
 20
-148.388
 30
0.0
 10
-34.6305
 20
-148.388
 30
0.0
 10
-36.1404
 20
-148.388
 30
0.0
 10
-36.1404
 20
-148.388
 30
0.0
 10
-38.1403
 20
-148.388
 30
0.0
 10
-39.5702
 20
-148.118
 30
0.0
 10
-40.4102
 20
-147.608
 30
0.0
 10
-41.5701
 20
-148.118
 30
0.0
 10
-43.66
 20
-148.388
 30
0.0
 10
-46.6699
 20
-148.388
 30
0.0
 10
-47.4699
 20
-148.388
 30
0.0
 10
-48.1898
 20
-148.328
 30
0.0
 10
-48.8298
 20
-148.228
 30
0.0
 10
-49.0798
 20
-148.328
 30
0.0
 10
-49.3598
 20
-148.388
 30
0.0
 10
-49.6798
 20
-148.388
 30
0.0
 10
-49.6798
 20
-148.388
 30
0.0
 10
-69.2389
 20
-148.388
 30
0.0
 10
-69.2389
 20
-148.388
 30
0.0
 10
-71.5288
 20
-148.388
 30
0.0
 10
-73.3787
 20
-148.008
 30
0.0
 10
-74.7786
 20
-147.2381
 30
0.0
 10
-76.3385
 20
-148.0081
 30
0.0
 10
-78.0084
 20
-148.388
 30
0.0
 10
-79.7784
 20
-148.388
 30
0.0
 10
-79.7784
 20
-148.388
 30
0.0
 10
-85.7981
 20
-148.388
 30
0.0
 10
-85.7981
 20
-148.388
 30
0.0
 10
-86.5881
 20
-148.388
 30
0.0
 10
-87.308
 20
-148.328
 30
0.0
 10
-87.948
 20
-148.228
 30
0.0
 10
-88.198
 20
-148.328
 30
0.0
 10
-88.488
 20
-148.388
 30
0.0
 10
-88.808
 20
-148.388
 30
0.0
 10
-88.808
 20
-148.388
 30
0.0
 10
-120.4065
 20
-148.388
 30
0.0
 10
-120.4065
 20
-148.388
 30
0.0
 10
-126.4262
 20
-148.388
 30
0.0
 10
-128.6161
 20
-145.8781
 30
0.0
 10
-126.9962
 20
-140.8584
 30
0.0
 10
-126.9962
 20
-140.8584
 30
0.0
 10
-121.6365
 20
-124.3092
 30
0.0
 10
-121.6365
 20
-124.3092
 30
0.0
 10
-121.2965
 20
-123.2992
 30
0.0
 10
-120.6265
 20
-122.8093
 30
0.0
 10
-119.6166
 20
-122.8093
 30
0.0
 10
-119.6166
 20
-122.8093
 30
0.0
 10
-119.6169
 20
-122.8086
 30
0.0
 10
-119.6169
 20
-122.8086
 30
0.0
  0
SPLINE
  5
7C
330
1F
100
AcDbEntity
  8
Layer 1
 62
   250
370
     9
100
AcDbSpline
210
0.0
220
0.0
230
1.0
 70
    11
 71
     3
 72
    29
 73
    25
 74
     0
 42
0.0000000001
 43
0.0000000001
 40
0.0
 40
0.0
 40
0.0
 40
0.0
 40
0.125
 40
0.125
 40
0.125
 40
0.25
 40
0.25
 40
0.25
 40
0.375
 40
0.375
 40
0.375
 40
0.5
 40
0.5
 40
0.5
 40
0.625
 40
0.625
 40
0.625
 40
0.75
 40
0.75
 40
0.75
 40
0.875
 40
0.875
 40
0.875
 40
1.0
 40
1.0
 40
1.0
 40
1.0
 10
40.6355
 20
-125.0585
 30
0.0
 10
40.8355
 20
-124.4585
 30
0.0
 10
41.3055
 20
-123.9286
 30
0.0
 10
42.0354
 20
-123.4786
 30
0.0
 10
42.7654
 20
-123.0286
 30
0.0
 10
43.5553
 20
-122.8086
 30
0.0
 10
44.3953
 20
-122.8086
 30
0.0
 10
45.2153
 20
-122.8086
 30
0.0
 10
45.8452
 20
-123.0286
 30
0.0
 10
46.2952
 20
-123.4786
 30
0.0
 10
46.7352
 20
-123.9286
 30
0.0
 10
46.8552
 20
-124.4586
 30
0.0
 10
46.6552
 20
-125.0585
 30
0.0
 10
46.4552
 20
-125.6785
 30
0.0
 10
45.9852
 20
-126.2184
 30
0.0
 10
45.2553
 20
-126.6584
 30
0.0
 10
44.5253
 20
-127.0884
 30
0.0
 10
43.7454
 20
-127.3184
 30
0.0
 10
42.9254
 20
-127.3184
 30
0.0
 10
42.0754
 20
-127.3184
 30
0.0
 10
41.4355
 20
-127.0884
 30
0.0
 10
40.9955
 20
-126.6584
 30
0.0
 10
40.5555
 20
-126.2184
 30
0.0
 10
40.4355
 20
-125.6784
 30
0.0
 10
40.6355
 20
-125.0585
 30
0.0
  0
SPLINE
  5
7D
330
1F
100
AcDbEntity
  8
Layer 1
 62
   250
370
     9
100
AcDbSpline
210
0.0
220
0.0
230
1.0
 70
    11
 71
     3
 72
    95
 73
    91
 74
     0
 42
0.0000000001
 43
0.0000000001
 40
0.0
 40
0.0
 40
0.0
 40
0.0
 40
0.0333333333333333
 40
0.0333333333333333
 40
0.0333333333333333
 40
0.0666666666666667
 40
0.0666666666666667
 40
0.0666666666666667
 40
0.1
 40
0.1
 40
0.1
 40
0.1333333333333333
 40
0.1333333333333333
 40
0.1333333333333333
 40
0.1666666666666667
 40
0.1666666666666667
 40
0.1666666666666667
 40
0.2
 40
0.2
 40
0.2
 40
0.2333333333333333
 40
0.2333333333333333
 40
0.2333333333333333
 40
0.2666666666666667
 40
0.2666666666666667
 40
0.2666666666666667
 40
0.3
 40
0.3
 40
0.3
 40
0.3333333333333333
 40
0.3333333333333333
 40
0.3333333333333333
 40
0.3666666666666666
 40
0.3666666666666666
 40
0.3666666666666666
 40
0.4
 40
0.4
 40
0.4
 40
0.4333333333333333
 40
0.4333333333333333
 40
0.4333333333333333
 40
0.4666666666666667
 40
0.4666666666666667
 40
0.4666666666666667
 40
0.5
 40
0.5
 40
0.5
 40
0.5333333333333333
 40
0.5333333333333333
 40
0.5333333333333333
 40
0.5666666666666667
 40
0.5666666666666667
 40
0.5666666666666667
 40
0.6
 40
0.6
 40
0.6
 40
0.6333333333333333
 40
0.6333333333333333
 40
0.6333333333333333
 40
0.6666666666666666
 40
0.6666666666666666
 40
0.6666666666666666
 40
0.7
 40
0.7
 40
0.7
 40
0.7333333333333333
 40
0.7333333333333333
 40
0.7333333333333333
 40
0.7666666666666666
 40
0.7666666666666666
 40
0.7666666666666666
 40
0.8
 40
0.8
 40
0.8
 40
0.8333333333333334
 40
0.8333333333333334
 40
0.8333333333333334
 40
0.8666666666666667
 40
0.8666666666666667
 40
0.8666666666666667
 40
0.9
 40
0.9
 40
0.9
 40
0.9333333333333333
 40
0.9333333333333333
 40
0.9333333333333333
 40
0.9666666666666667
 40
0.9666666666666667
 40
0.9666666666666667
 40
1.0
 40
1.0
 40
1.0
 40
1.0
 10
204.8977
 20
-143.8776
 30
0.0
 10
204.8977
 20
-143.8776
 30
0.0
 10
195.0482
 20
-143.8776
 30
0.0
 10
195.0482
 20
-143.8776
 30
0.0
 10
195.0482
 20
-143.8776
 30
0.0
 10
189.8684
 20
-143.8776
 30
0.0
 10
189.8684
 20
-143.8776
 30
0.0
 10
188.8684
 20
-143.8776
 30
0.0
 10
188.2085
 20
-144.3776
 30
0.0
 10
187.8885
 20
-145.3775
 30
0.0
 10
187.8885
 20
-145.3775
 30
0.0
 10
187.4085
 20
-146.8774
 30
0.0
 10
187.4085
 20
-146.8774
 30
0.0
 10
187.0785
 20
-147.8774
 30
0.0
 10
187.4285
 20
-148.3873
 30
0.0
 10
188.4285
 20
-148.3873
 30
0.0
 10
188.4285
 20
-148.3873
 30
0.0
 10
195.0482
 20
-148.3873
 30
0.0
 10
195.0482
 20
-148.3873
 30
0.0
 10
195.0482
 20
-148.3873
 30
0.0
 10
205.4877
 20
-148.3873
 30
0.0
 10
205.4877
 20
-148.3873
 30
0.0
 10
210.0475
 20
-148.3873
 30
0.0
 10
211.2574
 20
-147.3373
 30
0.0
 10
212.6974
 20
-142.9776
 30
0.0
 10
212.6974
 20
-142.9776
 30
0.0
 10
213.8873
 20
-139.3678
 30
0.0
 10
213.8873
 20
-139.3678
 30
0.0
 10
214.4473
 20
-137.6879
 30
0.0
 10
214.4673
 20
-136.4379
 30
0.0
 10
214.0073
 20
-135.638
 30
0.0
 10
215.0872
 20
-134.5181
 30
0.0
 10
215.8672
 20
-133.2781
 30
0.0
 10
216.3272
 20
-131.9082
 30
0.0
 10
216.3272
 20
-131.9082
 30
0.0
 10
217.3172
 20
-128.8383
 30
0.0
 10
217.3172
 20
-128.8383
 30
0.0
 10
218.6171
 20
-124.8285
 30
0.0
 10
216.7672
 20
-122.8286
 30
0.0
 10
211.7575
 20
-122.8286
 30
0.0
 10
211.7575
 20
-122.8286
 30
0.0
 10
196.7282
 20
-122.8286
 30
0.0
 10
196.7282
 20
-122.8286
 30
0.0
 10
195.7182
 20
-122.8286
 30
0.0
 10
195.0483
 20
-123.3286
 30
0.0
 10
194.7083
 20
-124.3285
 30
0.0
 10
194.7083
 20
-124.3285
 30
0.0
 10
194.2283
 20
-125.8384
 30
0.0
 10
194.2283
 20
-125.8384
 30
0.0
 10
193.9083
 20
-126.8384
 30
0.0
 10
194.2483
 20
-127.3383
 30
0.0
 10
195.2483
 20
-127.3383
 30
0.0
 10
195.2483
 20
-127.3383
 30
0.0
 10
210.2876
 20
-127.3383
 30
0.0
 10
210.2876
 20
-127.3383
 30
0.0
 10
211.2876
 20
-127.3383
 30
0.0
 10
211.6275
 20
-127.8383
 30
0.0
 10
211.3076
 20
-128.8382
 30
0.0
 10
211.3076
 20
-128.8382
 30
0.0
 10
210.3176
 20
-131.8481
 30
0.0
 10
210.3176
 20
-131.8481
 30
0.0
 10
209.9876
 20
-132.8481
 30
0.0
 10
209.3276
 20
-133.348
 30
0.0
 10
208.3277
 20
-133.348
 30
0.0
 10
208.3277
 20
-133.348
 30
0.0
 10
196.2983
 20
-133.348
 30
0.0
 10
196.2983
 20
-133.348
 30
0.0
 10
195.2983
 20
-133.348
 30
0.0
 10
194.6384
 20
-133.848
 30
0.0
 10
194.3184
 20
-134.8579
 30
0.0
 10
194.3184
 20
-134.8579
 30
0.0
 10
193.8084
 20
-136.3578
 30
0.0
 10
193.8084
 20
-136.3578
 30
0.0
 10
193.4884
 20
-137.3578
 30
0.0
 10
193.8284
 20
-137.8577
 30
0.0
 10
194.8284
 20
-137.8577
 30
0.0
 10
194.8284
 20
-137.8577
 30
0.0
 10
206.8578
 20
-137.8577
 30
0.0
 10
206.8578
 20
-137.8577
 30
0.0
 10
207.8578
 20
-137.8577
 30
0.0
 10
208.1977
 20
-138.3577
 30
0.0
 10
207.8778
 20
-139.3676
 30
0.0
 10
207.8778
 20
-139.3676
 30
0.0
 10
206.8878
 20
-142.3675
 30
0.0
 10
206.8878
 20
-142.3675
 30
0.0
 10
206.5678
 20
-143.3575
 30
0.0
 10
205.9078
 20
-143.8274
 30
0.0
 10
204.8979
 20
-143.8774
 30
0.0
 10
204.8979
 20
-143.8774
 30
0.0
 10
204.8977
 20
-143.8776
 30
0.0
 10
204.8977
 20
-143.8776
 30
0.0
  0
ENDSEC
  0
SECTION
  2
OBJECTS
  0
DICTIONARY
  5
C
330
0
100
AcDbDictionary
281
     1
  3
ACAD_DETAILVIEWSTYLE
350
85
  3
ACAD_GROUP
350
D
  3
ACAD_LAYOUT
350
1A
  3
ACAD_MATERIAL
350
43
  3
ACAD_MLEADERSTYLE
350
5B
  3
ACAD_MLINESTYLE
350
17
  3
ACAD_PLOTSETTINGS
350
19
  3
ACAD_PLOTSTYLENAME
350
E
  3
ACAD_SCALELIST
350
47
  3
ACAD_SECTIONVIEWSTYLE
350
86
  3
ACAD_TABLESTYLE
350
59
  3
ACAD_VISUALSTYLE
350
2A
  3
AcDbVariableDictionary
350
7E
  3
ACDB_RECOMPOSE_DATA
350
82
  0
SUN
  5
5D
330
29
100
AcDbSun
 90
        1
290
     0
 63
     7
421
 16777215
 40
1.0
291
     1
 91
  2455826
 92
 54000000
292
     0
 70
     2
 71
   256
280
     1
  0
DICTIONARY
  5
85
102
{ACAD_REACTORS
330
C
102
}
330
C
100
AcDbDictionary
281
     1
  0
DICTIONARY
  5
D
102
{ACAD_REACTORS
330
C
102
}
330
C
100
AcDbDictionary
281
     1
  0
DICTIONARY
  5
1A
102
{ACAD_REACTORS
330
C
102
}
330
C
100
AcDbDictionary
281
     1
  3
Layout1
350
1E
  3
Layout2
350
26
  3
Model
350
22
  0
DICTIONARY
  5
43
102
{ACAD_REACTORS
330
C
102
}
330
C
100
AcDbDictionary
281
     1
  3
ByBlock
350
45
  3
ByLayer
350
44
  3
Global
350
46
  0
DICTIONARY
  5
5B
102
{ACAD_REACTORS
330
C
102
}
330
C
100
AcDbDictionary
281
     1
  3
Standard
350
5C
  0
DICTIONARY
  5
17
102
{ACAD_REACTORS
330
C
102
}
330
C
100
AcDbDictionary
281
     1
  3
Standard
350
18
  0
DICTIONARY
  5
19
102
{ACAD_REACTORS
330
C
102
}
330
C
100
AcDbDictionary
281
     1
  0
ACDBDICTIONARYWDFLT
  5
E
102
{ACAD_REACTORS
330
C
102
}
330
C
100
AcDbDictionary
281
     1
  3
Normal
350
F
100
AcDbDictionaryWithDefault
340
F
  0
DICTIONARY
  5
47
102
{ACAD_REACTORS
330
C
102
}
330
C
100
AcDbDictionary
281
     1
  3
A0
350
48
  3
A1
350
49
  3
A2
350
4A
  3
A3
350
4B
  3
A4
350
4C
  3
A5
350
4D
  3
A6
350
4E
  3
A7
350
4F
  3
A8
350
50
  3
A9
350
51
  3
B1
350
52
  3
B2
350
53
  3
B3
350
54
  3
B4
350
55
  3
B5
350
56
  3
B6
350
57
  3
B7
350
58
  0
DICTIONARY
  5
86
102
{ACAD_REACTORS
330
C
102
}
330
C
100
AcDbDictionary
281
     1
  0
DICTIONARY
  5
59
102
{ACAD_REACTORS
330
C
102
}
330
C
100
AcDbDictionary
281
     1
  3
Standard
350
5A
  0
DICTIONARY
  5
2A
102
{ACAD_REACTORS
330
C
102
}
330
C
100
AcDbDictionary
281
     1
  3
2dWireframe
350
2F
  3
Basic
350
32
  3
Brighten
350
36
  3
ColorChange
350
3A
  3
Conceptual
350
34
  3
Dim
350
35
  3
EdgeColorOff
350
3D
  3
Facepattern
350
39
  3
Flat
350
2B
  3
FlatWithEdges
350
2C
  3
Gouraud
350
2D
  3
GouraudWithEdges
350
2E
  3
Hidden
350
31
  3
JitterOff
350
3B
  3
Linepattern
350
38
  3
OverhangOff
350
3C
  3
Realistic
350
33
  3
Shaded
350
42
  3
Shaded with edges
350
41
  3
Shades of Gray
350
3E
  3
Sketchy
350
3F
  3
Thicken
350
37
  3
Wireframe
350
30
  3
X-Ray
350
40
  0
DICTIONARY
  5
7E
102
{ACAD_REACTORS
330
C
102
}
330
C
100
AcDbDictionary
281
     1
  3
CANNOSCALE
350
7F
  3
CMLEADERSTYLE
350
84
  3
CTABLESTYLE
350
83
  0
XRECORD
  5
82
102
{ACAD_REACTORS
330
C
102
}
330
C
100
AcDbXrecord
280
     1
 90
        1
330
5A
  0
LAYOUT
  5
1E
102
{ACAD_REACTORS
330
1A
102
}
330
1A
100
AcDbPlotSettings
  1

  2
none_device
  4

  6

 40
0.0
 41
0.0
 42
0.0
 43
0.0
 44
0.0
 45
0.0
 46
0.0
 47
0.0
 48
0.0
 49
0.0
140
0.0
141
0.0
142
1.0
143
1.0
 70
   688
 72
     0
 73
     0
 74
     5
  7

 75
    16
 76
     0
 77
     2
 78
   300
147
1.0
148
0.0
149
0.0
100
AcDbLayout
  1
Layout1
 70
     1
 71
     1
 10
0.0
 20
0.0
 11
12.0
 21
9.0
 12
0.0
 22
0.0
 32
0.0
 14
1.000000000000000E+20
 24
1.000000000000000E+20
 34
1.000000000000000E+20
 15
-1.000000000000000E+20
 25
-1.000000000000000E+20
 35
-1.000000000000000E+20
146
0.0
 13
0.0
 23
0.0
 33
0.0
 16
1.0
 26
0.0
 36
0.0
 17
0.0
 27
1.0
 37
0.0
 76
     0
330
1B
  0
LAYOUT
  5
26
102
{ACAD_REACTORS
330
1A
102
}
330
1A
100
AcDbPlotSettings
  1

  2
none_device
  4

  6

 40
0.0
 41
0.0
 42
0.0
 43
0.0
 44
0.0
 45
0.0
 46
0.0
 47
0.0
 48
0.0
 49
0.0
140
0.0
141
0.0
142
1.0
143
1.0
 70
   688
 72
     0
 73
     0
 74
     5
  7

 75
    16
 76
     0
 77
     2
 78
   300
147
1.0
148
0.0
149
0.0
100
AcDbLayout
  1
Layout2
 70
     1
 71
     2
 10
0.0
 20
0.0
 11
0.0
 21
0.0
 12
0.0
 22
0.0
 32
0.0
 14
0.0
 24
0.0
 34
0.0
 15
0.0
 25
0.0
 35
0.0
146
0.0
 13
0.0
 23
0.0
 33
0.0
 16
1.0
 26
0.0
 36
0.0
 17
0.0
 27
1.0
 37
0.0
 76
     0
330
23
  0
LAYOUT
  5
22
102
{ACAD_REACTORS
330
1A
102
}
330
1A
100
AcDbPlotSettings
  1

  2
none_device
  4
Letter_(8.50_x_11.00_Inches)
  6

 40
6.35
 41
6.35
 42
6.35000508
 43
6.35000508
 44
215.9
 45
279.4
 46
0.0
 47
0.0
 48
0.0
 49
0.0
140
0.0
141
0.0
142
1.0
143
1.0
 70
  1712
 72
     0
 73
     0
 74
     0
  7

 75
     0
 76
     0
 77
     2
 78
   300
147
1.0
148
0.0
149
0.0
100
AcDbLayout
  1
Model
 70
     1
 71
     0
 10
0.0
 20
0.0
 11
12.0
 21
9.0
 12
0.0
 22
0.0
 32
0.0
 14
-471.1207
 24
-160.0949
 34
0.0
 15
470.9555
 25
-80.0225
 35
0.0
146
0.0
 13
0.0
 23
0.0
 33
0.0
 16
1.0
 26
0.0
 36
0.0
 17
0.0
 27
1.0
 37
0.0
 76
     0
330
1F
331
29
  0
MATERIAL
  5
45
102
{ACAD_REACTORS
330
43
102
}
330
43
100
AcDbMaterial
  1
ByBlock
 72
     1
 94
      127
  0
MATERIAL
  5
44
102
{ACAD_REACTORS
330
43
102
}
330
43
100
AcDbMaterial
  1
ByLayer
 72
     1
 94
      127
  0
MATERIAL
  5
46
102
{ACAD_REACTORS
330
43
102
}
330
43
100
AcDbMaterial
  1
Global
 72
     1
 94
      127
  0
MLEADERSTYLE
  5
5C
102
{ACAD_REACTORS
330
5B
102
}
330
5B
100
AcDbMLeaderStyle
179
     2
170
     2
171
     1
172
     0
 90
        2
 40
0.0
 41
0.0
173
     1
 91
-1056964608
340
14
 92
       -2
290
     1
 42
0.09
291
     1
 43
0.36
  3
Standard
341
0
 44
0.18
300

342
11
174
     1
178
     6
175
     1
176
     0
 93
-1056964608
 45
0.18
292
     0
297
     0
 46
0.18
343
0
 94
-1056964608
 47
1.0
 49
1.0
140
1.0
293
     1
141
0.0
294
     1
177
     0
142
1.0
295
     0
296
     0
143
0.125
271
     0
272
     9
273
     9
298
     0
  0
MLINESTYLE
  5
18
102
{ACAD_REACTORS
330
17
102
}
330
17
100
AcDbMlineStyle
  2
Standard
 70
     0
  3

 62
   256
 51
90.0
 52
90.0
 71
     2
 49
0.5
 62
   256
  6
BYLAYER
 49
-0.5
 62
   256
  6
BYLAYER
  0
ACDBPLACEHOLDER
  5
F
102
{ACAD_REACTORS
330
E
102
}
330
E
  0
SCALE
  5
48
102
{ACAD_REACTORS
330
47
102
}
330
47
100
AcDbScale
 70
     0
300
1:1
140
1.0
141
1.0
290
     1
  0
SCALE
  5
49
102
{ACAD_REACTORS
330
47
102
}
330
47
100
AcDbScale
 70
     0
300
1/128" = 1'-0"
140
0.0078125
141
12.0
290
     0
  0
SCALE
  5
4A
102
{ACAD_REACTORS
330
47
102
}
330
47
100
AcDbScale
 70
     0
300
1/64" = 1'-0"
140
0.015625
141
12.0
290
     0
  0
SCALE
  5
4B
102
{ACAD_REACTORS
330
47
102
}
330
47
100
AcDbScale
 70
     0
300
1/32" = 1'-0"
140
0.03125
141
12.0
290
     0
  0
SCALE
  5
4C
102
{ACAD_REACTORS
330
47
102
}
330
47
100
AcDbScale
 70
     0
300
1/16" = 1'-0"
140
0.0625
141
12.0
290
     0
  0
SCALE
  5
4D
102
{ACAD_REACTORS
330
47
102
}
330
47
100
AcDbScale
 70
     0
300
3/32" = 1'-0"
140
0.09375
141
12.0
290
     0
  0
SCALE
  5
4E
102
{ACAD_REACTORS
330
47
102
}
330
47
100
AcDbScale
 70
     0
300
1/8" = 1'-0"
140
0.125
141
12.0
290
     0
  0
SCALE
  5
4F
102
{ACAD_REACTORS
330
47
102
}
330
47
100
AcDbScale
 70
     0
300
3/16" = 1'-0"
140
0.1875
141
12.0
290
     0
  0
SCALE
  5
50
102
{ACAD_REACTORS
330
47
102
}
330
47
100
AcDbScale
 70
     0
300
1/4" = 1'-0"
140
0.25
141
12.0
290
     0
  0
SCALE
  5
51
102
{ACAD_REACTORS
330
47
102
}
330
47
100
AcDbScale
 70
     0
300
3/8" = 1'-0"
140
0.375
141
12.0
290
     0
  0
SCALE
  5
52
102
{ACAD_REACTORS
330
47
102
}
330
47
100
AcDbScale
 70
     0
300
1/2" = 1'-0"
140
0.5
141
12.0
290
     0
  0
SCALE
  5
53
102
{ACAD_REACTORS
330
47
102
}
330
47
100
AcDbScale
 70
     0
300
3/4" = 1'-0"
140
0.75
141
12.0
290
     0
  0
SCALE
  5
54
102
{ACAD_REACTORS
330
47
102
}
330
47
100
AcDbScale
 70
     0
300
1" = 1'-0"
140
1.0
141
12.0
290
     0
  0
SCALE
  5
55
102
{ACAD_REACTORS
330
47
102
}
330
47
100
AcDbScale
 70
     0
300
1-1/2" = 1'-0"
140
1.5
141
12.0
290
     0
  0
SCALE
  5
56
102
{ACAD_REACTORS
330
47
102
}
330
47
100
AcDbScale
 70
     0
300
3" = 1'-0"
140
3.0
141
12.0
290
     0
  0
SCALE
  5
57
102
{ACAD_REACTORS
330
47
102
}
330
47
100
AcDbScale
 70
     0
300
6" = 1'-0"
140
6.0
141
12.0
290
     0
  0
SCALE
  5
58
102
{ACAD_REACTORS
330
47
102
}
330
47
100
AcDbScale
 70
     0
300
1'-0" = 1'-0"
140
12.0
141
12.0
290
     0
  0
TABLESTYLE
  5
5A
102
{ACAD_REACTORS
330
59
102
}
102
{ACAD_XDICTIONARY
360
80
102
}
330
59
100
AcDbTableStyle
  3
Standard
 70
     0
 71
     0
 40
0.06
 41
0.06
280
     0
281
     0
  7
Standard
140
0.18
170
     2
 62
     0
 63
   257
283
     0
 90
        4
 91
        0
  1

274
    -2
284
     1
 64
     0
275
    -2
285
     1
 65
     0
276
    -2
286
     1
 66
     0
277
    -2
287
     1
 67
     0
278
    -2
288
     1
 68
     0
279
    -2
289
     1
 69
     0
  7
Standard
140
0.25
170
     5
 62
     0
 63
   257
283
     0
 90
        4
 91
        0
  1

274
    -2
284
     1
 64
     0
275
    -2
285
     1
 65
     0
276
    -2
286
     1
 66
     0
277
    -2
287
     1
 67
     0
278
    -2
288
     1
 68
     0
279
    -2
289
     1
 69
     0
  7
Standard
140
0.18
170
     5
 62
     0
 63
   257
283
     0
 90
        4
 91
        0
  1

274
    -2
284
     1
 64
     0
275
    -2
285
     1
 65
     0
276
    -2
286
     1
 66
     0
277
    -2
287
     1
 67
     0
278
    -2
288
     1
 68
     0
279
    -2
289
     1
 69
     0
  0
VISUALSTYLE
  5
2F
102
{ACAD_REACTORS
330
2A
102
}
330
2A
100
AcDbVisualStyle
  2
2dWireframe
 70
     4
177
     3
291
     0
 70
    58
 90
        0
176
     1
 90
        2
176
     1
 90
        0
176
     1
 90
        0
176
     1
 40
0.6
176
     1
 40
30.0
176
     1
 62
     7
420
 16777215
176
     1
 90
        1
176
     1
 90
        4
176
     1
 62
     7
176
     1
 62
   257
176
     1
 90
        1
176
     1
 90
        1
176
     1
 40
1.0
176
     1
 90
        0
176
     1
 62
   257
176
     1
 40
1.0
176
     1
 90
        1
176
     1
 90
        6
176
     1
 90
        2
176
     1
 62
     7
176
     1
 90
        5
176
     1
 90
        0
176
     1
 90
        0
176
     1
290
     0
176
     1
 90
        1
176
     1
 40
0.0
176
     1
 90
        0
176
     1
290
     1
176
     1
290
     1
176
     1
290
     0
176
     1
290
     0
176
     1
290
     0
176
     1
290
     0
176
     1
290
     0
176
     1
290
     0
176
     1
290
     0
176
     1
 90
       50
176
     1
 40
0.0
176
     1
 40
1.0
176
     1
 90
        0
176
     1
 62
    18
420
        0
176
     1
 90
       50
176
     1
 90
        3
176
     1
 62
     5
420
      255
176
     1
290
     0
176
     1
 90
       50
176
     1
 90
       50
176
     1
 90
       50
176
     1
290
     0
176
     1
 90
       50
176
     1
 62
   256
176
     0
 40
1.0
176
     0
 90
        2
176
     1
  1
strokes_ogs.tif
176
     1
290
     0
176
     1
 40
1.0
176
     1
 40
1.0
176
     1
  0
VISUALSTYLE
  5
32
102
{ACAD_REACTORS
330
2A
102
}
330
2A
100
AcDbVisualStyle
  2
Basic
 70
     7
177
     3
291
     1
 70
    58
 90
        1
176
     1
 90
        0
176
     1
 90
        1
176
     1
 90
        0
176
     1
 40
0.6
176
     1
 40
30.0
176
     1
 62
     7
420
 16777215
176
     1
 90
        0
176
     1
 90
        4
176
     1
 62
     7
176
     1
 62
   257
176
     1
 90
        1
176
     1
 90
        1
176
     1
 40
1.0
176
     1
 90
        8
176
     1
 62
     7
176
     1
 40
1.0
176
     1
 90
        1
176
     1
 90
        6
176
     1
 90
        2
176
     1
 62
     7
176
     1
 90
        5
176
     1
 90
        0
176
     1
 90
        0
176
     1
290
     0
176
     1
 90
        1
176
     1
 40
0.0
176
     1
 90
        0
176
     1
290
     0
176
     1
290
     1
176
     1
290
     1
176
     1
290
     0
176
     1
290
     0
176
     1
290
     0
176
     1
290
     0
176
     1
290
     0
176
     1
290
     0
176
     1
 90
       50
176
     1
 40
0.0
176
     1
 40
1.0
176
     1
 90
        0
176
     1
 62
    18
420
        0
176
     1
 90
       50
176
     1
 90
        3
176
     1
 62
     5
420
      255
176
     1
290
     0
176
     1
 90
       50
176
     1
 90
       50
176
     1
 90
       50
176
     1
290
     0
176
     1
 90
       50
176
     1
 62
   256
176
     0
 40
1.0
176
     0
 90
        2
176
     1
  1
strokes_ogs.tif
176
     1
290
     0
176
     1
 40
1.0
176
     1
 40
1.0
176
     1
  0
VISUALSTYLE
  5
36
102
{ACAD_REACTORS
330
2A
102
}
330
2A
100
AcDbVisualStyle
  2
Brighten
 70
    12
177
     3
291
     1
 70
    58
 90
        2
176
     1
 90
        2
176
     1
 90
        0
176
     1
 90
        0
176
     1
 40
0.6
176
     1
 40
30.0
176
     1
 62
     7
420
 16777215
176
     1
 90
        1
176
     1
 90
        4
176
     1
 62
     7
176
     1
 62
   257
176
     1
 90
        1
176
     1
 90
        1
176
     1
 40
1.0
176
     1
 90
        8
176
     1
 62
     7
176
     1
 40
1.0
176
     1
 90
        1
176
     1
 90
        6
176
     1
 90
        2
176
     1
 62
     7
176
     1
 90
        5
176
     1
 90
        0
176
     1
 90
        0
176
     1
290
     0
176
     1
 90
        1
176
     1
 40
50.0
176
     1
 90
        0
176
     1
290
     0
176
     1
290
     1
176
     1
290
     1
176
     1
290
     0
176
     1
290
     0
176
     1
290
     0
176
     1
290
     0
176
     1
290
     0
176
     1
290
     0
176
     1
 90
       50
176
     1
 40
0.0
176
     1
 40
1.0
176
     1
 90
        0
176
     1
 62
    18
420
        0
176
     1
 90
       50
176
     1
 90
        3
176
     1
 62
     5
420
      255
176
     1
290
     0
176
     1
 90
       50
176
     1
 90
       50
176
     1
 90
       50
176
     1
290
     0
176
     1
 90
       50
176
     1
 62
   256
176
     0
 40
1.0
176
     0
 90
        2
176
     1
  1
strokes_ogs.tif
176
     1
290
     0
176
     1
 40
1.0
176
     1
 40
1.0
176
     1
  0
VISUALSTYLE
  5
3A
102
{ACAD_REACTORS
330
2A
102
}
330
2A
100
AcDbVisualStyle
  2
ColorChange
 70
    16
177
     3
291
     1
 70
    58
 90
        2
176
     1
 90
        2
176
     1
 90
        3
176
     1
 90
        0
176
     1
 40
0.6
176
     1
 40
30.0
176
     1
 62
     8
420
  8421504
176
     1
 90
        1
176
     1
 90
        4
176
     1
 62
     7
176
     1
 62
   257
176
     1
 90
        1
176
     1
 90
        1
176
     1
 40
1.0
176
     1
 90
        8
176
     1
 62
     8
420
  8421504
176
     1
 40
1.0
176
     1
 90
        1
176
     1
 90
        6
176
     1
 90
        2
176
     1
 62
     7
176
     1
 90
        5
176
     1
 90
        0
176
     1
 90
        0
176
     1
290
     0
176
     1
 90
        1
176
     1
 40
0.0
176
     1
 90
        0
176
     1
290
     0
176
     1
290
     1
176
     1
290
     1
176
     1
290
     0
176
     1
290
     0
176
     1
290
     0
176
     1
290
     0
176
     1
290
     0
176
     1
290
     0
176
     1
 90
       50
176
     1
 40
0.0
176
     1
 40
1.0
176
     1
 90
        0
176
     1
 62
    18
420
        0
176
     1
 90
       50
176
     1
 90
        3
176
     1
 62
     5
420
      255
176
     1
290
     0
176
     1
 90
       50
176
     1
 90
       50
176
     1
 90
       50
176
     1
290
     0
176
     1
 90
       50
176
     1
 62
   256
176
     0
 40
1.0
176
     0
 90
        2
176
     1
  1
strokes_ogs.tif
176
     1
290
     0
176
     1
 40
1.0
176
     1
 40
1.0
176
     1
  0
VISUALSTYLE
  5
34
102
{ACAD_REACTORS
330
2A
102
}
330
2A
100
AcDbVisualStyle
  2
Conceptual
 70
     9
177
     3
291
     0
 70
    58
 90
        3
176
     1
 90
        2
176
     1
 90
        0
176
     1
 90
        0
176
     1
 40
0.6
176
     1
 40
30.0
176
     1
 62
     7
420
 16777215
176
     1
 90
        2
176
     1
 90
        2
176
     1
 62
     7
176
     1
 62
   257
176
     1
 90
        1
176
     1
 90
        1
176
     1
 40
179.0
176
     1
 90
        8
176
     1
 62
     7
176
     1
 40
1.0
176
     1
 90
        1
176
     1
 90
        6
176
     1
 90
        2
176
     1
 62
     7
176
     1
 90
        3
176
     1
 90
        0
176
     1
 90
        0
176
     1
290
     0
176
     1
 90
        1
176
     1
 40
0.0
176
     1
 90
        0
176
     1
290
     0
176
     1
290
     1
176
     1
290
     1
176
     1
290
     0
176
     1
290
     0
176
     1
290
     0
176
     1
290
     0
176
     1
290
     0
176
     1
290
     0
176
     1
 90
       50
176
     1
 40
0.0
176
     1
 40
1.0
176
     1
 90
        0
176
     1
 62
    18
420
        0
176
     1
 90
       50
176
     1
 90
        3
176
     1
 62
     5
420
      255
176
     1
290
     0
176
     1
 90
       50
176
     1
 90
       50
176
     1
 90
       50
176
     1
290
     0
176
     1
 90
       50
176
     1
 62
   256
176
     0
 40
1.0
176
     0
 90
        2
176
     1
  1
strokes_ogs.tif
176
     1
290
     0
176
     1
 40
1.0
176
     1
 40
1.0
176
     1
  0
VISUALSTYLE
  5
35
102
{ACAD_REACTORS
330
2A
102
}
330
2A
100
AcDbVisualStyle
  2
Dim
 70
    11
177
     3
291
     1
 70
    58
 90
        2
176
     1
 90
        2
176
     1
 90
        0
176
     1
 90
        0
176
     1
 40
0.6
176
     1
 40
30.0
176
     1
 62
     7
420
 16777215
176
     1
 90
        1
176
     1
 90
        4
176
     1
 62
     7
176
     1
 62
   257
176
     1
 90
        1
176
     1
 90
        1
176
     1
 40
1.0
176
     1
 90
        8
176
     1
 62
     7
176
     1
 40
1.0
176
     1
 90
        1
176
     1
 90
        6
176
     1
 90
        2
176
     1
 62
     7
176
     1
 90
        5
176
     1
 90
        0
176
     1
 90
        0
176
     1
290
     0
176
     1
 90
        1
176
     1
 40
-50.0
176
     1
 90
        0
176
     1
290
     0
176
     1
290
     1
176
     1
290
     1
176
     1
290
     0
176
     1
290
     0
176
     1
290
     0
176
     1
290
     0
176
     1
290
     0
176
     1
290
     0
176
     1
 90
       50
176
     1
 40
0.0
176
     1
 40
1.0
176
     1
 90
        0
176
     1
 62
    18
420
        0
176
     1
 90
       50
176
     1
 90
        3
176
     1
 62
     5
420
      255
176
     1
290
     0
176
     1
 90
       50
176
     1
 90
       50
176
     1
 90
       50
176
     1
290
     0
176
     1
 90
       50
176
     1
 62
   256
176
     0
 40
1.0
176
     0
 90
        2
176
     1
  1
strokes_ogs.tif
176
     1
290
     0
176
     1
 40
1.0
176
     1
 40
1.0
176
     1
  0
VISUALSTYLE
  5
3D
102
{ACAD_REACTORS
330
2A
102
}
330
2A
100
AcDbVisualStyle
  2
EdgeColorOff
 70
    22
177
     3
291
     1
 70
    58
 90
        2
176
     0
 90
        2
176
     0
 90
        0
176
     0
 90
        0
176
     0
 40
0.6
176
     0
 40
30.0
176
     0
 62
     7
420
 16777215
176
     0
 90
        1
176
     0
 90
        4
176
     0
 62
     7
176
     0
 62
   257
176
     0
 90
        1
176
     0
 90
        1
176
     0
 40
1.0
176
     0
 90
        8
176
     2
 62
     7
176
     0
 40
1.0
176
     0
 90
        1
176
     0
 90
        6
176
     0
 90
        2
176
     0
 62
     7
176
     0
 90
        5
176
     0
 90
        0
176
     0
 90
        0
176
     0
290
     0
176
     0
 90
        1
176
     0
 40
0.0
176
     0
 90
        0
176
     0
290
     0
176
     0
290
     1
176
     0
290
     1
176
     0
290
     0
176
     0
290
     0
176
     0
290
     0
176
     0
290
     0
176
     0
290
     0
176
     0
290
     0
176
     0
 90
       50
176
     0
 40
0.0
176
     0
 40
1.0
176
     0
 90
        0
176
     0
 62
    18
420
        0
176
     0
 90
       50
176
     0
 90
        3
176
     0
 62
     5
420
      255
176
     0
290
     0
176
     0
 90
       50
176
     0
 90
       50
176
     0
 90
       50
176
     0
290
     0
176
     0
 90
       50
176
     0
 62
   256
176
     0
 40
1.0
176
     0
 90
        2
176
     0
  1
strokes_ogs.tif
176
     0
290
     0
176
     0
 40
1.0
176
     0
 40
1.0
176
     0
  0
VISUALSTYLE
  5
39
102
{ACAD_REACTORS
330
2A
102
}
330
2A
100
AcDbVisualStyle
  2
Facepattern
 70
    15
177
     3
291
     1
 70
    58
 90
        2
176
     1
 90
        2
176
     1
 90
        0
176
     1
 90
        0
176
     1
 40
0.6
176
     1
 40
30.0
176
     1
 62
     7
420
 16777215
176
     1
 90
        1
176
     1
 90
        4
176
     1
 62
     7
176
     1
 62
   257
176
     1
 90
        1
176
     1
 90
        1
176
     1
 40
1.0
176
     1
 90
        8
176
     1
 62
     7
176
     1
 40
1.0
176
     1
 90
        1
176
     1
 90
        6
176
     1
 90
        2
176
     1
 62
     7
176
     1
 90
        5
176
     1
 90
        0
176
     1
 90
        0
176
     1
290
     0
176
     1
 90
        1
176
     1
 40
0.0
176
     1
 90
        0
176
     1
290
     0
176
     1
290
     1
176
     1
290
     1
176
     1
290
     0
176
     1
290
     0
176
     1
290
     0
176
     1
290
     0
176
     1
290
     0
176
     1
290
     0
176
     1
 90
       50
176
     1
 40
0.0
176
     1
 40
1.0
176
     1
 90
        0
176
     1
 62
    18
420
        0
176
     1
 90
       50
176
     1
 90
        3
176
     1
 62
     5
420
      255
176
     1
290
     0
176
     1
 90
       50
176
     1
 90
       50
176
     1
 90
       50
176
     1
290
     0
176
     1
 90
       50
176
     1
 62
   256
176
     0
 40
1.0
176
     0
 90
        2
176
     1
  1
strokes_ogs.tif
176
     1
290
     0
176
     1
 40
1.0
176
     1
 40
1.0
176
     1
  0
VISUALSTYLE
  5
2B
102
{ACAD_REACTORS
330
2A
102
}
330
2A
100
AcDbVisualStyle
  2
Flat
 70
     0
177
     3
291
     1
 70
    58
 90
        2
176
     1
 90
        1
176
     1
 90
        1
176
     1
 90
        2
176
     1
 40
0.6
176
     1
 40
30.0
176
     1
 62
     7
420
 16777215
176
     1
 90
        0
176
     1
 90
        0
176
     1
 62
     7
176
     1
 62
   257
176
     1
 90
        1
176
     1
 90
        1
176
     1
 40
1.0
176
     1
 90
        8
176
     1
 62
     7
176
     1
 40
1.0
176
     1
 90
        1
176
     1
 90
        6
176
     1
 90
        2
176
     1
 62
     7
176
     1
 90
        5
176
     1
 90
        0
176
     1
 90
        0
176
     1
290
     0
176
     1
 90
       13
176
     1
 40
0.0
176
     1
 90
        0
176
     1
290
     0
176
     1
290
     1
176
     1
290
     1
176
     1
290
     0
176
     1
290
     0
176
     1
290
     0
176
     1
290
     0
176
     1
290
     0
176
     1
290
     0
176
     1
 90
       50
176
     1
 40
0.0
176
     1
 40
1.0
176
     1
 90
        0
176
     1
 62
    18
420
        0
176
     1
 90
       50
176
     1
 90
        3
176
     1
 62
     5
420
      255
176
     1
290
     0
176
     1
 90
       50
176
     1
 90
       50
176
     1
 90
       50
176
     1
290
     0
176
     1
 90
       50
176
     1
 62
   256
176
     0
 40
1.0
176
     0
 90
        2
176
     1
  1
strokes_ogs.tif
176
     1
290
     0
176
     1
 40
1.0
176
     1
 40
1.0
176
     1
  0
VISUALSTYLE
  5
2C
102
{ACAD_REACTORS
330
2A
102
}
330
2A
100
AcDbVisualStyle
  2
FlatWithEdges
 70
     1
177
     3
291
     1
 70
    58
 90
        2
176
     1
 90
        1
176
     1
 90
        1
176
     1
 90
        2
176
     1
 40
0.6
176
     1
 40
30.0
176
     1
 62
     7
420
 16777215
176
     1
 90
        1
176
     1
 90
        0
176
     1
 62
     7
176
     1
 62
   257
176
     1
 90
        1
176
     1
 90
        1
176
     1
 40
1.0
176
     1
 90
        0
176
     1
 62
   257
176
     1
 40
1.0
176
     1
 90
        1
176
     1
 90
        6
176
     1
 90
        2
176
     1
 62
     7
176
     1
 90
        5
176
     1
 90
        0
176
     1
 90
        0
176
     1
290
     0
176
     1
 90
       13
176
     1
 40
0.0
176
     1
 90
        0
176
     1
290
     0
176
     1
290
     1
176
     1
290
     1
176
     1
290
     0
176
     1
290
     0
176
     1
290
     0
176
     1
290
     0
176
     1
290
     0
176
     1
290
     0
176
     1
 90
       50
176
     1
 40
0.0
176
     1
 40
1.0
176
     1
 90
        0
176
     1
 62
    18
420
        0
176
     1
 90
       50
176
     1
 90
        3
176
     1
 62
     5
420
      255
176
     1
290
     0
176
     1
 90
       50
176
     1
 90
       50
176
     1
 90
       50
176
     1
290
     0
176
     1
 90
       50
176
     1
 62
   256
176
     0
 40
1.0
176
     0
 90
        2
176
     1
  1
strokes_ogs.tif
176
     1
290
     0
176
     1
 40
1.0
176
     1
 40
1.0
176
     1
  0
VISUALSTYLE
  5
2D
102
{ACAD_REACTORS
330
2A
102
}
330
2A
100
AcDbVisualStyle
  2
Gouraud
 70
     2
177
     3
291
     1
 70
    58
 90
        2
176
     1
 90
        2
176
     1
 90
        1
176
     1
 90
        2
176
     1
 40
0.6
176
     1
 40
30.0
176
     1
 62
     7
420
 16777215
176
     1
 90
        0
176
     1
 90
        0
176
     1
 62
     7
176
     1
 62
   257
176
     1
 90
        1
176
     1
 90
        1
176
     1
 40
1.0
176
     1
 90
        0
176
     1
 62
     7
176
     1
 40
1.0
176
     1
 90
        1
176
     1
 90
        6
176
     1
 90
        2
176
     1
 62
     7
176
     1
 90
        5
176
     1
 90
        0
176
     1
 90
        0
176
     1
290
     0
176
     1
 90
       13
176
     1
 40
0.0
176
     1
 90
        0
176
     1
290
     0
176
     1
290
     1
176
     1
290
     1
176
     1
290
     0
176
     1
290
     0
176
     1
290
     0
176
     1
290
     0
176
     1
290
     0
176
     1
290
     0
176
     1
 90
       50
176
     1
 40
0.0
176
     1
 40
1.0
176
     1
 90
        0
176
     1
 62
    18
420
        0
176
     1
 90
       50
176
     1
 90
        3
176
     1
 62
     5
420
      255
176
     1
290
     0
176
     1
 90
       50
176
     1
 90
       50
176
     1
 90
       50
176
     1
290
     0
176
     1
 90
       50
176
     1
 62
   256
176
     0
 40
1.0
176
     0
 90
        2
176
     1
  1
strokes_ogs.tif
176
     1
290
     0
176
     1
 40
1.0
176
     1
 40
1.0
176
     1
  0
VISUALSTYLE
  5
2E
102
{ACAD_REACTORS
330
2A
102
}
330
2A
100
AcDbVisualStyle
  2
GouraudWithEdges
 70
     3
177
     3
291
     1
 70
    58
 90
        2
176
     1
 90
        2
176
     1
 90
        1
176
     1
 90
        2
176
     1
 40
0.6
176
     1
 40
30.0
176
     1
 62
     7
420
 16777215
176
     1
 90
        1
176
     1
 90
        0
176
     1
 62
     7
176
     1
 62
   257
176
     1
 90
        1
176
     1
 90
        1
176
     1
 40
1.0
176
     1
 90
        0
176
     1
 62
   257
176
     1
 40
1.0
176
     1
 90
        1
176
     1
 90
        6
176
     1
 90
        2
176
     1
 62
     7
176
     1
 90
        5
176
     1
 90
        0
176
     1
 90
        0
176
     1
290
     0
176
     1
 90
       13
176
     1
 40
0.0
176
     1
 90
        0
176
     1
290
     0
176
     1
290
     1
176
     1
290
     1
176
     1
290
     0
176
     1
290
     0
176
     1
290
     0
176
     1
290
     0
176
     1
290
     0
176
     1
290
     0
176
     1
 90
       50
176
     1
 40
0.0
176
     1
 40
1.0
176
     1
 90
        0
176
     1
 62
    18
420
        0
176
     1
 90
       50
176
     1
 90
        3
176
     1
 62
     5
420
      255
176
     1
290
     0
176
     1
 90
       50
176
     1
 90
       50
176
     1
 90
       50
176
     1
290
     0
176
     1
 90
       50
176
     1
 62
   256
176
     0
 40
1.0
176
     0
 90
        2
176
     1
  1
strokes_ogs.tif
176
     1
290
     0
176
     1
 40
1.0
176
     1
 40
1.0
176
     1
  0
VISUALSTYLE
  5
31
102
{ACAD_REACTORS
330
2A
102
}
330
2A
100
AcDbVisualStyle
  2
Hidden
 70
     6
177
     3
291
     0
 70
    58
 90
        1
176
     1
 90
        2
176
     1
 90
        2
176
     1
 90
        0
176
     1
 40
0.6
176
     1
 40
30.0
176
     1
 62
     7
420
 16777215
176
     1
 90
        2
176
     1
 90
        2
176
     1
 62
     7
176
     1
 62
   257
176
     1
 90
        2
176
     1
 90
        1
176
     1
 40
40.0
176
     1
 90
        0
176
     1
 62
   257
176
     1
 40
1.0
176
     1
 90
        1
176
     1
 90
        6
176
     1
 90
        2
176
     1
 62
     7
176
     1
 90
        3
176
     1
 90
        0
176
     1
 90
        0
176
     1
290
     0
176
     1
 90
        1
176
     1
 40
0.0
176
     1
 90
        0
176
     1
290
     0
176
     1
290
     1
176
     1
290
     1
176
     1
290
     0
176
     1
290
     0
176
     1
290
     0
176
     1
290
     0
176
     1
290
     0
176
     1
290
     0
176
     1
 90
       50
176
     1
 40
0.0
176
     1
 40
1.0
176
     1
 90
        0
176
     1
 62
    18
420
        0
176
     1
 90
       50
176
     1
 90
        3
176
     1
 62
     5
420
      255
176
     1
290
     0
176
     1
 90
       50
176
     1
 90
       50
176
     1
 90
       50
176
     1
290
     0
176
     1
 90
       50
176
     1
 62
   256
176
     0
 40
1.0
176
     0
 90
        2
176
     1
  1
strokes_ogs.tif
176
     1
290
     0
176
     1
 40
1.0
176
     1
 40
1.0
176
     1
  0
VISUALSTYLE
  5
3B
102
{ACAD_REACTORS
330
2A
102
}
330
2A
100
AcDbVisualStyle
  2
JitterOff
 70
    20
177
     3
291
     1
 70
    58
 90
        2
176
     0
 90
        2
176
     0
 90
        0
176
     0
 90
        0
176
     0
 40
0.6
176
     0
 40
30.0
176
     0
 62
     7
420
 16777215
176
     0
 90
        1
176
     0
 90
        4
176
     0
 62
     7
176
     0
 62
   257
176
     0
 90
        1
176
     0
 90
        1
176
     0
 40
1.0
176
     0
 90
       10
176
     2
 62
     7
176
     0
 40
1.0
176
     0
 90
        1
176
     0
 90
        6
176
     0
 90
        2
176
     0
 62
     7
176
     0
 90
        5
176
     0
 90
        0
176
     0
 90
        0
176
     0
290
     0
176
     0
 90
        1
176
     0
 40
0.0
176
     0
 90
        0
176
     0
290
     0
176
     0
290
     1
176
     0
290
     1
176
     0
290
     0
176
     0
290
     0
176
     0
290
     0
176
     0
290
     0
176
     0
290
     0
176
     0
290
     0
176
     0
 90
       50
176
     0
 40
0.0
176
     0
 40
1.0
176
     0
 90
        0
176
     0
 62
    18
420
        0
176
     0
 90
       50
176
     0
 90
        3
176
     0
 62
     5
420
      255
176
     0
290
     0
176
     0
 90
       50
176
     0
 90
       50
176
     0
 90
       50
176
     0
290
     0
176
     0
 90
       50
176
     0
 62
   256
176
     0
 40
1.0
176
     0
 90
        2
176
     0
  1
strokes_ogs.tif
176
     0
290
     0
176
     0
 40
1.0
176
     0
 40
1.0
176
     0
  0
VISUALSTYLE
  5
38
102
{ACAD_REACTORS
330
2A
102
}
330
2A
100
AcDbVisualStyle
  2
Linepattern
 70
    14
177
     3
291
     1
 70
    58
 90
        2
176
     1
 90
        2
176
     1
 90
        0
176
     1
 90
        0
176
     1
 40
0.6
176
     1
 40
30.0
176
     1
 62
     7
420
 16777215
176
     1
 90
        1
176
     1
 90
        4
176
     1
 62
     7
176
     1
 62
   257
176
     1
 90
        7
176
     1
 90
        7
176
     1
 40
1.0
176
     1
 90
        8
176
     1
 62
     7
176
     1
 40
1.0
176
     1
 90
        1
176
     1
 90
        6
176
     1
 90
        2
176
     1
 62
     7
176
     1
 90
        5
176
     1
 90
        0
176
     1
 90
        0
176
     1
290
     0
176
     1
 90
        1
176
     1
 40
0.0
176
     1
 90
        0
176
     1
290
     0
176
     1
290
     1
176
     1
290
     1
176
     1
290
     0
176
     1
290
     0
176
     1
290
     0
176
     1
290
     0
176
     1
290
     0
176
     1
290
     0
176
     1
 90
       50
176
     1
 40
0.0
176
     1
 40
1.0
176
     1
 90
        0
176
     1
 62
    18
420
        0
176
     1
 90
       50
176
     1
 90
        3
176
     1
 62
     5
420
      255
176
     1
290
     0
176
     1
 90
       50
176
     1
 90
       50
176
     1
 90
       50
176
     1
290
     0
176
     1
 90
       50
176
     1
 62
   256
176
     0
 40
1.0
176
     0
 90
        2
176
     1
  1
strokes_ogs.tif
176
     1
290
     0
176
     1
 40
1.0
176
     1
 40
1.0
176
     1
  0
VISUALSTYLE
  5
3C
102
{ACAD_REACTORS
330
2A
102
}
330
2A
100
AcDbVisualStyle
  2
OverhangOff
 70
    21
177
     3
291
     1
 70
    58
 90
        2
176
     0
 90
        2
176
     0
 90
        0
176
     0
 90
        0
176
     0
 40
0.6
176
     0
 40
30.0
176
     0
 62
     7
420
 16777215
176
     0
 90
        1
176
     0
 90
        4
176
     0
 62
     7
176
     0
 62
   257
176
     0
 90
        1
176
     0
 90
        1
176
     0
 40
1.0
176
     0
 90
        9
176
     2
 62
     7
176
     0
 40
1.0
176
     0
 90
        1
176
     0
 90
        6
176
     0
 90
        2
176
     0
 62
     7
176
     0
 90
        5
176
     0
 90
        0
176
     0
 90
        0
176
     0
290
     0
176
     0
 90
        1
176
     0
 40
0.0
176
     0
 90
        0
176
     0
290
     0
176
     0
290
     1
176
     0
290
     1
176
     0
290
     0
176
     0
290
     0
176
     0
290
     0
176
     0
290
     0
176
     0
290
     0
176
     0
290
     0
176
     0
 90
       50
176
     0
 40
0.0
176
     0
 40
1.0
176
     0
 90
        0
176
     0
 62
    18
420
        0
176
     0
 90
       50
176
     0
 90
        3
176
     0
 62
     5
420
      255
176
     0
290
     0
176
     0
 90
       50
176
     0
 90
       50
176
     0
 90
       50
176
     0
290
     0
176
     0
 90
       50
176
     0
 62
   256
176
     0
 40
1.0
176
     0
 90
        2
176
     0
  1
strokes_ogs.tif
176
     0
290
     0
176
     0
 40
1.0
176
     0
 40
1.0
176
     0
  0
VISUALSTYLE
  5
33
102
{ACAD_REACTORS
330
2A
102
}
330
2A
100
AcDbVisualStyle
  2
Realistic
 70
     8
177
     3
291
     0
 70
    58
 90
        2
176
     1
 90
        3
176
     1
 90
        0
176
     1
 90
        2
176
     1
 40
0.6
176
     1
 40
30.0
176
     1
 62
     7
420
 16777215
176
     1
 90
        0
176
     1
 90
        0
176
     1
 62
     7
176
     1
 62
   257
176
     1
 90
        1
176
     1
 90
        1
176
     1
 40
1.0
176
     1
 90
        8
176
     1
 62
   257
176
     1
 40
1.0
176
     1
 90
        1
176
     1
 90
        6
176
     1
 90
        2
176
     1
 62
     7
176
     1
 90
        3
176
     1
 90
        0
176
     1
 90
        0
176
     1
290
     0
176
     1
 90
       13
176
     1
 40
0.0
176
     1
 90
        0
176
     1
290
     0
176
     1
290
     1
176
     1
290
     1
176
     1
290
     0
176
     1
290
     0
176
     1
290
     0
176
     1
290
     0
176
     1
290
     0
176
     1
290
     0
176
     1
 90
       50
176
     1
 40
0.0
176
     1
 40
1.0
176
     1
 90
        0
176
     1
 62
    18
420
        0
176
     1
 90
       50
176
     1
 90
        3
176
     1
 62
     5
420
      255
176
     1
290
     0
176
     1
 90
       50
176
     1
 90
       50
176
     1
 90
       50
176
     1
290
     0
176
     1
 90
       50
176
     1
 62
   256
176
     0
 40
1.0
176
     0
 90
        2
176
     1
  1
strokes_ogs.tif
176
     1
290
     0
176
     1
 40
1.0
176
     1
 40
1.0
176
     1
  0
VISUALSTYLE
  5
42
102
{ACAD_REACTORS
330
2A
102
}
330
2A
100
AcDbVisualStyle
  2
Shaded
 70
    27
177
     3
291
     0
 70
    58
 90
        2
176
     1
 90
        2
176
     1
 90
        1
176
     1
 90
        2
176
     1
 40
0.6
176
     1
 40
30.0
176
     1
 62
     7
420
 16777215
176
     1
 90
        0
176
     1
 90
        4
176
     1
 62
     7
176
     1
 62
   257
176
     1
 90
        1
176
     1
 90
        1
176
     1
 40
1.0
176
     1
 90
        8
176
     1
 62
   257
176
     1
 40
1.0
176
     1
 90
        1
176
     1
 90
        6
176
     1
 90
        2
176
     1
 62
     8
420
  7895160
176
     1
 90
        3
176
     1
 90
        0
176
     1
 90
        0
176
     1
290
     0
176
     1
 90
        5
176
     1
 40
0.0
176
     1
 90
        0
176
     1
290
     0
176
     1
290
     1
176
     1
290
     1
176
     1
290
     0
176
     1
290
     0
176
     1
290
     0
176
     1
290
     0
176
     1
290
     0
176
     1
290
     0
176
     1
 90
       50
176
     1
 40
0.0
176
     1
 40
1.0
176
     1
 90
        0
176
     1
 62
    18
420
        0
176
     1
 90
       50
176
     1
 90
        3
176
     1
 62
     5
420
      255
176
     1
290
     0
176
     1
 90
       50
176
     1
 90
       50
176
     1
 90
       50
176
     1
290
     0
176
     1
 90
       50
176
     1
 62
   256
176
     0
 40
1.0
176
     0
 90
        2
176
     1
  1
strokes_ogs.tif
176
     1
290
     0
176
     1
 40
1.0
176
     1
 40
1.0
176
     1
  0
VISUALSTYLE
  5
41
102
{ACAD_REACTORS
330
2A
102
}
330
2A
100
AcDbVisualStyle
  2
Shaded with edges
 70
    26
177
     3
291
     0
 70
    58
 90
        2
176
     1
 90
        2
176
     1
 90
        1
176
     1
 90
        2
176
     1
 40
0.6
176
     1
 40
30.0
176
     1
 62
     7
420
 16777215
176
     1
 90
        1
176
     1
 90
       10
176
     1
 62
     7
176
     1
 62
   257
176
     1
 90
        2
176
     1
 90
        1
176
     1
 40
1.0
176
     1
 90
        8
176
     1
 62
   257
176
     1
 40
1.0
176
     1
 90
        1
176
     1
 90
        6
176
     1
 90
        2
176
     1
 62
     7
176
     1
 90
        3
176
     1
 90
        0
176
     1
 90
        0
176
     1
290
     0
176
     1
 90
        5
176
     1
 40
0.0
176
     1
 90
        0
176
     1
290
     0
176
     1
290
     1
176
     1
290
     1
176
     1
290
     0
176
     1
290
     0
176
     1
290
     0
176
     1
290
     0
176
     1
290
     0
176
     1
290
     0
176
     1
 90
       50
176
     1
 40
0.0
176
     1
 40
1.0
176
     1
 90
        0
176
     1
 62
    18
420
        0
176
     1
 90
       50
176
     1
 90
        3
176
     1
 62
     5
420
      255
176
     1
290
     0
176
     1
 90
       50
176
     1
 90
       50
176
     1
 90
       50
176
     1
290
     0
176
     1
 90
       50
176
     1
 62
   256
176
     0
 40
1.0
176
     0
 90
        2
176
     1
  1
strokes_ogs.tif
176
     1
290
     0
176
     1
 40
1.0
176
     1
 40
1.0
176
     1
  0
VISUALSTYLE
  5
3E
102
{ACAD_REACTORS
330
2A
102
}
330
2A
100
AcDbVisualStyle
  2
Shades of Gray
 70
    23
177
     3
291
     0
 70
    58
 90
        2
176
     1
 90
        2
176
     1
 90
        3
176
     1
 90
        0
176
     1
 40
0.6
176
     1
 40
30.0
176
     1
 62
     7
420
 16777215
176
     1
 90
        2
176
     1
 90
        2
176
     1
 62
     7
176
     1
 62
     7
176
     1
 90
        1
176
     1
 90
        1
176
     1
 40
40.0
176
     1
 90
        8
176
     1
 62
     7
176
     1
 40
1.0
176
     1
 90
        1
176
     1
 90
        6
176
     1
 90
        2
176
     1
 62
     7
176
     1
 90
        3
176
     1
 90
        0
176
     1
 90
        0
176
     1
290
     0
176
     1
 90
        1
176
     1
 40
0.0
176
     1
 90
        0
176
     1
290
     0
176
     1
290
     1
176
     1
290
     1
176
     1
290
     0
176
     1
290
     0
176
     1
290
     0
176
     1
290
     0
176
     1
290
     0
176
     1
290
     0
176
     1
 90
       50
176
     1
 40
0.0
176
     1
 40
1.0
176
     1
 90
        0
176
     1
 62
    18
420
        0
176
     1
 90
       50
176
     1
 90
        3
176
     1
 62
     5
420
      255
176
     1
290
     0
176
     1
 90
       50
176
     1
 90
       50
176
     1
 90
       50
176
     1
290
     0
176
     1
 90
       50
176
     1
 62
   256
176
     0
 40
1.0
176
     0
 90
        2
176
     1
  1
strokes_ogs.tif
176
     1
290
     0
176
     1
 40
1.0
176
     1
 40
1.0
176
     1
  0
VISUALSTYLE
  5
3F
102
{ACAD_REACTORS
330
2A
102
}
330
2A
100
AcDbVisualStyle
  2
Sketchy
 70
    24
177
     3
291
     0
 70
    58
 90
        1
176
     1
 90
        2
176
     1
 90
        2
176
     1
 90
        0
176
     1
 40
0.6
176
     1
 40
30.0
176
     1
 62
     7
420
 16777215
176
     1
 90
        2
176
     1
 90
        2
176
     1
 62
     7
176
     1
 62
     7
176
     1
 90
        1
176
     1
 90
        1
176
     1
 40
40.0
176
     1
 90
       11
176
     1
 62
     7
176
     1
 40
1.0
176
     1
 90
        1
176
     1
 90
        6
176
     1
 90
        2
176
     1
 62
     7
176
     1
 90
        6
176
     1
 90
        0
176
     1
 90
        0
176
     1
290
     0
176
     1
 90
        1
176
     1
 40
0.0
176
     1
 90
        0
176
     1
290
     0
176
     1
290
     1
176
     1
290
     1
176
     1
290
     0
176
     1
290
     0
176
     1
290
     0
176
     1
290
     0
176
     1
290
     0
176
     1
290
     0
176
     1
 90
       50
176
     1
 40
0.0
176
     1
 40
1.0
176
     1
 90
        0
176
     1
 62
    18
420
        0
176
     1
 90
       50
176
     1
 90
        3
176
     1
 62
     5
420
      255
176
     1
290
     0
176
     1
 90
       50
176
     1
 90
       50
176
     1
 90
       50
176
     1
290
     0
176
     1
 90
       50
176
     1
 62
   256
176
     0
 40
1.0
176
     0
 90
        2
176
     1
  1
strokes_ogs.tif
176
     1
290
     0
176
     1
 40
1.0
176
     1
 40
1.0
176
     1
  0
VISUALSTYLE
  5
37
102
{ACAD_REACTORS
330
2A
102
}
330
2A
100
AcDbVisualStyle
  2
Thicken
 70
    13
177
     3
291
     1
 70
    58
 90
        2
176
     1
 90
        2
176
     1
 90
        0
176
     1
 90
        0
176
     1
 40
0.6
176
     1
 40
30.0
176
     1
 62
     7
420
 16777215
176
     1
 90
        1
176
     1
 90
        4
176
     1
 62
     7
176
     1
 62
   257
176
     1
 90
        1
176
     1
 90
        1
176
     1
 40
1.0
176
     1
 90
       12
176
     1
 62
     7
176
     1
 40
1.0
176
     1
 90
        1
176
     1
 90
        6
176
     1
 90
        2
176
     1
 62
     7
176
     1
 90
        5
176
     1
 90
        0
176
     1
 90
        0
176
     1
290
     0
176
     1
 90
        1
176
     1
 40
0.0
176
     1
 90
        0
176
     1
290
     0
176
     1
290
     1
176
     1
290
     1
176
     1
290
     0
176
     1
290
     0
176
     1
290
     0
176
     1
290
     0
176
     1
290
     0
176
     1
290
     0
176
     1
 90
       50
176
     1
 40
0.0
176
     1
 40
1.0
176
     1
 90
        0
176
     1
 62
    18
420
        0
176
     1
 90
       50
176
     1
 90
        3
176
     1
 62
     5
420
      255
176
     1
290
     0
176
     1
 90
       50
176
     1
 90
       50
176
     1
 90
       50
176
     1
290
     0
176
     1
 90
       50
176
     1
 62
   256
176
     0
 40
1.0
176
     0
 90
        2
176
     1
  1
strokes_ogs.tif
176
     1
290
     0
176
     1
 40
1.0
176
     1
 40
1.0
176
     1
  0
VISUALSTYLE
  5
30
102
{ACAD_REACTORS
330
2A
102
}
330
2A
100
AcDbVisualStyle
  2
Wireframe
 70
     5
177
     3
291
     0
 70
    58
 90
        0
176
     1
 90
        2
176
     1
 90
        0
176
     1
 90
        0
176
     1
 40
0.6
176
     1
 40
30.0
176
     1
 62
     7
420
 16777215
176
     1
 90
        1
176
     1
 90
        4
176
     1
 62
     7
176
     1
 62
   257
176
     1
 90
        1
176
     1
 90
        1
176
     1
 40
1.0
176
     1
 90
        0
176
     1
 62
   257
176
     1
 40
1.0
176
     1
 90
        1
176
     1
 90
        6
176
     1
 90
        2
176
     1
 62
     7
176
     1
 90
        3
176
     1
 90
        0
176
     1
 90
        0
176
     1
290
     0
176
     1
 90
        1
176
     1
 40
0.0
176
     1
 90
        0
176
     1
290
     0
176
     1
290
     1
176
     1
290
     1
176
     1
290
     0
176
     1
290
     0
176
     1
290
     0
176
     1
290
     0
176
     1
290
     0
176
     1
290
     0
176
     1
 90
       50
176
     1
 40
0.0
176
     1
 40
1.0
176
     1
 90
        0
176
     1
 62
    18
420
        0
176
     1
 90
       50
176
     1
 90
        3
176
     1
 62
     5
420
      255
176
     1
290
     0
176
     1
 90
       50
176
     1
 90
       50
176
     1
 90
       50
176
     1
290
     0
176
     1
 90
       50
176
     1
 62
   256
176
     0
 40
1.0
176
     0
 90
        2
176
     1
  1
strokes_ogs.tif
176
     1
290
     0
176
     1
 40
1.0
176
     1
 40
1.0
176
     1
  0
VISUALSTYLE
  5
40
102
{ACAD_REACTORS
330
2A
102
}
330
2A
100
AcDbVisualStyle
  2
X-Ray
 70
    25
177
     3
291
     0
 70
    58
 90
        2
176
     1
 90
        2
176
     1
 90
        1
176
     1
 90
        1
176
     1
 40
0.5
176
     1
 40
30.0
176
     1
 62
     7
420
 16777215
176
     1
 90
        1
176
     1
 90
        0
176
     1
 62
     7
176
     1
 62
   257
176
     1
 90
        1
176
     1
 90
        1
176
     1
 40
1.0
176
     1
 90
        8
176
     1
 62
     7
176
     1
 40
1.0
176
     1
 90
        1
176
     1
 90
        6
176
     1
 90
        2
176
     1
 62
     7
176
     1
 90
        3
176
     1
 90
        0
176
     1
 90
        0
176
     1
290
     0
176
     1
 90
       13
176
     1
 40
0.0
176
     1
 90
        0
176
     1
290
     0
176
     1
290
     1
176
     1
290
     1
176
     1
290
     0
176
     1
290
     0
176
     1
290
     0
176
     1
290
     0
176
     1
290
     0
176
     1
290
     0
176
     1
 90
       50
176
     1
 40
0.0
176
     1
 40
1.0
176
     1
 90
        0
176
     1
 62
    18
420
        0
176
     1
 90
       50
176
     1
 90
        3
176
     1
 62
     5
420
      255
176
     1
290
     0
176
     1
 90
       50
176
     1
 90
       50
176
     1
 90
       50
176
     1
290
     0
176
     1
 90
       50
176
     1
 62
   256
176
     0
 40
1.0
176
     0
 90
        2
176
     1
  1
strokes_ogs.tif
176
     1
290
     0
176
     1
 40
1.0
176
     1
 40
1.0
176
     1
  0
DICTIONARYVAR
  5
7F
102
{ACAD_REACTORS
330
7E
102
}
330
7E
100
DictionaryVariables
280
     0
  1
1:1
  0
DICTIONARYVAR
  5
84
102
{ACAD_REACTORS
330
7E
102
}
330
7E
100
DictionaryVariables
280
     0
  1
Standard
  0
DICTIONARYVAR
  5
83
102
{ACAD_REACTORS
330
7E
102
}
330
7E
100
DictionaryVariables
280
     0
  1
Standard
  0
DICTIONARY
  5
80
330
5A
100
AcDbDictionary
280
     1
281
     1
  3
ACAD_ROUNDTRIP_2008_TABLESTYLE_CELLSTYLEMAP
360
81
  0
CELLSTYLEMAP
  5
81
102
{ACAD_REACTORS
330
80
102
}
330
80
100
AcDbCellStyleMap
 90
        3
300
CELLSTYLE
  1
TABLEFORMAT_BEGIN
 90
        5
170
     1
 91
        0
 92
    32768
 62
   257
 93
        1
300
CONTENTFORMAT
  1
CONTENTFORMAT_BEGIN
 90
        0
 91
        0
 92
        4
 93
        0
300

 40
0.0
140
1.0
 94
        5
 62
     0
340
11
144
0.25
309
CONTENTFORMAT_END
171
     1
301
MARGIN
  1
CELLMARGIN_BEGIN
 40
0.06
 40
0.06
 40
0.06
 40
0.06
 40
0.06
 40
0.06
309
CELLMARGIN_END
 94
        6
 95
        1
302
GRIDFORMAT
  1
GRIDFORMAT_BEGIN
 90
        0
 91
        1
 62
     0
 92
       -2
340
14
 93
        0
 40
0.045
309
GRIDFORMAT_END
 95
        2
302
GRIDFORMAT
  1
GRIDFORMAT_BEGIN
 90
        0
 91
        1
 62
     0
 92
       -2
340
14
 93
        0
 40
0.045
309
GRIDFORMAT_END
 95
        4
302
GRIDFORMAT
  1
GRIDFORMAT_BEGIN
 90
        0
 91
        1
 62
     0
 92
       -2
340
14
 93
        0
 40
0.045
309
GRIDFORMAT_END
 95
        8
302
GRIDFORMAT
  1
GRIDFORMAT_BEGIN
 90
        0
 91
        1
 62
     0
 92
       -2
340
14
 93
        0
 40
0.045
309
GRIDFORMAT_END
 95
       16
302
GRIDFORMAT
  1
GRIDFORMAT_BEGIN
 90
        0
 91
        1
 62
     0
 92
       -2
340
14
 93
        0
 40
0.045
309
GRIDFORMAT_END
 95
       32
302
GRIDFORMAT
  1
GRIDFORMAT_BEGIN
 90
        0
 91
        1
 62
     0
 92
       -2
340
14
 93
        0
 40
0.045
309
GRIDFORMAT_END
309
TABLEFORMAT_END
  1
CELLSTYLE_BEGIN
 90
        1
 91
        1
300
_TITLE
309
CELLSTYLE_END
300
CELLSTYLE
  1
TABLEFORMAT_BEGIN
 90
        5
170
     1
 91
        0
 92
        0
 62
   257
 93
        1
300
CONTENTFORMAT
  1
CONTENTFORMAT_BEGIN
 90
        0
 91
        0
 92
        4
 93
        0
300

 40
0.0
140
1.0
 94
        5
 62
     0
340
11
144
0.18
309
CONTENTFORMAT_END
171
     1
301
MARGIN
  1
CELLMARGIN_BEGIN
 40
0.06
 40
0.06
 40
0.06
 40
0.06
 40
0.06
 40
0.06
309
CELLMARGIN_END
 94
        6
 95
        1
302
GRIDFORMAT
  1
GRIDFORMAT_BEGIN
 90
        0
 91
        1
 62
     0
 92
       -2
340
14
 93
        0
 40
0.045
309
GRIDFORMAT_END
 95
        2
302
GRIDFORMAT
  1
GRIDFORMAT_BEGIN
 90
        0
 91
        1
 62
     0
 92
       -2
340
14
 93
        0
 40
0.045
309
GRIDFORMAT_END
 95
        4
302
GRIDFORMAT
  1
GRIDFORMAT_BEGIN
 90
        0
 91
        1
 62
     0
 92
       -2
340
14
 93
        0
 40
0.045
309
GRIDFORMAT_END
 95
        8
302
GRIDFORMAT
  1
GRIDFORMAT_BEGIN
 90
        0
 91
        1
 62
     0
 92
       -2
340
14
 93
        0
 40
0.045
309
GRIDFORMAT_END
 95
       16
302
GRIDFORMAT
  1
GRIDFORMAT_BEGIN
 90
        0
 91
        1
 62
     0
 92
       -2
340
14
 93
        0
 40
0.045
309
GRIDFORMAT_END
 95
       32
302
GRIDFORMAT
  1
GRIDFORMAT_BEGIN
 90
        0
 91
        1
 62
     0
 92
       -2
340
14
 93
        0
 40
0.045
309
GRIDFORMAT_END
309
TABLEFORMAT_END
  1
CELLSTYLE_BEGIN
 90
        2
 91
        1
300
_HEADER
309
CELLSTYLE_END
300
CELLSTYLE
  1
TABLEFORMAT_BEGIN
 90
        5
170
     1
 91
        0
 92
        0
 62
   257
 93
        1
300
CONTENTFORMAT
  1
CONTENTFORMAT_BEGIN
 90
        0
 91
        0
 92
        4
 93
        0
300

 40
0.0
140
1.0
 94
        2
 62
     0
340
11
144
0.18
309
CONTENTFORMAT_END
171
     1
301
MARGIN
  1
CELLMARGIN_BEGIN
 40
0.06
 40
0.06
 40
0.06
 40
0.06
 40
0.06
 40
0.06
309
CELLMARGIN_END
 94
        6
 95
        1
302
GRIDFORMAT
  1
GRIDFORMAT_BEGIN
 90
        0
 91
        1
 62
     0
 92
       -2
340
14
 93
        0
 40
0.045
309
GRIDFORMAT_END
 95
        2
302
GRIDFORMAT
  1
GRIDFORMAT_BEGIN
 90
        0
 91
        1
 62
     0
 92
       -2
340
14
 93
        0
 40
0.045
309
GRIDFORMAT_END
 95
        4
302
GRIDFORMAT
  1
GRIDFORMAT_BEGIN
 90
        0
 91
        1
 62
     0
 92
       -2
340
14
 93
        0
 40
0.045
309
GRIDFORMAT_END
 95
        8
302
GRIDFORMAT
  1
GRIDFORMAT_BEGIN
 90
        0
 91
        1
 62
     0
 92
       -2
340
14
 93
        0
 40
0.045
309
GRIDFORMAT_END
 95
       16
302
GRIDFORMAT
  1
GRIDFORMAT_BEGIN
 90
        0
 91
        1
 62
     0
 92
       -2
340
14
 93
        0
 40
0.045
309
GRIDFORMAT_END
 95
       32
302
GRIDFORMAT
  1
GRIDFORMAT_BEGIN
 90
        0
 91
        1
 62
     0
 92
       -2
340
14
 93
        0
 40
0.045
309
GRIDFORMAT_END
309
TABLEFORMAT_END
  1
CELLSTYLE_BEGIN
 90
        3
 91
        2
300
_DATA
309
CELLSTYLE_END
  0
ENDSEC
  0
EOF
