  0
SECTION
  2
HEADER
  9
$ACADVER
  1
AC1014
  9
$HANDSEED
  5
FFFF
  9
$INSUNITS
 70
     4
  9
$MEASUREMENT
 70
     1
  0
ENDSEC
  0
SECTION
  2
TABLES
  0
TABLE
  2
VPORT
  5
8
330
0
100
AcDbSymbolTable
 70
     4
  0
VPORT
  5
2E
330
8
100
AcDbSymbolTableRecord
100
AcDbViewportTableRecord
  2
*ACTIVE
 70
     0
 10
0.0
 20
0.0
 11
1.0
 21
1.0
 12
210.0
 22
148.5
 13
0.0
 23
0.0
 14
10.0
 24
10.0
 15
10.0
 25
10.0
 16
0.0
 26
0.0
 36
1.0
 17
0.0
 27
0.0
 37
0.0
 40
341.0
 41
1.24
 42
50.0
 43
0.0
 44
0.0
 50
0.0
 51
0.0
 71
     0
 72
   100
 73
     1
 74
     3
 75
     0
 76
     0
 77
     0
 78
     0
  0
ENDTAB
  0
TABLE
  2
LTYPE
  5
5
330
0
100
AcDbSymbolTable
 70
     1
  0
LTYPE
  5
14
330
5
100
AcDbSymbolTableRecord
100
AcDbLinetypeTableRecord
  2
BYBLOCK
 70
     0
  3

 72
    65
 73
     0
 40
0.0
  0
LTYPE
  5
15
330
5
100
AcDbSymbolTableRecord
100
AcDbLinetypeTableRecord
  2
BYLAYER
 70
     0
  3

 72
    65
 73
     0
 40
0.0
  0
LTYPE
  5
16
330
5
100
AcDbSymbolTableRecord
100
AcDbLinetypeTableRecord
  2
CONTINUOUS
 70
     0
  3
Solid line
 72
    65
 73
     0
 40
0.0
  0
ENDTAB
  0
TABLE
  2
LAYER
  5
2
100
AcDbSymbolTable
 70
2
  0
LAYER
  5
50
100
AcDbSymbolTableRecord
100
AcDbLayerTableRecord
  2
0
 70
0
  6
CONTINUOUS
  0
LAYER
  5
51
100
AcDbSymbolTableRecord
100
AcDbLayerTableRecord
  2
Layer_1
 70
0
  6
CONTINUOUS
  0
ENDTAB
  0
TABLE
  2
STYLE
  5
3
330
0
100
AcDbSymbolTable
 70
     1
  0
STYLE
  5
11
330
3
100
AcDbSymbolTableRecord
100
AcDbTextStyleTableRecord
  2
STANDARD
 70
     0
 40
0.0
 41
1.0
 50
0.0
 71
     0
 42
2.5
  3
txt
  4

  0
ENDTAB
  0
TABLE
  2
VIEW
  5
6
330
0
100
AcDbSymbolTable
 70
     0
  0
ENDTAB
  0
TABLE
  2
UCS
  5
7
330
0
100
AcDbSymbolTable
 70
     0
  0
ENDTAB
  0
TABLE
  2
APPID
  5
9
330
0
100
AcDbSymbolTable
 70
     2
  0
APPID
  5
12
330
9
100
AcDbSymbolTableRecord
100
AcDbRegAppTableRecord
  2
ACAD
 70
     0
  0
ENDTAB
  0
TABLE
  2
DIMSTYLE
  5
A
330
0
100
AcDbSymbolTable
 70
     1
  0
DIMSTYLE
105
27
330
A
100
AcDbSymbolTableRecord
100
AcDbDimStyleTableRecord
  2
ISO-25
 70
     0
  3

  4

  5

  6

  7

 40
1.0
 41
2.5
 42
0.625
 43
3.75
 44
1.25
 45
0.0
 46
0.0
 47
0.0
 48
0.0
140
2.5
141
2.5
142
0.0
143
0.03937007874016
144
1.0
145
0.0
146
1.0
147
0.625
 71
     0
 72
     0
 73
     0
 74
     0
 75
     0
 76
     0
 77
     1
 78
     8
170
     0
171
     3
172
     1
173
     0
174
     0
175
     0
176
     0
177
     0
178
     0
270
     2
271
     2
272
     2
273
     2
274
     3
340
11
275
     0
280
     0
281
     0
282
     0
283
     0
284
     8
285
     0
286
     0
287
     3
288
     0
  0
ENDTAB
  0
TABLE
  2
BLOCK_RECORD
  5
1
330
0
100
AcDbSymbolTable
 70
     1
  0
BLOCK_RECORD
  5
1F
330
1
100
AcDbSymbolTableRecord
100
AcDbBlockTableRecord
  2
*MODEL_SPACE
  0
BLOCK_RECORD
  5
1B
330
1
100
AcDbSymbolTableRecord
100
AcDbBlockTableRecord
  2
*PAPER_SPACE
  0
ENDTAB
  0
ENDSEC
  0
SECTION
  2
BLOCKS
  0
BLOCK
  5
20
330
1F
100
AcDbEntity
  8
0
100
AcDbBlockBegin
  2
*MODEL_SPACE
 70
     0
 10
0.0
 20
0.0
 30
0.0
  3
*MODEL_SPACE
  1

  0
ENDBLK
  5
21
330
1F
100
AcDbEntity
  8
0
100
AcDbBlockEnd
  0
BLOCK
  5
1C
330
1B
100
AcDbEntity
 67
     1
  8
0
100
AcDbBlockBegin
  2
*PAPER_SPACE
  1

  0
ENDBLK
  5
1D
330
1B
100
AcDbEntity
 67
     1
  8
0
100
AcDbBlockEnd
  0
ENDSEC
  0
SECTION
  2
ENTITIES
  0
SPLINE
  5
100
100
AcDbEntity
  8
Layer_1
 62
7
100
AcDbSpline
 70
8
 71
3
 72
8
 73
4
 74
0
 40
0
 40
0
 40
0
 40
0
 40
1
 40
1
 40
1
 40
1
 10
296.539110
 20
6.744580
 30
0.0
 10
294.386560
 20
8.220990
 30
0.0
 10
293.723040
 20
8.301860
 30
0.0
 10
290.585990
 20
7.470190
 30
0.0
  0
SPLINE
  5
101
100
AcDbEntity
  8
Layer_1
 62
7
100
AcDbSpline
 70
8
 71
3
 72
8
 73
4
 74
0
 40
0
 40
0
 40
0
 40
0
 40
1
 40
1
 40
1
 40
1
 10
290.585990
 20
7.470190
 30
0.0
 10
285.801990
 20
6.201910
 30
0.0
 10
283.131020
 20
6.293390
 30
0.0
 10
280.922240
 20
7.801200
 30
0.0
  0
SPLINE
  5
102
100
AcDbEntity
  8
Layer_1
 62
7
100
AcDbSpline
 70
8
 71
3
 72
8
 73
4
 74
0
 40
0
 40
0
 40
0
 40
0
 40
1
 40
1
 40
1
 40
1
 10
280.922240
 20
7.801200
 30
0.0
 10
278.783090
 20
9.261460
 30
0.0
 10
278.097350
 20
11.916020
 30
0.0
 10
278.659790
 20
16.559180
 30
0.0
  0
SPLINE
  5
103
100
AcDbEntity
  8
Layer_1
 62
7
100
AcDbSpline
 70
8
 71
3
 72
8
 73
4
 74
0
 40
0
 40
0
 40
0
 40
0
 40
1
 40
1
 40
1
 40
1
 10
278.659790
 20
16.559180
 30
0.0
 10
279.019590
 20
19.529530
 30
0.0
 10
278.875530
 20
20.003720
 30
0.0
 10
277.086980
 20
21.735640
 30
0.0
  0
SPLINE
  5
104
100
AcDbEntity
  8
Layer_1
 62
7
100
AcDbSpline
 70
8
 71
3
 72
8
 73
4
 74
0
 40
0
 40
0
 40
0
 40
0
 40
1
 40
1
 40
1
 40
1
 10
277.086980
 20
21.735640
 30
0.0
 10
275.170310
 20
23.591630
 30
0.0
 10
275.127920
 20
23.775040
 30
0.0
 10
275.489490
 20
28.649420
 30
0.0
  0
SPLINE
  5
105
100
AcDbEntity
  8
Layer_1
 62
7
100
AcDbSpline
 70
8
 71
3
 72
8
 73
4
 74
0
 40
0
 40
0
 40
0
 40
0
 40
1
 40
1
 40
1
 40
1
 10
275.489490
 20
28.649420
 30
0.0
 10
275.693780
 20
31.403400
 30
0.0
 10
276.045190
 20
35.430550
 30
0.0
 10
276.270390
 20
37.598650
 30
0.0
  0
SPLINE
  5
106
100
AcDbEntity
  8
Layer_1
 62
7
100
AcDbSpline
 70
8
 71
3
 72
8
 73
4
 74
0
 40
0
 40
0
 40
0
 40
0
 40
1
 40
1
 40
1
 40
1
 10
276.270390
 20
37.598650
 30
0.0
 10
276.665420
 20
41.401660
 30
0.0
 10
276.607720
 20
41.592920
 30
0.0
 10
274.633740
 20
43.023140
 30
0.0
  0
SPLINE
  5
107
100
AcDbEntity
  8
Layer_1
 62
7
100
AcDbSpline
 70
8
 71
3
 72
8
 73
4
 74
0
 40
0
 40
0
 40
0
 40
0
 40
1
 40
1
 40
1
 40
1
 10
274.633740
 20
43.023140
 30
0.0
 10
270.809230
 20
45.794140
 30
0.0
 10
270.258990
 20
46.804280
 30
0.0
 10
269.618370
 20
52.230500
 30
0.0
  0
SPLINE
  5
108
100
AcDbEntity
  8
Layer_1
 62
7
100
AcDbSpline
 70
8
 71
3
 72
8
 73
4
 74
0
 40
0
 40
0
 40
0
 40
0
 40
1
 40
1
 40
1
 40
1
 10
269.618370
 20
52.230500
 30
0.0
 10
269.153160
 20
56.170860
 30
0.0
 10
268.134740
 20
59.396880
 30
0.0
 10
265.467000
 20
65.380680
 30
0.0
  0
SPLINE
  5
109
100
AcDbEntity
  8
Layer_1
 62
7
100
AcDbSpline
 70
8
 71
3
 72
8
 73
4
 74
0
 40
0
 40
0
 40
0
 40
0
 40
1
 40
1
 40
1
 40
1
 10
265.467000
 20
65.380680
 30
0.0
 10
260.378120
 20
76.795140
 30
0.0
 10
258.853290
 20
78.850220
 30
0.0
 10
254.676920
 20
79.923020
 30
0.0
  0
SPLINE
  5
10a
100
AcDbEntity
  8
Layer_1
 62
7
100
AcDbSpline
 70
8
 71
3
 72
8
 73
4
 74
0
 40
0
 40
0
 40
0
 40
0
 40
1
 40
1
 40
1
 40
1
 10
254.676920
 20
79.923020
 30
0.0
 10
252.782140
 20
80.409740
 30
0.0
 10
249.678060
 20
81.207230
 30
0.0
 10
247.778960
 20
81.695240
 30
0.0
  0
SPLINE
  5
10b
100
AcDbEntity
  8
Layer_1
 62
7
100
AcDbSpline
 70
8
 71
3
 72
8
 73
4
 74
0
 40
0
 40
0
 40
0
 40
0
 40
1
 40
1
 40
1
 40
1
 10
247.778960
 20
81.695240
 30
0.0
 10
243.188760
 20
82.874750
 30
0.0
 10
240.484750
 20
86.102580
 30
0.0
 10
240.484750
 20
90.402500
 30
0.0
  0
SPLINE
  5
10c
100
AcDbEntity
  8
Layer_1
 62
7
100
AcDbSpline
 70
8
 71
3
 72
8
 73
4
 74
0
 40
0
 40
0
 40
0
 40
0
 40
1
 40
1
 40
1
 40
1
 10
240.484750
 20
90.402500
 30
0.0
 10
240.484750
 20
92.208970
 30
0.0
 10
239.928170
 20
94.517510
 30
0.0
 10
239.140580
 20
95.977600
 30
0.0
  0
SPLINE
  5
10d
100
AcDbEntity
  8
Layer_1
 62
7
100
AcDbSpline
 70
8
 71
3
 72
8
 73
4
 74
0
 40
0
 40
0
 40
0
 40
0
 40
1
 40
1
 40
1
 40
1
 10
239.140580
 20
95.977600
 30
0.0
 10
237.971940
 20
98.144110
 30
0.0
 10
237.836380
 20
99.292400
 30
0.0
 10
238.102650
 20
104.769440
 30
0.0
  0
SPLINE
  5
10e
100
AcDbEntity
  8
Layer_1
 62
7
100
AcDbSpline
 70
8
 71
3
 72
8
 73
4
 74
0
 40
0
 40
0
 40
0
 40
0
 40
1
 40
1
 40
1
 40
1
 10
238.102650
 20
104.769440
 30
0.0
 10
238.470150
 20
112.328820
 30
0.0
 10
237.727690
 20
114.782510
 30
0.0
 10
234.304190
 20
117.322500
 30
0.0
  0
SPLINE
  5
10f
100
AcDbEntity
  8
Layer_1
 62
7
100
AcDbSpline
 70
8
 71
3
 72
8
 73
4
 74
0
 40
0
 40
0
 40
0
 40
0
 40
1
 40
1
 40
1
 40
1
 10
234.304190
 20
117.322500
 30
0.0
 10
232.973080
 20
118.310090
 30
0.0
 10
231.410650
 20
119.808590
 30
0.0
 10
230.832090
 20
120.652510
 30
0.0
  0
SPLINE
  5
110
100
AcDbEntity
  8
Layer_1
 62
7
100
AcDbSpline
 70
8
 71
3
 72
8
 73
4
 74
0
 40
0
 40
0
 40
0
 40
0
 40
1
 40
1
 40
1
 40
1
 10
230.832090
 20
120.652510
 30
0.0
 10
228.980950
 20
123.352720
 30
0.0
 10
226.576730
 20
133.115440
 30
0.0
 10
226.576730
 20
137.932020
 30
0.0
  0
SPLINE
  5
111
100
AcDbEntity
  8
Layer_1
 62
7
100
AcDbSpline
 70
8
 71
3
 72
8
 73
4
 74
0
 40
0
 40
0
 40
0
 40
0
 40
1
 40
1
 40
1
 40
1
 10
226.576730
 20
137.932020
 30
0.0
 10
226.576730
 20
142.082270
 30
0.0
 10
226.397930
 20
142.636710
 30
0.0
 10
224.336020
 20
144.880340
 30
0.0
  0
SPLINE
  5
112
100
AcDbEntity
  8
Layer_1
 62
7
100
AcDbSpline
 70
8
 71
3
 72
8
 73
4
 74
0
 40
0
 40
0
 40
0
 40
0
 40
1
 40
1
 40
1
 40
1
 10
224.336020
 20
144.880340
 30
0.0
 10
223.103640
 20
146.221330
 30
0.0
 10
219.334240
 20
148.748030
 30
0.0
 10
215.959600
 20
150.495210
 30
0.0
  0
SPLINE
  5
113
100
AcDbEntity
  8
Layer_1
 62
7
100
AcDbSpline
 70
8
 71
3
 72
8
 73
4
 74
0
 40
0
 40
0
 40
0
 40
0
 40
1
 40
1
 40
1
 40
1
 10
215.959600
 20
150.495210
 30
0.0
 10
209.506570
 20
153.836210
 30
0.0
 10
207.665330
 20
155.236600
 30
0.0
 10
203.438350
 20
160.018510
 30
0.0
  0
SPLINE
  5
114
100
AcDbEntity
  8
Layer_1
 62
7
100
AcDbSpline
 70
8
 71
3
 72
8
 73
4
 74
0
 40
0
 40
0
 40
0
 40
0
 40
1
 40
1
 40
1
 40
1
 10
203.438350
 20
160.018510
 30
0.0
 10
201.630230
 20
162.064010
 30
0.0
 10
199.813280
 20
163.212620
 30
0.0
 10
197.432620
 20
163.815090
 30
0.0
  0
SPLINE
  5
115
100
AcDbEntity
  8
Layer_1
 62
7
100
AcDbSpline
 70
8
 71
3
 72
8
 73
4
 74
0
 40
0
 40
0
 40
0
 40
0
 40
1
 40
1
 40
1
 40
1
 10
197.432620
 20
163.815090
 30
0.0
 10
194.085640
 20
164.662110
 30
0.0
 10
194.007730
 20
164.747840
 30
0.0
 10
193.423750
 20
168.225670
 30
0.0
  0
SPLINE
  5
116
100
AcDbEntity
  8
Layer_1
 62
7
100
AcDbSpline
 70
8
 71
3
 72
8
 73
4
 74
0
 40
0
 40
0
 40
0
 40
0
 40
1
 40
1
 40
1
 40
1
 10
193.423750
 20
168.225670
 30
0.0
 10
193.096200
 20
170.176410
 30
0.0
 10
192.568030
 20
171.772460
 30
0.0
 10
192.250060
 20
171.772460
 30
0.0
  0
SPLINE
  5
117
100
AcDbEntity
  8
Layer_1
 62
7
100
AcDbSpline
 70
8
 71
3
 72
8
 73
4
 74
0
 40
0
 40
0
 40
0
 40
0
 40
1
 40
1
 40
1
 40
1
 10
192.250060
 20
171.772460
 30
0.0
 10
191.932070
 20
171.772460
 30
0.0
 10
189.555650
 20
174.481300
 30
0.0
 10
186.969140
 20
177.792090
 30
0.0
  0
SPLINE
  5
118
100
AcDbEntity
  8
Layer_1
 62
7
100
AcDbSpline
 70
8
 71
3
 72
8
 73
4
 74
0
 40
0
 40
0
 40
0
 40
0
 40
1
 40
1
 40
1
 40
1
 10
186.969140
 20
177.792090
 30
0.0
 10
184.382610
 20
181.102890
 30
0.0
 10
180.951270
 20
184.764420
 30
0.0
 10
179.343950
 20
185.928820
 30
0.0
  0
SPLINE
  5
119
100
AcDbEntity
  8
Layer_1
 62
7
100
AcDbSpline
 70
8
 71
3
 72
8
 73
4
 74
0
 40
0
 40
0
 40
0
 40
0
 40
1
 40
1
 40
1
 40
1
 10
179.343950
 20
185.928820
 30
0.0
 10
174.793980
 20
189.224980
 30
0.0
 10
173.789450
 20
191.602750
 30
0.0
 10
173.789450
 20
199.076370
 30
0.0
  0
SPLINE
  5
11a
100
AcDbEntity
  8
Layer_1
 62
7
100
AcDbSpline
 70
8
 71
3
 72
8
 73
4
 74
0
 40
0
 40
0
 40
0
 40
0
 40
1
 40
1
 40
1
 40
1
 10
173.789450
 20
199.076370
 30
0.0
 10
173.789450
 20
206.139300
 30
0.0
 10
174.057530
 20
205.686100
 30
0.0
 10
168.110630
 20
208.676490
 30
0.0
  0
SPLINE
  5
11b
100
AcDbEntity
  8
Layer_1
 62
7
100
AcDbSpline
 70
8
 71
3
 72
8
 73
4
 74
0
 40
0
 40
0
 40
0
 40
0
 40
1
 40
1
 40
1
 40
1
 10
168.110630
 20
208.676490
 30
0.0
 10
165.013630
 20
210.233820
 30
0.0
 10
163.925500
 20
211.329350
 30
0.0
 10
162.104890
 20
214.722970
 30
0.0
  0
SPLINE
  5
11c
100
AcDbEntity
  8
Layer_1
 62
7
100
AcDbSpline
 70
8
 71
3
 72
8
 73
4
 74
0
 40
0
 40
0
 40
0
 40
0
 40
1
 40
1
 40
1
 40
1
 10
162.104890
 20
214.722970
 30
0.0
 10
160.881980
 20
217.002470
 30
0.0
 10
158.848070
 20
220.288470
 30
0.0
 10
157.585110
 20
222.025170
 30
0.0
  0
SPLINE
  5
11d
100
AcDbEntity
  8
Layer_1
 62
7
100
AcDbSpline
 70
8
 71
3
 72
8
 73
4
 74
0
 40
0
 40
0
 40
0
 40
0
 40
1
 40
1
 40
1
 40
1
 10
157.585110
 20
222.025170
 30
0.0
 10
155.672890
 20
224.654630
 30
0.0
 10
154.862860
 20
225.182800
 30
0.0
 10
152.742460
 20
225.182800
 30
0.0
  0
SPLINE
  5
11e
100
AcDbEntity
  8
Layer_1
 62
7
100
AcDbSpline
 70
8
 71
3
 72
8
 73
4
 74
0
 40
0
 40
0
 40
0
 40
0
 40
1
 40
1
 40
1
 40
1
 10
152.742460
 20
225.182800
 30
0.0
 10
150.735950
 20
225.182800
 30
0.0
 10
149.532880
 20
225.874870
 30
0.0
 10
147.067710
 20
228.447210
 30
0.0
  0
SPLINE
  5
11f
100
AcDbEntity
  8
Layer_1
 62
7
100
AcDbSpline
 70
8
 71
3
 72
8
 73
4
 74
0
 40
0
 40
0
 40
0
 40
0
 40
1
 40
1
 40
1
 40
1
 10
147.067710
 20
228.447210
 30
0.0
 10
142.986040
 20
232.706270
 30
0.0
 10
137.339590
 20
241.127680
 30
0.0
 10
134.754050
 20
246.812350
 30
0.0
  0
SPLINE
  5
120
100
AcDbEntity
  8
Layer_1
 62
7
100
AcDbSpline
 70
8
 71
3
 72
8
 73
4
 74
0
 40
0
 40
0
 40
0
 40
0
 40
1
 40
1
 40
1
 40
1
 10
134.754050
 20
246.812350
 30
0.0
 10
131.947660
 20
252.982620
 30
0.0
 10
129.491210
 20
255.345320
 30
0.0
 10
120.327480
 20
260.688400
 30
0.0
  0
SPLINE
  5
121
100
AcDbEntity
  8
Layer_1
 62
7
100
AcDbSpline
 70
8
 71
3
 72
8
 73
4
 74
0
 40
0
 40
0
 40
0
 40
0
 40
1
 40
1
 40
1
 40
1
 10
120.327480
 20
260.688400
 30
0.0
 10
110.116030
 20
266.642370
 30
0.0
 10
109.172880
 20
267.356050
 30
0.0
 10
104.355230
 20
272.774800
 30
0.0
  0
SPLINE
  5
122
100
AcDbEntity
  8
Layer_1
 62
7
100
AcDbSpline
 70
8
 71
3
 72
8
 73
4
 74
0
 40
0
 40
0
 40
0
 40
0
 40
1
 40
1
 40
1
 40
1
 10
104.355230
 20
272.774800
 30
0.0
 10
101.748330
 20
275.706960
 30
0.0
 10
99.722182
 20
278.861300
 30
0.0
 10
98.694063
 20
281.588160
 30
0.0
  0
SPLINE
  5
123
100
AcDbEntity
  8
Layer_1
 62
7
100
AcDbSpline
 70
8
 71
3
 72
8
 73
4
 74
0
 40
0
 40
0
 40
0
 40
0
 40
1
 40
1
 40
1
 40
1
 10
98.694063
 20
281.588160
 30
0.0
 10
96.669250
 20
286.958600
 30
0.0
 10
90.090217
 20
297.074060
 30
0.0
 10
86.503321
 20
300.331840
 30
0.0
  0
SPLINE
  5
124
100
AcDbEntity
  8
Layer_1
 62
7
100
AcDbSpline
 70
8
 71
3
 72
8
 73
4
 74
0
 40
0
 40
0
 40
0
 40
0
 40
1
 40
1
 40
1
 40
1
 10
86.503321
 20
300.331840
 30
0.0
 10
83.732538
 20
302.848390
 30
0.0
 10
79.000414
 20
310.289760
 30
0.0
 10
77.241990
 20
314.895490
 30
0.0
  0
SPLINE
  5
125
100
AcDbEntity
  8
Layer_1
 62
7
100
AcDbSpline
 70
8
 71
3
 72
8
 73
4
 74
0
 40
0
 40
0
 40
0
 40
0
 40
1
 40
1
 40
1
 40
1
 10
77.241990
 20
314.895490
 30
0.0
 10
76.716272
 20
316.272470
 30
0.0
 10
76.090962
 20
318.821630
 30
0.0
 10
75.852415
 20
320.560260
 30
0.0
  0
SPLINE
  5
126
100
AcDbEntity
  8
Layer_1
 62
7
100
AcDbSpline
 70
8
 71
3
 72
8
 73
4
 74
0
 40
0
 40
0
 40
0
 40
0
 40
1
 40
1
 40
1
 40
1
 10
75.852415
 20
320.560260
 30
0.0
 10
75.551077
 20
322.756520
 30
0.0
 10
74.319250
 20
325.335570
 30
0.0
 10
71.816778
 20
329.009580
 30
0.0
  0
SPLINE
  5
127
100
AcDbEntity
  8
Layer_1
 62
7
100
AcDbSpline
 70
8
 71
3
 72
8
 73
4
 74
0
 40
0
 40
0
 40
0
 40
0
 40
1
 40
1
 40
1
 40
1
 10
71.816778
 20
329.009580
 30
0.0
 10
69.835731
 20
331.918070
 30
0.0
 10
66.792458
 20
337.749740
 30
0.0
 10
65.053956
 20
341.968860
 30
0.0
  0
SPLINE
  5
128
100
AcDbEntity
  8
Layer_1
 62
7
100
AcDbSpline
 70
8
 71
3
 72
8
 73
4
 74
0
 40
0
 40
0
 40
0
 40
0
 40
1
 40
1
 40
1
 40
1
 10
65.053956
 20
341.968860
 30
0.0
 10
60.622219
 20
352.724100
 30
0.0
 10
61.144593
 20
352.243600
 30
0.0
 10
54.616682
 20
351.569460
 30
0.0
  0
SPLINE
  5
129
100
AcDbEntity
  8
Layer_1
 62
7
100
AcDbSpline
 70
8
 71
3
 72
8
 73
4
 74
0
 40
0
 40
0
 40
0
 40
0
 40
1
 40
1
 40
1
 40
1
 10
54.616682
 20
351.569460
 30
0.0
 10
50.854928
 20
351.181000
 30
0.0
 10
48.340792
 20
351.326530
 30
0.0
 10
46.736110
 20
352.025640
 30
0.0
  0
SPLINE
  5
12a
100
AcDbEntity
  8
Layer_1
 62
7
100
AcDbSpline
 70
8
 71
3
 72
8
 73
4
 74
0
 40
0
 40
0
 40
0
 40
0
 40
1
 40
1
 40
1
 40
1
 10
46.736110
 20
352.025640
 30
0.0
 10
45.440052
 20
352.590290
 30
0.0
 10
41.221532
 20
356.214640
 30
0.0
 10
37.361619
 20
360.079720
 30
0.0
  0
SPLINE
  5
12b
100
AcDbEntity
  8
Layer_1
 62
7
100
AcDbSpline
 70
8
 71
3
 72
8
 73
4
 74
0
 40
0
 40
0
 40
0
 40
0
 40
1
 40
1
 40
1
 40
1
 10
37.361619
 20
360.079720
 30
0.0
 10
33.501698
 20
363.944830
 30
0.0
 10
29.761191
 20
367.262500
 30
0.0
 10
29.049372
 20
367.452320
 30
0.0
  0
SPLINE
  5
12c
100
AcDbEntity
  8
Layer_1
 62
7
100
AcDbSpline
 70
8
 71
3
 72
8
 73
4
 74
0
 40
0
 40
0
 40
0
 40
0
 40
1
 40
1
 40
1
 40
1
 10
29.049372
 20
367.452320
 30
0.0
 10
28.337553
 20
367.642150
 30
0.0
 10
26.402946
 20
368.028920
 30
0.0
 10
24.750242
 20
368.311820
 30
0.0
  0
SPLINE
  5
12d
100
AcDbEntity
  8
Layer_1
 62
7
100
AcDbSpline
 70
8
 71
3
 72
8
 73
4
 74
0
 40
0
 40
0
 40
0
 40
0
 40
1
 40
1
 40
1
 40
1
 10
24.750242
 20
368.311820
 30
0.0
 10
22.674905
 20
368.667050
 30
0.0
 10
20.914800
 20
369.701070
 30
0.0
 10
19.060595
 20
371.654300
 30
0.0
  0
SPLINE
  5
12e
100
AcDbEntity
  8
Layer_1
 62
7
100
AcDbSpline
 70
8
 71
3
 72
8
 73
4
 74
0
 40
0
 40
0
 40
0
 40
0
 40
1
 40
1
 40
1
 40
1
 10
19.060595
 20
371.654300
 30
0.0
 10
17.583993
 20
373.209760
 30
0.0
 10
15.237929
 20
375.197540
 30
0.0
 10
13.847126
 20
376.071560
 30
0.0
  0
SPLINE
  5
12f
100
AcDbEntity
  8
Layer_1
 62
7
100
AcDbSpline
 70
8
 71
3
 72
8
 73
4
 74
0
 40
0
 40
0
 40
0
 40
0
 40
1
 40
1
 40
1
 40
1
 10
13.847126
 20
376.071560
 30
0.0
 10
10.800219
 20
377.986330
 30
0.0
 10
9.485796
 20
379.836620
 30
0.0
 10
8.130402
 20
384.118860
 30
0.0
  0
SPLINE
  5
130
100
AcDbEntity
  8
Layer_1
 62
7
100
AcDbSpline
 70
8
 71
3
 72
8
 73
4
 74
0
 40
0
 40
0
 40
0
 40
0
 40
1
 40
1
 40
1
 40
1
 10
8.130402
 20
384.118860
 30
0.0
 10
6.740845
 20
388.509050
 30
0.0
 10
7.344984
 20
391.945790
 30
0.0
 10
10.404485
 20
397.055250
 30
0.0
  0
SPLINE
  5
131
100
AcDbEntity
  8
Layer_1
 62
7
100
AcDbSpline
 70
8
 71
3
 72
8
 73
4
 74
0
 40
0
 40
0
 40
0
 40
0
 40
1
 40
1
 40
1
 40
1
 10
10.404485
 20
397.055250
 30
0.0
 10
11.788232
 20
399.366170
 30
0.0
 10
13.770519
 20
403.026500
 30
0.0
 10
14.809562
 20
405.189340
 30
0.0
  0
SPLINE
  5
132
100
AcDbEntity
  8
Layer_1
 62
7
100
AcDbSpline
 70
8
 71
3
 72
8
 73
4
 74
0
 40
0
 40
0
 40
0
 40
0
 40
1
 40
1
 40
1
 40
1
 10
14.809562
 20
405.189340
 30
0.0
 10
15.848611
 20
407.352170
 30
0.0
 10
18.767236
 20
411.767741
 30
0.0
 10
21.295406
 20
415.001711
 30
0.0
  0
SPLINE
  5
133
100
AcDbEntity
  8
Layer_1
 62
7
100
AcDbSpline
 70
8
 71
3
 72
8
 73
4
 74
0
 40
0
 40
0
 40
0
 40
0
 40
1
 40
1
 40
1
 40
1
 10
21.295406
 20
415.001711
 30
0.0
 10
25.936477
 20
420.938449
 30
0.0
 10
28.225239
 20
425.848030
 30
0.0
 10
29.046799
 20
431.629053
 30
0.0
  0
SPLINE
  5
134
100
AcDbEntity
  8
Layer_1
 62
7
100
AcDbSpline
 70
8
 71
3
 72
8
 73
4
 74
0
 40
0
 40
0
 40
0
 40
0
 40
1
 40
1
 40
1
 40
1
 10
29.046799
 20
431.629053
 30
0.0
 10
29.307498
 20
433.463517
 30
0.0
 10
30.043448
 20
435.192767
 30
0.0
 10
30.835125
 20
435.831039
 30
0.0
  0
SPLINE
  5
135
100
AcDbEntity
  8
Layer_1
 62
7
100
AcDbSpline
 70
8
 71
3
 72
8
 73
4
 74
0
 40
0
 40
0
 40
0
 40
0
 40
1
 40
1
 40
1
 40
1
 10
30.835125
 20
435.831039
 30
0.0
 10
31.575044
 20
436.427589
 30
0.0
 10
42.848525
 20
444.543200
 30
0.0
 10
55.887301
 20
453.865718
 30
0.0
  0
SPLINE
  5
136
100
AcDbEntity
  8
Layer_1
 62
7
100
AcDbSpline
 70
8
 71
3
 72
8
 73
4
 74
0
 40
0
 40
0
 40
0
 40
0
 40
1
 40
1
 40
1
 40
1
 10
55.887301
 20
453.865718
 30
0.0
 10
68.926077
 20
463.188239
 30
0.0
 10
83.228784
 20
473.569500
 30
0.0
 10
87.671096
 20
476.935195
 30
0.0
  0
SPLINE
  5
137
100
AcDbEntity
  8
Layer_1
 62
7
100
AcDbSpline
 70
8
 71
3
 72
8
 73
4
 74
0
 40
0
 40
0
 40
0
 40
0
 40
1
 40
1
 40
1
 40
1
 10
87.671096
 20
476.935195
 30
0.0
 10
92.113404
 20
480.300880
 30
0.0
 10
96.113785
 20
483.054626
 30
0.0
 10
96.560819
 20
483.054626
 30
0.0
  0
SPLINE
  5
138
100
AcDbEntity
  8
Layer_1
 62
7
100
AcDbSpline
 70
8
 71
3
 72
8
 73
4
 74
0
 40
0
 40
0
 40
0
 40
0
 40
1
 40
1
 40
1
 40
1
 10
96.560819
 20
483.054626
 30
0.0
 10
97.007853
 20
483.054626
 30
0.0
 10
98.004587
 20
481.928001
 30
0.0
 10
98.775782
 20
480.551015
 30
0.0
  0
SPLINE
  5
139
100
AcDbEntity
  8
Layer_1
 62
7
100
AcDbSpline
 70
8
 71
3
 72
8
 73
4
 74
0
 40
0
 40
0
 40
0
 40
0
 40
1
 40
1
 40
1
 40
1
 10
98.775782
 20
480.551015
 30
0.0
 10
100.491610
 20
477.487415
 30
0.0
 10
102.099930
 20
477.389625
 30
0.0
 10
104.871610
 20
480.180381
 30
0.0
  0
SPLINE
  5
13a
100
AcDbEntity
  8
Layer_1
 62
7
100
AcDbSpline
 70
8
 71
3
 72
8
 73
4
 74
0
 40
0
 40
0
 40
0
 40
0
 40
1
 40
1
 40
1
 40
1
 10
104.871610
 20
480.180381
 30
0.0
 10
106.898830
 20
482.221558
 30
0.0
 10
108.672260
 20
482.580133
 30
0.0
 10
146.079380
 20
488.512413
 30
0.0
  0
SPLINE
  5
13b
100
AcDbEntity
  8
Layer_1
 62
7
100
AcDbSpline
 70
8
 71
3
 72
8
 73
4
 74
0
 40
0
 40
0
 40
0
 40
0
 40
1
 40
1
 40
1
 40
1
 10
146.079380
 20
488.512413
 30
0.0
 10
167.578520
 20
491.921902
 30
0.0
 10
193.481070
 20
496.031870
 30
0.0
 10
203.640580
 20
497.645689
 30
0.0
  0
SPLINE
  5
13c
100
AcDbEntity
  8
Layer_1
 62
7
100
AcDbSpline
 70
8
 71
3
 72
8
 73
4
 74
0
 40
0
 40
0
 40
0
 40
0
 40
1
 40
1
 40
1
 40
1
 10
203.640580
 20
497.645689
 30
0.0
 10
228.171200
 20
501.542316
 30
0.0
 10
230.292890
 20
501.481595
 30
0.0
 10
231.628350
 20
496.844759
 30
0.0
  0
SPLINE
  5
13d
100
AcDbEntity
  8
Layer_1
 62
7
100
AcDbSpline
 70
8
 71
3
 72
8
 73
4
 74
0
 40
0
 40
0
 40
0
 40
0
 40
1
 40
1
 40
1
 40
1
 10
231.628350
 20
496.844759
 30
0.0
 10
232.317470
 20
494.452084
 30
0.0
 10
231.366360
 20
489.422275
 30
0.0
 10
229.606880
 20
486.154520
 30
0.0
  0
SPLINE
  5
13e
100
AcDbEntity
  8
Layer_1
 62
7
100
AcDbSpline
 70
8
 71
3
 72
8
 73
4
 74
0
 40
0
 40
0
 40
0
 40
0
 40
1
 40
1
 40
1
 40
1
 10
229.606880
 20
486.154520
 30
0.0
 10
228.111140
 20
483.376598
 30
0.0
 10
228.506680
 20
481.385553
 30
0.0
 10
230.554250
 20
481.385553
 30
0.0
  0
SPLINE
  5
13f
100
AcDbEntity
  8
Layer_1
 62
7
100
AcDbSpline
 70
8
 71
3
 72
8
 73
4
 74
0
 40
0
 40
0
 40
0
 40
0
 40
1
 40
1
 40
1
 40
1
 10
230.554250
 20
481.385553
 30
0.0
 10
232.121560
 20
481.385553
 30
0.0
 10
237.437730
 20
487.813237
 30
0.0
 10
240.032890
 20
492.845986
 30
0.0
  0
SPLINE
  5
140
100
AcDbEntity
  8
Layer_1
 62
7
100
AcDbSpline
 70
8
 71
3
 72
8
 73
4
 74
0
 40
0
 40
0
 40
0
 40
0
 40
1
 40
1
 40
1
 40
1
 10
240.032890
 20
492.845986
 30
0.0
 10
240.802970
 20
494.339389
 30
0.0
 10
241.742890
 20
495.563838
 30
0.0
 10
242.121620
 20
495.566975
 30
0.0
  0
SPLINE
  5
141
100
AcDbEntity
  8
Layer_1
 62
7
100
AcDbSpline
 70
8
 71
3
 72
8
 73
4
 74
0
 40
0
 40
0
 40
0
 40
0
 40
1
 40
1
 40
1
 40
1
 10
242.121620
 20
495.566975
 30
0.0
 10
242.500330
 20
495.570375
 30
0.0
 10
246.698570
 20
489.688015
 30
0.0
 10
251.451010
 20
482.495654
 30
0.0
  0
SPLINE
  5
142
100
AcDbEntity
  8
Layer_1
 62
7
100
AcDbSpline
 70
8
 71
3
 72
8
 73
4
 74
0
 40
0
 40
0
 40
0
 40
0
 40
1
 40
1
 40
1
 40
1
 10
261.089330
 20
451.654504
 30
0.0
 10
263.044010
 20
452.188967
 30
0.0
 10
338.799700
 20
468.879061
 30
0.0
 10
359.033880
 20
473.233123
 30
0.0
  0
LWPOLYLINE
  5
143
100
AcDbEntity
  8
Layer_1
 62
7
100
AcDbPolyline
 90
5
 70
0
 10
251.451010
 20
482.495654
 30
0.0
 10
260.091850
 20
469.418630
 30
0.0
 10
259.671630
 20
460.285295
 30
0.0
 10
259.251420
 20
451.151969
 30
0.0
 10
261.089330
 20
451.654504
 30
0.0
  0
SPLINE
  5
144
100
AcDbEntity
  8
Layer_1
 62
7
100
AcDbSpline
 70
8
 71
3
 72
8
 73
4
 74
0
 40
0
 40
0
 40
0
 40
0
 40
1
 40
1
 40
1
 40
1
 10
377.367180
 20
469.669351
 30
0.0
 10
380.836060
 20
466.285956
 30
0.0
 10
383.958700
 20
463.082352
 30
0.0
 10
384.306410
 20
462.550236
 30
0.0
  0
SPLINE
  5
145
100
AcDbEntity
  8
Layer_1
 62
7
100
AcDbSpline
 70
8
 71
3
 72
8
 73
4
 74
0
 40
0
 40
0
 40
0
 40
0
 40
1
 40
1
 40
1
 40
1
 10
384.306410
 20
462.550236
 30
0.0
 10
385.193540
 20
461.192578
 30
0.0
 10
395.744570
 20
450.860894
 30
0.0
 10
428.559220
 20
419.217382
 30
0.0
  0
SPLINE
  5
146
100
AcDbEntity
  8
Layer_1
 62
7
100
AcDbSpline
 70
8
 71
3
 72
8
 73
4
 74
0
 40
0
 40
0
 40
0
 40
0
 40
1
 40
1
 40
1
 40
1
 10
428.559220
 20
419.217382
 30
0.0
 10
444.205760
 20
404.129270
 30
0.0
 10
458.285940
 20
390.316930
 30
0.0
 10
459.848520
 20
388.523300
 30
0.0
  0
SPLINE
  5
147
100
AcDbEntity
  8
Layer_1
 62
7
100
AcDbSpline
 70
8
 71
3
 72
8
 73
4
 74
0
 40
0
 40
0
 40
0
 40
0
 40
1
 40
1
 40
1
 40
1
 10
459.848520
 20
388.523300
 30
0.0
 10
461.411100
 20
386.729670
 30
0.0
 10
464.824900
 20
383.380050
 30
0.0
 10
467.434720
 20
381.079710
 30
0.0
  0
SPLINE
  5
148
100
AcDbEntity
  8
Layer_1
 62
7
100
AcDbSpline
 70
8
 71
3
 72
8
 73
4
 74
0
 40
0
 40
0
 40
0
 40
0
 40
1
 40
1
 40
1
 40
1
 10
467.434720
 20
381.079710
 30
0.0
 10
474.094120
 20
375.210030
 30
0.0
 10
502.208560
 20
347.648330
 30
0.0
 10
502.208560
 20
346.989550
 30
0.0
  0
SPLINE
  5
149
100
AcDbEntity
  8
Layer_1
 62
7
100
AcDbSpline
 70
8
 71
3
 72
8
 73
4
 74
0
 40
0
 40
0
 40
0
 40
0
 40
1
 40
1
 40
1
 40
1
 10
502.208560
 20
346.989550
 30
0.0
 10
502.208560
 20
346.690500
 30
0.0
 10
499.949150
 20
344.840500
 30
0.0
 10
497.187680
 20
342.878460
 30
0.0
  0
SPLINE
  5
14a
100
AcDbEntity
  8
Layer_1
 62
7
100
AcDbSpline
 70
8
 71
3
 72
8
 73
4
 74
0
 40
0
 40
0
 40
0
 40
0
 40
1
 40
1
 40
1
 40
1
 10
497.187680
 20
342.878460
 30
0.0
 10
491.148940
 20
338.587910
 30
0.0
 10
490.255870
 20
337.544740
 30
0.0
 10
487.596380
 20
331.675140
 30
0.0
  0
SPLINE
  5
14b
100
AcDbEntity
  8
Layer_1
 62
7
100
AcDbSpline
 70
8
 71
3
 72
8
 73
4
 74
0
 40
0
 40
0
 40
0
 40
0
 40
1
 40
1
 40
1
 40
1
 10
487.596380
 20
331.675140
 30
0.0
 10
486.119090
 20
328.414720
 30
0.0
 10
484.555910
 20
326.336770
 30
0.0
 10
482.084320
 20
324.347930
 30
0.0
  0
SPLINE
  5
14c
100
AcDbEntity
  8
Layer_1
 62
7
100
AcDbSpline
 70
8
 71
3
 72
8
 73
4
 74
0
 40
0
 40
0
 40
0
 40
0
 40
1
 40
1
 40
1
 40
1
 10
482.084320
 20
324.347930
 30
0.0
 10
473.765050
 20
317.653530
 30
0.0
 10
471.231580
 20
312.851930
 30
0.0
 10
471.231580
 20
303.778950
 30
0.0
  0
SPLINE
  5
14d
100
AcDbEntity
  8
Layer_1
 62
7
100
AcDbSpline
 70
8
 71
3
 72
8
 73
4
 74
0
 40
0
 40
0
 40
0
 40
0
 40
1
 40
1
 40
1
 40
1
 10
471.231580
 20
303.778950
 30
0.0
 10
471.231580
 20
296.704080
 30
0.0
 10
470.580270
 20
295.304540
 30
0.0
 10
462.423510
 20
284.852170
 30
0.0
  0
SPLINE
  5
14e
100
AcDbEntity
  8
Layer_1
 62
7
100
AcDbSpline
 70
8
 71
3
 72
8
 73
4
 74
0
 40
0
 40
0
 40
0
 40
0
 40
1
 40
1
 40
1
 40
1
 10
462.423510
 20
284.852170
 30
0.0
 10
459.199810
 20
280.721220
 30
0.0
 10
456.331440
 20
276.557420
 30
0.0
 10
456.049350
 20
275.599300
 30
0.0
  0
SPLINE
  5
14f
100
AcDbEntity
  8
Layer_1
 62
7
100
AcDbSpline
 70
8
 71
3
 72
8
 73
4
 74
0
 40
0
 40
0
 40
0
 40
0
 40
1
 40
1
 40
1
 40
1
 10
456.049350
 20
275.599300
 30
0.0
 10
455.767250
 20
274.641180
 30
0.0
 10
455.820680
 20
272.097950
 30
0.0
 10
456.168090
 20
269.947700
 30
0.0
  0
SPLINE
  5
150
100
AcDbEntity
  8
Layer_1
 62
7
100
AcDbSpline
 70
8
 71
3
 72
8
 73
4
 74
0
 40
0
 40
0
 40
0
 40
0
 40
1
 40
1
 40
1
 40
1
 10
456.168090
 20
269.947700
 30
0.0
 10
456.715700
 20
266.558280
 30
0.0
 10
456.624320
 20
265.645650
 30
0.0
 10
455.481190
 20
263.088040
 30
0.0
  0
SPLINE
  5
151
100
AcDbEntity
  8
Layer_1
 62
7
100
AcDbSpline
 70
8
 71
3
 72
8
 73
4
 74
0
 40
0
 40
0
 40
0
 40
0
 40
1
 40
1
 40
1
 40
1
 10
455.481190
 20
263.088040
 30
0.0
 10
454.737910
 20
261.425050
 30
0.0
 10
454.162640
 20
258.684270
 30
0.0
 10
454.162640
 20
256.806060
 30
0.0
  0
SPLINE
  5
152
100
AcDbEntity
  8
Layer_1
 62
7
100
AcDbSpline
 70
8
 71
3
 72
8
 73
4
 74
0
 40
0
 40
0
 40
0
 40
0
 40
1
 40
1
 40
1
 40
1
 10
454.162640
 20
256.806060
 30
0.0
 10
454.162640
 20
253.339630
 30
0.0
 10
452.686190
 20
248.549830
 30
0.0
 10
451.617670
 20
248.549830
 30
0.0
  0
SPLINE
  5
153
100
AcDbEntity
  8
Layer_1
 62
7
100
AcDbSpline
 70
8
 71
3
 72
8
 73
4
 74
0
 40
0
 40
0
 40
0
 40
0
 40
1
 40
1
 40
1
 40
1
 10
451.617670
 20
248.549830
 30
0.0
 10
450.322810
 20
248.549830
 30
0.0
 10
451.027400
 20
244.173430
 30
0.0
 10
452.582190
 20
242.558980
 30
0.0
  0
SPLINE
  5
154
100
AcDbEntity
  8
Layer_1
 62
7
100
AcDbSpline
 70
8
 71
3
 72
8
 73
4
 74
0
 40
0
 40
0
 40
0
 40
0
 40
1
 40
1
 40
1
 40
1
 10
452.582190
 20
242.558980
 30
0.0
 10
454.252180
 20
240.824880
 30
0.0
 10
454.702880
 20
238.532470
 30
0.0
 10
453.372420
 20
238.539660
 30
0.0
  0
SPLINE
  5
155
100
AcDbEntity
  8
Layer_1
 62
7
100
AcDbSpline
 70
8
 71
3
 72
8
 73
4
 74
0
 40
0
 40
0
 40
0
 40
0
 40
1
 40
1
 40
1
 40
1
 10
453.372420
 20
238.539660
 30
0.0
 10
452.937790
 20
238.541660
 30
0.0
 10
451.444260
 20
239.453570
 30
0.0
 10
450.053450
 20
240.565330
 30
0.0
  0
SPLINE
  5
156
100
AcDbEntity
  8
Layer_1
 62
7
100
AcDbSpline
 70
8
 71
3
 72
8
 73
4
 74
0
 40
0
 40
0
 40
0
 40
0
 40
1
 40
1
 40
1
 40
1
 10
450.053450
 20
240.565330
 30
0.0
 10
447.733040
 20
242.420200
 30
0.0
 10
447.433570
 20
242.477940
 30
0.0
 10
446.418400
 20
241.266250
 30
0.0
  0
SPLINE
  5
157
100
AcDbEntity
  8
Layer_1
 62
7
100
AcDbSpline
 70
8
 71
3
 72
8
 73
4
 74
0
 40
0
 40
0
 40
0
 40
0
 40
1
 40
1
 40
1
 40
1
 10
446.418400
 20
241.266250
 30
0.0
 10
445.064200
 20
239.649920
 30
0.0
 10
445.041850
 20
238.626160
 30
0.0
 10
446.272200
 20
234.566930
 30
0.0
  0
SPLINE
  5
158
100
AcDbEntity
  8
Layer_1
 62
7
100
AcDbSpline
 70
8
 71
3
 72
8
 73
4
 74
0
 40
0
 40
0
 40
0
 40
0
 40
1
 40
1
 40
1
 40
1
 10
446.272200
 20
234.566930
 30
0.0
 10
446.895170
 20
232.511630
 30
0.0
 10
448.124850
 20
230.674030
 30
0.0
 10
449.773810
 20
229.334170
 30
0.0
  0
SPLINE
  5
159
100
AcDbEntity
  8
Layer_1
 62
7
100
AcDbSpline
 70
8
 71
3
 72
8
 73
4
 74
0
 40
0
 40
0
 40
0
 40
0
 40
1
 40
1
 40
1
 40
1
 10
449.773810
 20
229.334170
 30
0.0
 10
452.297450
 20
227.283630
 30
0.0
 10
453.369020
 20
224.667790
 30
0.0
 10
452.670200
 20
222.263800
 30
0.0
  0
SPLINE
  5
15a
100
AcDbEntity
  8
Layer_1
 62
7
100
AcDbSpline
 70
8
 71
3
 72
8
 73
4
 74
0
 40
0
 40
0
 40
0
 40
0
 40
1
 40
1
 40
1
 40
1
 10
452.670200
 20
222.263800
 30
0.0
 10
452.420210
 20
221.403810
 30
0.0
 10
451.406190
 20
221.010130
 30
0.0
 10
449.441100
 20
221.010130
 30
0.0
  0
SPLINE
  5
15b
100
AcDbEntity
  8
Layer_1
 62
7
100
AcDbSpline
 70
8
 71
3
 72
8
 73
4
 74
0
 40
0
 40
0
 40
0
 40
0
 40
1
 40
1
 40
1
 40
1
 10
449.441100
 20
221.010130
 30
0.0
 10
446.752460
 20
221.010130
 30
0.0
 10
445.773150
 20
220.094930
 30
0.0
 10
447.208630
 20
218.923770
 30
0.0
  0
SPLINE
  5
15c
100
AcDbEntity
  8
Layer_1
 62
7
100
AcDbSpline
 70
8
 71
3
 72
8
 73
4
 74
0
 40
0
 40
0
 40
0
 40
0
 40
1
 40
1
 40
1
 40
1
 10
447.208630
 20
218.923770
 30
0.0
 10
447.556320
 20
218.640110
 30
0.0
 10
447.840810
 20
217.679080
 30
0.0
 10
447.840810
 20
216.788180
 30
0.0
  0
SPLINE
  5
15d
100
AcDbEntity
  8
Layer_1
 62
7
100
AcDbSpline
 70
8
 71
3
 72
8
 73
4
 74
0
 40
0
 40
0
 40
0
 40
0
 40
1
 40
1
 40
1
 40
1
 10
447.840810
 20
216.788180
 30
0.0
 10
447.840810
 20
215.567930
 30
0.0
 10
447.373000
 20
215.142640
 30
0.0
 10
445.944260
 20
215.064040
 30
0.0
  0
SPLINE
  5
15e
100
AcDbEntity
  8
Layer_1
 62
7
100
AcDbSpline
 70
8
 71
3
 72
8
 73
4
 74
0
 40
0
 40
0
 40
0
 40
0
 40
1
 40
1
 40
1
 40
1
 10
445.944260
 20
215.064040
 30
0.0
 10
444.901160
 20
215.006540
 30
0.0
 10
443.763230
 20
214.865840
 30
0.0
 10
443.415540
 20
214.751100
 30
0.0
  0
SPLINE
  5
15f
100
AcDbEntity
  8
Layer_1
 62
7
100
AcDbSpline
 70
8
 71
3
 72
8
 73
4
 74
0
 40
0
 40
0
 40
0
 40
0
 40
1
 40
1
 40
1
 40
1
 10
443.415540
 20
214.751100
 30
0.0
 10
443.067830
 20
214.636310
 30
0.0
 10
442.641100
 20
214.495510
 30
0.0
 10
442.467250
 20
214.438150
 30
0.0
  0
SPLINE
  5
160
100
AcDbEntity
  8
Layer_1
 62
7
100
AcDbSpline
 70
8
 71
3
 72
8
 73
4
 74
0
 40
0
 40
0
 40
0
 40
0
 40
1
 40
1
 40
1
 40
1
 10
442.467250
 20
214.438150
 30
0.0
 10
442.293400
 20
214.380650
 30
0.0
 10
442.720120
 20
213.582740
 30
0.0
 10
443.415540
 20
212.664750
 30
0.0
  0
SPLINE
  5
161
100
AcDbEntity
  8
Layer_1
 62
7
100
AcDbSpline
 70
8
 71
3
 72
8
 73
4
 74
0
 40
0
 40
0
 40
0
 40
0
 40
1
 40
1
 40
1
 40
1
 10
443.415540
 20
212.664750
 30
0.0
 10
445.460700
 20
209.964940
 30
0.0
 10
444.998980
 20
208.149160
 30
0.0
 10
441.699890
 20
205.917730
 30
0.0
  0
SPLINE
  5
162
100
AcDbEntity
  8
Layer_1
 62
7
100
AcDbSpline
 70
8
 71
3
 72
8
 73
4
 74
0
 40
0
 40
0
 40
0
 40
0
 40
1
 40
1
 40
1
 40
1
 10
441.699890
 20
205.917730
 30
0.0
 10
439.138400
 20
204.185200
 30
0.0
 10
438.538060
 20
203.269110
 30
0.0
 10
437.425340
 20
199.395030
 30
0.0
  0
SPLINE
  5
163
100
AcDbEntity
  8
Layer_1
 62
7
100
AcDbSpline
 70
8
 71
3
 72
8
 73
4
 74
0
 40
0
 40
0
 40
0
 40
0
 40
1
 40
1
 40
1
 40
1
 10
437.425340
 20
199.395030
 30
0.0
 10
435.639000
 20
193.175620
 30
0.0
 10
433.689410
 20
191.422390
 30
0.0
 10
428.355460
 20
191.238640
 30
0.0
  0
SPLINE
  5
164
100
AcDbEntity
  8
Layer_1
 62
7
100
AcDbSpline
 70
8
 71
3
 72
8
 73
4
 74
0
 40
0
 40
0
 40
0
 40
0
 40
1
 40
1
 40
1
 40
1
 10
428.355460
 20
191.238640
 30
0.0
 10
426.033630
 20
191.158740
 30
0.0
 10
423.801540
 20
191.064790
 30
0.0
 10
423.395280
 20
191.030000
 30
0.0
  0
SPLINE
  5
165
100
AcDbEntity
  8
Layer_1
 62
7
100
AcDbSpline
 70
8
 71
3
 72
8
 73
4
 74
0
 40
0
 40
0
 40
0
 40
0
 40
1
 40
1
 40
1
 40
1
 10
423.395280
 20
191.030000
 30
0.0
 10
422.224260
 20
190.929770
 30
0.0
 10
420.024750
 20
185.590660
 30
0.0
 10
420.024750
 20
182.848300
 30
0.0
  0
SPLINE
  5
166
100
AcDbEntity
  8
Layer_1
 62
7
100
AcDbSpline
 70
8
 71
3
 72
8
 73
4
 74
0
 40
0
 40
0
 40
0
 40
0
 40
1
 40
1
 40
1
 40
1
 10
420.024750
 20
182.848300
 30
0.0
 10
420.024750
 20
181.140860
 30
0.0
 10
419.325120
 20
179.372000
 30
0.0
 10
417.812110
 20
177.254270
 30
0.0
  0
SPLINE
  5
167
100
AcDbEntity
  8
Layer_1
 62
7
100
AcDbSpline
 70
8
 71
3
 72
8
 73
4
 74
0
 40
0
 40
0
 40
0
 40
0
 40
1
 40
1
 40
1
 40
1
 10
417.812110
 20
177.254270
 30
0.0
 10
415.227160
 20
173.636110
 30
0.0
 10
415.184640
 20
173.361260
 30
0.0
 10
416.893750
 20
171.319440
 30
0.0
  0
SPLINE
  5
168
100
AcDbEntity
  8
Layer_1
 62
7
100
AcDbSpline
 70
8
 71
3
 72
8
 73
4
 74
0
 40
0
 40
0
 40
0
 40
0
 40
1
 40
1
 40
1
 40
1
 10
416.893750
 20
171.319440
 30
0.0
 10
418.975020
 20
168.833060
 30
0.0
 10
418.292910
 20
165.820770
 30
0.0
 10
415.201100
 20
163.844360
 30
0.0
  0
SPLINE
  5
169
100
AcDbEntity
  8
Layer_1
 62
7
100
AcDbSpline
 70
8
 71
3
 72
8
 73
4
 74
0
 40
0
 40
0
 40
0
 40
0
 40
1
 40
1
 40
1
 40
1
 10
415.201100
 20
163.844360
 30
0.0
 10
412.758240
 20
162.282780
 30
0.0
 10
405.061410
 20
152.499630
 30
0.0
 10
401.839190
 20
146.860550
 30
0.0
  0
SPLINE
  5
16a
100
AcDbEntity
  8
Layer_1
 62
7
100
AcDbSpline
 70
8
 71
3
 72
8
 73
4
 74
0
 40
0
 40
0
 40
0
 40
0
 40
1
 40
1
 40
1
 40
1
 10
401.839190
 20
146.860550
 30
0.0
 10
401.051210
 20
145.481520
 30
0.0
 10
399.344310
 20
143.924410
 30
0.0
 10
398.046100
 20
143.400310
 30
0.0
  0
SPLINE
  5
16b
100
AcDbEntity
  8
Layer_1
 62
7
100
AcDbSpline
 70
8
 71
3
 72
8
 73
4
 74
0
 40
0
 40
0
 40
0
 40
0
 40
1
 40
1
 40
1
 40
1
 10
398.046100
 20
143.400310
 30
0.0
 10
396.747880
 20
142.876200
 30
0.0
 10
395.046060
 20
142.034850
 30
0.0
 10
394.264250
 20
141.530640
 30
0.0
  0
SPLINE
  5
16c
100
AcDbEntity
  8
Layer_1
 62
7
100
AcDbSpline
 70
8
 71
3
 72
8
 73
4
 74
0
 40
0
 40
0
 40
0
 40
0
 40
1
 40
1
 40
1
 40
1
 10
394.264250
 20
141.530640
 30
0.0
 10
392.602490
 20
140.458940
 30
0.0
 10
392.691910
 20
140.360920
 30
0.0
 10
391.440040
 20
144.626090
 30
0.0
  0
SPLINE
  5
16d
100
AcDbEntity
  8
Layer_1
 62
7
100
AcDbSpline
 70
8
 71
3
 72
8
 73
4
 74
0
 40
0
 40
0
 40
0
 40
0
 40
1
 40
1
 40
1
 40
1
 10
391.440040
 20
144.626090
 30
0.0
 10
390.482640
 20
147.887940
 30
0.0
 10
389.898300
 20
148.635830
 30
0.0
 10
387.544470
 20
149.611820
 30
0.0
  0
SPLINE
  5
16e
100
AcDbEntity
  8
Layer_1
 62
7
100
AcDbSpline
 70
8
 71
3
 72
8
 73
4
 74
0
 40
0
 40
0
 40
0
 40
0
 40
1
 40
1
 40
1
 40
1
 10
387.544470
 20
149.611820
 30
0.0
 10
386.583150
 20
150.010410
 30
0.0
 10
386.424870
 20
150.654130
 30
0.0
 10
386.712620
 20
152.994880
 30
0.0
  0
SPLINE
  5
16f
100
AcDbEntity
  8
Layer_1
 62
7
100
AcDbSpline
 70
8
 71
3
 72
8
 73
4
 74
0
 40
0
 40
0
 40
0
 40
0
 40
1
 40
1
 40
1
 40
1
 10
386.712620
 20
152.994880
 30
0.0
 10
386.908070
 20
154.584810
 30
0.0
 10
386.802320
 20
156.102500
 30
0.0
 10
386.477430
 20
156.367490
 30
0.0
  0
SPLINE
  5
170
100
AcDbEntity
  8
Layer_1
 62
7
100
AcDbSpline
 70
8
 71
3
 72
8
 73
4
 74
0
 40
0
 40
0
 40
0
 40
0
 40
1
 40
1
 40
1
 40
1
 10
386.477430
 20
156.367490
 30
0.0
 10
386.152630
 20
156.632480
 30
0.0
 10
385.886870
 20
156.515990
 30
0.0
 10
385.886870
 20
156.108590
 30
0.0
  0
SPLINE
  5
171
100
AcDbEntity
  8
Layer_1
 62
7
100
AcDbSpline
 70
8
 71
3
 72
8
 73
4
 74
0
 40
0
 40
0
 40
0
 40
0
 40
1
 40
1
 40
1
 40
1
 10
385.886870
 20
156.108590
 30
0.0
 10
385.886870
 20
155.701200
 30
0.0
 10
384.995440
 20
153.591300
 30
0.0
 10
383.905930
 20
151.419920
 30
0.0
  0
SPLINE
  5
172
100
AcDbEntity
  8
Layer_1
 62
7
100
AcDbSpline
 70
8
 71
3
 72
8
 73
4
 74
0
 40
0
 40
0
 40
0
 40
0
 40
1
 40
1
 40
1
 40
1
 10
383.905930
 20
151.419920
 30
0.0
 10
381.492860
 20
146.610750
 30
0.0
 10
381.858360
 20
144.893410
 30
0.0
 10
386.177480
 20
140.746800
 30
0.0
  0
SPLINE
  5
173
100
AcDbEntity
  8
Layer_1
 62
7
100
AcDbSpline
 70
8
 71
3
 72
8
 73
4
 74
0
 40
0
 40
0
 40
0
 40
0
 40
1
 40
1
 40
1
 40
1
 10
386.177480
 20
140.746800
 30
0.0
 10
387.995280
 20
139.001610
 30
0.0
 10
389.211040
 20
137.109620
 30
0.0
 10
389.457460
 20
135.642490
 30
0.0
  0
SPLINE
  5
174
100
AcDbEntity
  8
Layer_1
 62
7
100
AcDbSpline
 70
8
 71
3
 72
8
 73
4
 74
0
 40
0
 40
0
 40
0
 40
0
 40
1
 40
1
 40
1
 40
1
 10
389.457460
 20
135.642490
 30
0.0
 10
389.693710
 20
134.235750
 30
0.0
 10
390.567610
 20
132.820700
 30
0.0
 10
391.661030
 20
132.074280
 30
0.0
  0
SPLINE
  5
175
100
AcDbEntity
  8
Layer_1
 62
7
100
AcDbSpline
 70
8
 71
3
 72
8
 73
4
 74
0
 40
0
 40
0
 40
0
 40
0
 40
1
 40
1
 40
1
 40
1
 10
391.661030
 20
132.074280
 30
0.0
 10
394.887750
 20
129.871580
 30
0.0
 10
393.674180
 20
126.443940
 30
0.0
 10
388.708550
 20
123.735320
 30
0.0
  0
SPLINE
  5
176
100
AcDbEntity
  8
Layer_1
 62
7
100
AcDbSpline
 70
8
 71
3
 72
8
 73
4
 74
0
 40
0
 40
0
 40
0
 40
0
 40
1
 40
1
 40
1
 40
1
 10
388.708550
 20
123.735320
 30
0.0
 10
385.211100
 20
121.827540
 30
0.0
 10
384.119080
 20
120.352770
 30
0.0
 10
384.460110
 20
117.997740
 30
0.0
  0
SPLINE
  5
177
100
AcDbEntity
  8
Layer_1
 62
7
100
AcDbSpline
 70
8
 71
3
 72
8
 73
4
 74
0
 40
0
 40
0
 40
0
 40
0
 40
1
 40
1
 40
1
 40
1
 10
384.460110
 20
117.997740
 30
0.0
 10
384.805080
 20
115.615540
 30
0.0
 10
383.626410
 20
114.605710
 30
0.0
 10
378.958420
 20
113.284160
 30
0.0
  0
SPLINE
  5
178
100
AcDbEntity
  8
Layer_1
 62
7
100
AcDbSpline
 70
8
 71
3
 72
8
 73
4
 74
0
 40
0
 40
0
 40
0
 40
0
 40
1
 40
1
 40
1
 40
1
 10
378.958420
 20
113.284160
 30
0.0
 10
376.697730
 20
112.644160
 30
0.0
 10
375.419590
 20
111.751760
 30
0.0
 10
374.706800
 20
110.315700
 30
0.0
  0
SPLINE
  5
179
100
AcDbEntity
  8
Layer_1
 62
7
100
AcDbSpline
 70
8
 71
3
 72
8
 73
4
 74
0
 40
0
 40
0
 40
0
 40
0
 40
1
 40
1
 40
1
 40
1
 10
374.706800
 20
110.315700
 30
0.0
 10
373.579860
 20
108.045220
 30
0.0
 10
370.771360
 20
105.844070
 30
0.0
 10
369.001390
 20
105.844070
 30
0.0
  0
SPLINE
  5
17a
100
AcDbEntity
  8
Layer_1
 62
7
100
AcDbSpline
 70
8
 71
3
 72
8
 73
4
 74
0
 40
0
 40
0
 40
0
 40
0
 40
1
 40
1
 40
1
 40
1
 10
369.001390
 20
105.844070
 30
0.0
 10
368.372360
 20
105.844070
 30
0.0
 10
367.502380
 20
106.595150
 30
0.0
 10
367.068080
 20
107.513140
 30
0.0
  0
SPLINE
  5
17b
100
AcDbEntity
  8
Layer_1
 62
7
100
AcDbSpline
 70
8
 71
3
 72
8
 73
4
 74
0
 40
0
 40
0
 40
0
 40
0
 40
1
 40
1
 40
1
 40
1
 10
367.068080
 20
107.513140
 30
0.0
 10
366.633800
 20
108.431130
 30
0.0
 10
365.865680
 20
109.182210
 30
0.0
 10
365.361150
 20
109.182210
 30
0.0
  0
SPLINE
  5
17c
100
AcDbEntity
  8
Layer_1
 62
7
100
AcDbSpline
 70
8
 71
3
 72
8
 73
4
 74
0
 40
0
 40
0
 40
0
 40
0
 40
1
 40
1
 40
1
 40
1
 10
365.361150
 20
109.182210
 30
0.0
 10
364.856610
 20
109.182210
 30
0.0
 10
363.754690
 20
110.163260
 30
0.0
 10
362.912460
 20
111.362340
 30
0.0
  0
SPLINE
  5
17d
100
AcDbEntity
  8
Layer_1
 62
7
100
AcDbSpline
 70
8
 71
3
 72
8
 73
4
 74
0
 40
0
 40
0
 40
0
 40
0
 40
1
 40
1
 40
1
 40
1
 10
362.912460
 20
111.362340
 30
0.0
 10
361.722850
 20
113.055910
 30
0.0
 10
361.282330
 20
114.865680
 30
0.0
 10
360.938520
 20
119.471620
 30
0.0
  0
LWPOLYLINE
  5
17e
100
AcDbEntity
  8
Layer_1
 62
7
100
AcDbPolyline
 90
3
 70
0
 10
359.033880
 20
473.233123
 30
0.0
 10
371.060150
 20
475.820979
 30
0.0
 10
377.367180
 20
469.669351
 30
0.0
  0
SPLINE
  5
17f
100
AcDbEntity
  8
Layer_1
 62
7
100
AcDbSpline
 70
8
 71
3
 72
8
 73
4
 74
0
 40
0
 40
0
 40
0
 40
0
 40
1
 40
1
 40
1
 40
1
 10
359.281490
 20
123.341860
 30
0.0
 10
357.262390
 20
119.918850
 30
0.0
 10
357.106150
 20
117.573780
 30
0.0
 10
358.642460
 20
113.750840
 30
0.0
  0
SPLINE
  5
180
100
AcDbEntity
  8
Layer_1
 62
7
100
AcDbSpline
 70
8
 71
3
 72
8
 73
4
 74
0
 40
0
 40
0
 40
0
 40
0
 40
1
 40
1
 40
1
 40
1
 10
358.642460
 20
113.750840
 30
0.0
 10
359.578670
 20
111.421180
 30
0.0
 10
359.906080
 20
109.567700
 30
0.0
 10
359.634080
 20
108.137140
 30
0.0
  0
SPLINE
  5
181
100
AcDbEntity
  8
Layer_1
 62
7
100
AcDbSpline
 70
8
 71
3
 72
8
 73
4
 74
0
 40
0
 40
0
 40
0
 40
0
 40
1
 40
1
 40
1
 40
1
 10
359.634080
 20
108.137140
 30
0.0
 10
359.301860
 20
106.389740
 30
0.0
 10
359.496390
 20
105.891360
 30
0.0
 10
360.704020
 20
105.396000
 30
0.0
  0
SPLINE
  5
182
100
AcDbEntity
  8
Layer_1
 62
7
100
AcDbSpline
 70
8
 71
3
 72
8
 73
4
 74
0
 40
0
 40
0
 40
0
 40
0
 40
1
 40
1
 40
1
 40
1
 10
360.704020
 20
105.396000
 30
0.0
 10
363.063120
 20
104.428320
 30
0.0
 10
365.657600
 20
101.678730
 30
0.0
 10
365.650210
 20
100.154120
 30
0.0
  0
SPLINE
  5
183
100
AcDbEntity
  8
Layer_1
 62
7
100
AcDbSpline
 70
8
 71
3
 72
8
 73
4
 74
0
 40
0
 40
0
 40
0
 40
0
 40
1
 40
1
 40
1
 40
1
 10
365.650210
 20
100.154120
 30
0.0
 10
365.643210
 20
98.648230
 30
0.0
 10
358.169070
 20
89.556890
 30
0.0
 10
355.734750
 20
88.092720
 30
0.0
  0
SPLINE
  5
184
100
AcDbEntity
  8
Layer_1
 62
7
100
AcDbSpline
 70
8
 71
3
 72
8
 73
4
 74
0
 40
0
 40
0
 40
0
 40
0
 40
1
 40
1
 40
1
 40
1
 10
355.734750
 20
88.092720
 30
0.0
 10
354.546510
 20
87.378020
 30
0.0
 10
353.994130
 20
87.524190
 30
0.0
 10
352.849060
 20
88.856350
 30
0.0
  0
SPLINE
  5
185
100
AcDbEntity
  8
Layer_1
 62
7
100
AcDbSpline
 70
8
 71
3
 72
8
 73
4
 74
0
 40
0
 40
0
 40
0
 40
0
 40
1
 40
1
 40
1
 40
1
 10
352.849060
 20
88.856350
 30
0.0
 10
352.070160
 20
89.762480
 30
0.0
 10
350.633910
 20
90.953050
 30
0.0
 10
349.657370
 20
91.502040
 30
0.0
  0
SPLINE
  5
186
100
AcDbEntity
  8
Layer_1
 62
7
100
AcDbSpline
 70
8
 71
3
 72
8
 73
4
 74
0
 40
0
 40
0
 40
0
 40
0
 40
1
 40
1
 40
1
 40
1
 10
349.657370
 20
91.502040
 30
0.0
 10
348.493240
 20
92.156500
 30
0.0
 10
347.441040
 20
93.815770
 30
0.0
 10
346.601690
 20
96.320630
 30
0.0
  0
SPLINE
  5
187
100
AcDbEntity
  8
Layer_1
 62
7
100
AcDbSpline
 70
8
 71
3
 72
8
 73
4
 74
0
 40
0
 40
0
 40
0
 40
0
 40
1
 40
1
 40
1
 40
1
 10
346.601690
 20
96.320630
 30
0.0
 10
344.706500
 20
101.976370
 30
0.0
 10
344.605480
 20
100.367950
 30
0.0
 10
346.422670
 20
93.470140
 30
0.0
  0
SPLINE
  5
188
100
AcDbEntity
  8
Layer_1
 62
7
100
AcDbSpline
 70
8
 71
3
 72
8
 73
4
 74
0
 40
0
 40
0
 40
0
 40
0
 40
1
 40
1
 40
1
 40
1
 10
346.422670
 20
93.470140
 30
0.0
 10
347.972730
 20
87.586220
 30
0.0
 10
347.989940
 20
85.547480
 30
0.0
 10
346.485870
 20
85.988780
 30
0.0
  0
SPLINE
  5
189
100
AcDbEntity
  8
Layer_1
 62
7
100
AcDbSpline
 70
8
 71
3
 72
8
 73
4
 74
0
 40
0
 40
0
 40
0
 40
0
 40
1
 40
1
 40
1
 40
1
 10
346.485870
 20
85.988780
 30
0.0
 10
346.077470
 20
86.108540
 30
0.0
 10
344.772870
 20
85.672370
 30
0.0
 10
343.586760
 20
85.019370
 30
0.0
  0
SPLINE
  5
18a
100
AcDbEntity
  8
Layer_1
 62
7
100
AcDbSpline
 70
8
 71
3
 72
8
 73
4
 74
0
 40
0
 40
0
 40
0
 40
0
 40
1
 40
1
 40
1
 40
1
 10
343.586760
 20
85.019370
 30
0.0
 10
341.485170
 20
83.862380
 30
0.0
 10
341.388450
 20
83.898170
 30
0.0
 10
339.791410
 20
86.423510
 30
0.0
  0
SPLINE
  5
18b
100
AcDbEntity
  8
Layer_1
 62
7
100
AcDbSpline
 70
8
 71
3
 72
8
 73
4
 74
0
 40
0
 40
0
 40
0
 40
0
 40
1
 40
1
 40
1
 40
1
 10
339.791410
 20
86.423510
 30
0.0
 10
338.263030
 20
88.840280
 30
0.0
 10
338.046250
 20
88.937210
 30
0.0
 10
336.574390
 20
87.861900
 30
0.0
  0
SPLINE
  5
18c
100
AcDbEntity
  8
Layer_1
 62
7
100
AcDbSpline
 70
8
 71
3
 72
8
 73
4
 74
0
 40
0
 40
0
 40
0
 40
0
 40
1
 40
1
 40
1
 40
1
 10
336.574390
 20
87.861900
 30
0.0
 10
334.449010
 20
86.309080
 30
0.0
 10
331.482210
 20
86.359520
 30
0.0
 10
329.731580
 20
87.978140
 30
0.0
  0
SPLINE
  5
18d
100
AcDbEntity
  8
Layer_1
 62
7
100
AcDbSpline
 70
8
 71
3
 72
8
 73
4
 74
0
 40
0
 40
0
 40
0
 40
0
 40
1
 40
1
 40
1
 40
1
 10
329.731580
 20
87.978140
 30
0.0
 10
328.378600
 20
89.229130
 30
0.0
 10
328.210250
 20
89.186170
 30
0.0
 10
326.844790
 20
87.241200
 30
0.0
  0
SPLINE
  5
18e
100
AcDbEntity
  8
Layer_1
 62
7
100
AcDbSpline
 70
8
 71
3
 72
8
 73
4
 74
0
 40
0
 40
0
 40
0
 40
0
 40
1
 40
1
 40
1
 40
1
 10
326.844790
 20
87.241200
 30
0.0
 10
326.047280
 20
86.105210
 30
0.0
 10
324.777260
 20
84.917060
 30
0.0
 10
324.022520
 20
84.600840
 30
0.0
  0
SPLINE
  5
18f
100
AcDbEntity
  8
Layer_1
 62
7
100
AcDbSpline
 70
8
 71
3
 72
8
 73
4
 74
0
 40
0
 40
0
 40
0
 40
0
 40
1
 40
1
 40
1
 40
1
 10
324.022520
 20
84.600840
 30
0.0
 10
321.864550
 20
83.696690
 30
0.0
 10
323.096890
 20
82.476990
 30
0.0
 10
326.168360
 20
82.476990
 30
0.0
  0
SPLINE
  5
190
100
AcDbEntity
  8
Layer_1
 62
7
100
AcDbSpline
 70
8
 71
3
 72
8
 73
4
 74
0
 40
0
 40
0
 40
0
 40
0
 40
1
 40
1
 40
1
 40
1
 10
326.168360
 20
82.476990
 30
0.0
 10
328.426920
 20
82.476990
 30
0.0
 10
329.153520
 20
82.089760
 30
0.0
 10
329.965880
 20
80.453090
 30
0.0
  0
SPLINE
  5
191
100
AcDbEntity
  8
Layer_1
 62
7
100
AcDbSpline
 70
8
 71
3
 72
8
 73
4
 74
0
 40
0
 40
0
 40
0
 40
0
 40
1
 40
1
 40
1
 40
1
 10
329.965880
 20
80.453090
 30
0.0
 10
331.071100
 20
78.226380
 30
0.0
 10
333.872090
 20
76.635240
 30
0.0
 10
336.686640
 20
76.635240
 30
0.0
  0
SPLINE
  5
192
100
AcDbEntity
  8
Layer_1
 62
7
100
AcDbSpline
 70
8
 71
3
 72
8
 73
4
 74
0
 40
0
 40
0
 40
0
 40
0
 40
1
 40
1
 40
1
 40
1
 10
336.686640
 20
76.635240
 30
0.0
 10
338.078670
 20
76.635240
 30
0.0
 10
338.668430
 20
76.097630
 30
0.0
 10
339.204290
 20
74.340270
 30
0.0
  0
SPLINE
  5
193
100
AcDbEntity
  8
Layer_1
 62
7
100
AcDbSpline
 70
8
 71
3
 72
8
 73
4
 74
0
 40
0
 40
0
 40
0
 40
0
 40
1
 40
1
 40
1
 40
1
 10
339.204290
 20
74.340270
 30
0.0
 10
340.069770
 20
71.501810
 30
0.0
 10
340.198140
 20
67.658890
 30
0.0
 10
339.512730
 20
65.105880
 30
0.0
  0
LWPOLYLINE
  5
194
100
AcDbEntity
  8
Layer_1
 62
7
100
AcDbPolyline
 90
3
 70
0
 10
360.938520
 20
119.471620
 30
0.0
 10
360.495930
 20
125.400760
 30
0.0
 10
359.281490
 20
123.341860
 30
0.0
  0
SPLINE
  5
195
100
AcDbEntity
  8
Layer_1
 62
7
100
AcDbSpline
 70
8
 71
3
 72
8
 73
4
 74
0
 40
0
 40
0
 40
0
 40
0
 40
1
 40
1
 40
1
 40
1
 10
341.553240
 20
64.897250
 30
0.0
 10
345.191270
 20
67.347320
 30
0.0
 10
346.300290
 20
67.197510
 30
0.0
 10
345.783320
 20
64.325830
 30
0.0
  0
SPLINE
  5
196
100
AcDbEntity
  8
Layer_1
 62
7
100
AcDbSpline
 70
8
 71
3
 72
8
 73
4
 74
0
 40
0
 40
0
 40
0
 40
0
 40
1
 40
1
 40
1
 40
1
 10
345.783320
 20
64.325830
 30
0.0
 10
345.177480
 20
60.960510
 30
0.0
 10
343.412490
 20
58.051760
 30
0.0
 10
340.985810
 20
56.419340
 30
0.0
  0
SPLINE
  5
197
100
AcDbEntity
  8
Layer_1
 62
7
100
AcDbSpline
 70
8
 71
3
 72
8
 73
4
 74
0
 40
0
 40
0
 40
0
 40
0
 40
1
 40
1
 40
1
 40
1
 10
340.985810
 20
56.419340
 30
0.0
 10
339.809410
 20
55.627970
 30
0.0
 10
337.834800
 20
53.518890
 30
0.0
 10
336.597810
 20
51.732470
 30
0.0
  0
SPLINE
  5
198
100
AcDbEntity
  8
Layer_1
 62
7
100
AcDbSpline
 70
8
 71
3
 72
8
 73
4
 74
0
 40
0
 40
0
 40
0
 40
0
 40
1
 40
1
 40
1
 40
1
 10
336.597810
 20
51.732470
 30
0.0
 10
334.856170
 20
49.217280
 30
0.0
 10
333.594600
 20
48.270960
 30
0.0
 10
331.006300
 20
47.538190
 30
0.0
  0
SPLINE
  5
199
100
AcDbEntity
  8
Layer_1
 62
7
100
AcDbSpline
 70
8
 71
3
 72
8
 73
4
 74
0
 40
0
 40
0
 40
0
 40
0
 40
1
 40
1
 40
1
 40
1
 10
331.006300
 20
47.538190
 30
0.0
 10
325.808890
 20
46.066760
 30
0.0
 10
325.829550
 20
46.053760
 30
0.0
 10
325.829550
 20
50.797850
 30
0.0
  0
SPLINE
  5
19a
100
AcDbEntity
  8
Layer_1
 62
7
100
AcDbSpline
 70
8
 71
3
 72
8
 73
4
 74
0
 40
0
 40
0
 40
0
 40
0
 40
1
 40
1
 40
1
 40
1
 10
325.829550
 20
50.797850
 30
0.0
 10
325.829550
 20
53.356860
 30
0.0
 10
325.334460
 20
56.284850
 30
0.0
 10
324.565180
 20
58.275430
 30
0.0
  0
SPLINE
  5
19b
100
AcDbEntity
  8
Layer_1
 62
7
100
AcDbSpline
 70
8
 71
3
 72
8
 73
4
 74
0
 40
0
 40
0
 40
0
 40
0
 40
1
 40
1
 40
1
 40
1
 10
324.565180
 20
58.275430
 30
0.0
 10
323.869780
 20
60.074850
 30
0.0
 10
323.300820
 20
62.242860
 30
0.0
 10
323.300820
 20
63.093260
 30
0.0
  0
SPLINE
  5
19c
100
AcDbEntity
  8
Layer_1
 62
7
100
AcDbSpline
 70
8
 71
3
 72
8
 73
4
 74
0
 40
0
 40
0
 40
0
 40
0
 40
1
 40
1
 40
1
 40
1
 10
323.300820
 20
63.093260
 30
0.0
 10
323.300820
 20
63.943660
 30
0.0
 10
322.462510
 20
65.699680
 30
0.0
 10
321.437910
 20
66.995520
 30
0.0
  0
LWPOLYLINE
  5
19d
100
AcDbEntity
  8
Layer_1
 62
7
100
AcDbPolyline
 90
3
 70
0
 10
339.512730
 20
65.105880
 30
0.0
 10
338.993990
 20
63.173710
 30
0.0
 10
341.553240
 20
64.897250
 30
0.0
  0
SPLINE
  5
19e
100
AcDbEntity
  8
Layer_1
 62
7
100
AcDbSpline
 70
8
 71
3
 72
8
 73
4
 74
0
 40
0
 40
0
 40
0
 40
0
 40
1
 40
1
 40
1
 40
1
 10
319.151820
 20
67.125810
 30
0.0
 10
318.889310
 20
65.745060
 30
0.0
 10
319.280240
 20
62.380020
 30
0.0
 10
320.181540
 20
58.262430
 30
0.0
  0
SPLINE
  5
19f
100
AcDbEntity
  8
Layer_1
 62
7
100
AcDbSpline
 70
8
 71
3
 72
8
 73
4
 74
0
 40
0
 40
0
 40
0
 40
0
 40
1
 40
1
 40
1
 40
1
 10
320.181540
 20
58.262430
 30
0.0
 10
320.980640
 20
54.611740
 30
0.0
 10
321.481130
 20
51.422450
 30
0.0
 10
321.293760
 20
51.175070
 30
0.0
  0
SPLINE
  5
1a0
100
AcDbEntity
  8
Layer_1
 62
7
100
AcDbSpline
 70
8
 71
3
 72
8
 73
4
 74
0
 40
0
 40
0
 40
0
 40
0
 40
1
 40
1
 40
1
 40
1
 10
321.293760
 20
51.175070
 30
0.0
 10
319.998130
 20
49.464730
 30
0.0
 10
315.243120
 20
57.030310
 30
0.0
 10
313.701650
 20
63.254720
 30
0.0
  0
SPLINE
  5
1a1
100
AcDbEntity
  8
Layer_1
 62
7
100
AcDbSpline
 70
8
 71
3
 72
8
 73
4
 74
0
 40
0
 40
0
 40
0
 40
0
 40
1
 40
1
 40
1
 40
1
 10
313.701650
 20
63.254720
 30
0.0
 10
313.019390
 20
66.009640
 30
0.0
 10
312.060110
 20
67.649970
 30
0.0
 10
310.024960
 20
69.541680
 30
0.0
  0
SPLINE
  5
1a2
100
AcDbEntity
  8
Layer_1
 62
7
100
AcDbSpline
 70
8
 71
3
 72
8
 73
4
 74
0
 40
0
 40
0
 40
0
 40
0
 40
1
 40
1
 40
1
 40
1
 10
310.024960
 20
69.541680
 30
0.0
 10
308.090540
 20
71.339760
 30
0.0
 10
307.015840
 20
73.113250
 30
0.0
 10
306.412330
 20
75.503340
 30
0.0
  0
SPLINE
  5
1a3
100
AcDbEntity
  8
Layer_1
 62
7
100
AcDbSpline
 70
8
 71
3
 72
8
 73
4
 74
0
 40
0
 40
0
 40
0
 40
0
 40
1
 40
1
 40
1
 40
1
 10
306.412330
 20
75.503340
 30
0.0
 10
305.573820
 20
78.824010
 30
0.0
 10
302.787810
 20
83.215930
 30
0.0
 10
302.097710
 20
82.304950
 30
0.0
  0
SPLINE
  5
1a4
100
AcDbEntity
  8
Layer_1
 62
7
100
AcDbSpline
 70
8
 71
3
 72
8
 73
4
 74
0
 40
0
 40
0
 40
0
 40
0
 40
1
 40
1
 40
1
 40
1
 10
302.097710
 20
82.304950
 30
0.0
 10
301.613870
 20
81.666220
 30
0.0
 10
303.001350
 20
67.517280
 30
0.0
 10
303.722190
 20
65.739240
 30
0.0
  0
SPLINE
  5
1a5
100
AcDbEntity
  8
Layer_1
 62
7
100
AcDbSpline
 70
8
 71
3
 72
8
 73
4
 74
0
 40
0
 40
0
 40
0
 40
0
 40
1
 40
1
 40
1
 40
1
 10
303.722190
 20
65.739240
 30
0.0
 10
304.047510
 20
64.936850
 30
0.0
 10
305.740960
 20
62.897240
 30
0.0
 10
307.485420
 20
61.206800
 30
0.0
  0
SPLINE
  5
1a6
100
AcDbEntity
  8
Layer_1
 62
7
100
AcDbSpline
 70
8
 71
3
 72
8
 73
4
 74
0
 40
0
 40
0
 40
0
 40
0
 40
1
 40
1
 40
1
 40
1
 10
307.485420
 20
61.206800
 30
0.0
 10
309.229870
 20
59.516360
 30
0.0
 10
310.657160
 20
57.568460
 30
0.0
 10
310.657160
 20
56.878110
 30
0.0
  0
SPLINE
  5
1a7
100
AcDbEntity
  8
Layer_1
 62
7
100
AcDbSpline
 70
8
 71
3
 72
8
 73
4
 74
0
 40
0
 40
0
 40
0
 40
0
 40
1
 40
1
 40
1
 40
1
 10
310.657160
 20
56.878110
 30
0.0
 10
310.657160
 20
55.607260
 30
0.0
 10
305.948730
 20
49.096740
 30
0.0
 10
303.880170
 20
47.507330
 30
0.0
  0
SPLINE
  5
1a8
100
AcDbEntity
  8
Layer_1
 62
7
100
AcDbSpline
 70
8
 71
3
 72
8
 73
4
 74
0
 40
0
 40
0
 40
0
 40
0
 40
1
 40
1
 40
1
 40
1
 10
303.880170
 20
47.507330
 30
0.0
 10
302.829660
 20
46.700130
 30
0.0
 10
302.827790
 20
46.640990
 30
0.0
 10
303.852070
 20
46.617300
 30
0.0
  0
SPLINE
  5
1a9
100
AcDbEntity
  8
Layer_1
 62
7
100
AcDbSpline
 70
8
 71
3
 72
8
 73
4
 74
0
 40
0
 40
0
 40
0
 40
0
 40
1
 40
1
 40
1
 40
1
 10
303.852070
 20
46.617300
 30
0.0
 10
304.455550
 20
46.603300
 30
0.0
 10
306.233560
 20
47.045350
 30
0.0
 10
307.803210
 20
47.599530
 30
0.0
  0
SPLINE
  5
1aa
100
AcDbEntity
  8
Layer_1
 62
7
100
AcDbSpline
 70
8
 71
3
 72
8
 73
4
 74
0
 40
0
 40
0
 40
0
 40
0
 40
1
 40
1
 40
1
 40
1
 10
307.803210
 20
47.599530
 30
0.0
 10
311.393890
 20
48.867300
 30
0.0
 10
316.065120
 20
47.473880
 30
0.0
 10
317.927210
 20
44.579570
 30
0.0
  0
SPLINE
  5
1ab
100
AcDbEntity
  8
Layer_1
 62
7
100
AcDbSpline
 70
8
 71
3
 72
8
 73
4
 74
0
 40
0
 40
0
 40
0
 40
0
 40
1
 40
1
 40
1
 40
1
 10
317.927210
 20
44.579570
 30
0.0
 10
318.622610
 20
43.498680
 30
0.0
 10
319.839250
 20
42.354180
 30
0.0
 10
320.630830
 20
42.036220
 30
0.0
  0
SPLINE
  5
1ac
100
AcDbEntity
  8
Layer_1
 62
7
100
AcDbSpline
 70
8
 71
3
 72
8
 73
4
 74
0
 40
0
 40
0
 40
0
 40
0
 40
1
 40
1
 40
1
 40
1
 10
320.630830
 20
42.036220
 30
0.0
 10
323.090200
 20
41.048350
 30
0.0
 10
324.015530
 20
38.215520
 30
0.0
 10
323.557880
 20
33.075200
 30
0.0
  0
SPLINE
  5
1ad
100
AcDbEntity
  8
Layer_1
 62
7
100
AcDbSpline
 70
8
 71
3
 72
8
 73
4
 74
0
 40
0
 40
0
 40
0
 40
0
 40
1
 40
1
 40
1
 40
1
 10
323.557880
 20
33.075200
 30
0.0
 10
323.193190
 20
28.979070
 30
0.0
 10
322.794040
 20
28.021940
 30
0.0
 10
319.681790
 20
23.780520
 30
0.0
  0
SPLINE
  5
1ae
100
AcDbEntity
  8
Layer_1
 62
7
100
AcDbSpline
 70
8
 71
3
 72
8
 73
4
 74
0
 40
0
 40
0
 40
0
 40
0
 40
1
 40
1
 40
1
 40
1
 10
319.681790
 20
23.780520
 30
0.0
 10
317.773550
 20
21.179950
 30
0.0
 10
315.845260
 20
19.052210
 30
0.0
 10
315.396710
 20
19.052210
 30
0.0
  0
SPLINE
  5
1af
100
AcDbEntity
  8
Layer_1
 62
7
100
AcDbSpline
 70
8
 71
3
 72
8
 73
4
 74
0
 40
0
 40
0
 40
0
 40
0
 40
1
 40
1
 40
1
 40
1
 10
315.396710
 20
19.052210
 30
0.0
 10
314.850860
 20
19.052210
 30
0.0
 10
314.329620
 20
21.467010
 30
0.0
 10
313.820530
 20
26.354400
 30
0.0
  0
SPLINE
  5
1b0
100
AcDbEntity
  8
Layer_1
 62
7
100
AcDbSpline
 70
8
 71
3
 72
8
 73
4
 74
0
 40
0
 40
0
 40
0
 40
0
 40
1
 40
1
 40
1
 40
1
 10
313.820530
 20
26.354400
 30
0.0
 10
312.774350
 20
36.397870
 30
0.0
 10
312.719800
 20
36.545180
 30
0.0
 10
311.238000
 20
33.328630
 30
0.0
  0
SPLINE
  5
1b1
100
AcDbEntity
  8
Layer_1
 62
7
100
AcDbSpline
 70
8
 71
3
 72
8
 73
4
 74
0
 40
0
 40
0
 40
0
 40
0
 40
1
 40
1
 40
1
 40
1
 10
311.238000
 20
33.328630
 30
0.0
 10
310.073980
 20
30.801870
 30
0.0
 10
309.760440
 20
30.612450
 30
0.0
 10
307.171450
 20
30.871890
 30
0.0
  0
SPLINE
  5
1b2
100
AcDbEntity
  8
Layer_1
 62
7
100
AcDbSpline
 70
8
 71
3
 72
8
 73
4
 74
0
 40
0
 40
0
 40
0
 40
0
 40
1
 40
1
 40
1
 40
1
 10
307.171450
 20
30.871890
 30
0.0
 10
305.628540
 20
31.026490
 30
0.0
 10
304.308320
 20
30.777390
 30
0.0
 10
304.237620
 20
30.318450
 30
0.0
  0
SPLINE
  5
1b3
100
AcDbEntity
  8
Layer_1
 62
7
100
AcDbSpline
 70
8
 71
3
 72
8
 73
4
 74
0
 40
0
 40
0
 40
0
 40
0
 40
1
 40
1
 40
1
 40
1
 10
304.237620
 20
30.318450
 30
0.0
 10
304.166920
 20
29.859460
 30
0.0
 10
305.205190
 20
28.501240
 30
0.0
 10
306.544870
 20
27.300210
 30
0.0
  0
SPLINE
  5
1b4
100
AcDbEntity
  8
Layer_1
 62
7
100
AcDbSpline
 70
8
 71
3
 72
8
 73
4
 74
0
 40
0
 40
0
 40
0
 40
0
 40
1
 40
1
 40
1
 40
1
 10
306.544870
 20
27.300210
 30
0.0
 10
309.127200
 20
24.985120
 30
0.0
 10
310.973090
 20
19.539430
 30
0.0
 10
310.358030
 20
16.050820
 30
0.0
  0
SPLINE
  5
1b5
100
AcDbEntity
  8
Layer_1
 62
7
100
AcDbSpline
 70
8
 71
3
 72
8
 73
4
 74
0
 40
0
 40
0
 40
0
 40
0
 40
1
 40
1
 40
1
 40
1
 10
310.358030
 20
16.050820
 30
0.0
 10
310.011330
 20
14.084470
 30
0.0
 10
301.199670
 20
4.805180
 30
0.0
 10
299.839370
 20
4.973990
 30
0.0
  0
SPLINE
  5
1b6
100
AcDbEntity
  8
Layer_1
 62
7
100
AcDbSpline
 70
8
 71
3
 72
8
 73
4
 74
0
 40
0
 40
0
 40
0
 40
0
 40
1
 40
1
 40
1
 40
1
 10
299.839370
 20
4.973990
 30
0.0
 10
299.356670
 20
5.033890
 30
0.0
 10
297.871560
 20
5.830630
 30
0.0
 10
296.539140
 20
6.744520
 30
0.0
  0
LWPOLYLINE
  5
1b7
100
AcDbEntity
  8
Layer_1
 62
7
100
AcDbPolyline
 90
3
 70
0
 10
321.437910
 20
66.995520
 30
0.0
 10
319.575000
 20
69.351570
 30
0.0
 10
319.151820
 20
67.125810
 30
0.0
  0
SPLINE
  5
1b8
100
AcDbEntity
  8
Layer_1
 62
7
100
AcDbSpline
 70
8
 71
3
 72
8
 73
4
 74
0
 40
0
 40
0
 40
0
 40
0
 40
1
 40
1
 40
1
 40
1
 10
303.703070
 20
10.289620
 30
0.0
 10
305.610500
 20
12.355090
 30
0.0
 10
307.376470
 20
14.045040
 30
0.0
 10
307.627490
 20
14.045040
 30
0.0
  0
SPLINE
  5
1b9
100
AcDbEntity
  8
Layer_1
 62
7
100
AcDbSpline
 70
8
 71
3
 72
8
 73
4
 74
0
 40
0
 40
0
 40
0
 40
0
 40
1
 40
1
 40
1
 40
1
 10
307.627490
 20
14.045040
 30
0.0
 10
308.794630
 20
14.045040
 30
0.0
 10
309.286020
 20
17.238920
 30
0.0
 10
308.637640
 20
20.610890
 30
0.0
  0
SPLINE
  5
1ba
100
AcDbEntity
  8
Layer_1
 62
7
100
AcDbSpline
 70
8
 71
3
 72
8
 73
4
 74
0
 40
0
 40
0
 40
0
 40
0
 40
1
 40
1
 40
1
 40
1
 10
308.637640
 20
20.610890
 30
0.0
 10
308.101050
 20
23.401610
 30
0.0
 10
307.449040
 20
24.521750
 30
0.0
 10
305.514490
 20
25.976410
 30
0.0
  0
SPLINE
  5
1bb
100
AcDbEntity
  8
Layer_1
 62
7
100
AcDbSpline
 70
8
 71
3
 72
8
 73
4
 74
0
 40
0
 40
0
 40
0
 40
0
 40
1
 40
1
 40
1
 40
1
 10
305.514490
 20
25.976410
 30
0.0
 10
301.010460
 20
29.363170
 30
0.0
 10
301.724180
 20
33.733390
 30
0.0
 10
306.622920
 20
32.763640
 30
0.0
  0
SPLINE
  5
1bc
100
AcDbEntity
  8
Layer_1
 62
7
100
AcDbSpline
 70
8
 71
3
 72
8
 73
4
 74
0
 40
0
 40
0
 40
0
 40
0
 40
1
 40
1
 40
1
 40
1
 10
306.622920
 20
32.763640
 30
0.0
 10
309.271010
 20
32.239420
 30
0.0
 10
309.378240
 20
32.308140
 30
0.0
 10
310.422430
 20
35.198710
 30
0.0
  0
SPLINE
  5
1bd
100
AcDbEntity
  8
Layer_1
 62
7
100
AcDbSpline
 70
8
 71
3
 72
8
 73
4
 74
0
 40
0
 40
0
 40
0
 40
0
 40
1
 40
1
 40
1
 40
1
 10
310.422430
 20
35.198710
 30
0.0
 10
311.366910
 20
37.813290
 30
0.0
 10
312.961850
 20
39.654980
 30
0.0
 10
313.577630
 20
38.842080
 30
0.0
  0
SPLINE
  5
1be
100
AcDbEntity
  8
Layer_1
 62
7
100
AcDbSpline
 70
8
 71
3
 72
8
 73
4
 74
0
 40
0
 40
0
 40
0
 40
0
 40
1
 40
1
 40
1
 40
1
 10
313.577630
 20
38.842080
 30
0.0
 10
313.693610
 20
38.689000
 30
0.0
 10
314.080770
 20
35.769700
 30
0.0
 10
314.437980
 20
32.354770
 30
0.0
  0
SPLINE
  5
1bf
100
AcDbEntity
  8
Layer_1
 62
7
100
AcDbSpline
 70
8
 71
3
 72
8
 73
4
 74
0
 40
0
 40
0
 40
0
 40
0
 40
1
 40
1
 40
1
 40
1
 10
314.437980
 20
32.354770
 30
0.0
 10
314.795190
 20
28.939840
 30
0.0
 10
315.258050
 20
25.071660
 30
0.0
 10
315.466550
 20
23.758800
 30
0.0
  0
LWPOLYLINE
  5
1c0
100
AcDbEntity
  8
Layer_1
 62
7
100
AcDbPolyline
 90
1
 70
1
 10
296.539140
 20
6.744520
 30
0.0
  0
SPLINE
  5
1c1
100
AcDbEntity
  8
Layer_1
 62
7
100
AcDbSpline
 70
8
 71
3
 72
8
 73
4
 74
0
 40
0
 40
0
 40
0
 40
0
 40
1
 40
1
 40
1
 40
1
 10
318.866410
 20
25.299530
 30
0.0
 10
321.520190
 20
28.750040
 30
0.0
 10
321.926640
 20
29.749810
 30
0.0
 10
322.211870
 20
33.528300
 30
0.0
  0
SPLINE
  5
1c2
100
AcDbEntity
  8
Layer_1
 62
7
100
AcDbSpline
 70
8
 71
3
 72
8
 73
4
 74
0
 40
0
 40
0
 40
0
 40
0
 40
1
 40
1
 40
1
 40
1
 10
322.211870
 20
33.528300
 30
0.0
 10
322.568610
 20
38.253710
 30
0.0
 10
321.579470
 20
40.750210
 30
0.0
 10
319.350470
 20
40.750210
 30
0.0
  0
SPLINE
  5
1c3
100
AcDbEntity
  8
Layer_1
 62
7
100
AcDbSpline
 70
8
 71
3
 72
8
 73
4
 74
0
 40
0
 40
0
 40
0
 40
0
 40
1
 40
1
 40
1
 40
1
 10
319.350470
 20
40.750210
 30
0.0
 10
318.666100
 20
40.750210
 30
0.0
 10
317.982230
 20
41.470450
 30
0.0
 10
317.801800
 20
42.381240
 30
0.0
  0
SPLINE
  5
1c4
100
AcDbEntity
  8
Layer_1
 62
7
100
AcDbSpline
 70
8
 71
3
 72
8
 73
4
 74
0
 40
0
 40
0
 40
0
 40
0
 40
1
 40
1
 40
1
 40
1
 10
317.801800
 20
42.381240
 30
0.0
 10
317.590900
 20
43.445890
 30
0.0
 10
316.373600
 20
44.496810
 30
0.0
 10
314.296290
 20
45.407630
 30
0.0
  0
SPLINE
  5
1c5
100
AcDbEntity
  8
Layer_1
 62
7
100
AcDbSpline
 70
8
 71
3
 72
8
 73
4
 74
0
 40
0
 40
0
 40
0
 40
0
 40
1
 40
1
 40
1
 40
1
 10
314.296290
 20
45.407630
 30
0.0
 10
311.585800
 20
46.596080
 30
0.0
 10
310.634740
 20
46.652390
 30
0.0
 10
307.882620
 20
45.787300
 30
0.0
  0
SPLINE
  5
1c6
100
AcDbEntity
  8
Layer_1
 62
7
100
AcDbSpline
 70
8
 71
3
 72
8
 73
4
 74
0
 40
0
 40
0
 40
0
 40
0
 40
1
 40
1
 40
1
 40
1
 10
307.882620
 20
45.787300
 30
0.0
 10
302.077010
 20
43.962390
 30
0.0
 10
297.280110
 20
46.031090
 30
0.0
 10
301.640250
 20
48.479370
 30
0.0
  0
SPLINE
  5
1c7
100
AcDbEntity
  8
Layer_1
 62
7
100
AcDbSpline
 70
8
 71
3
 72
8
 73
4
 74
0
 40
0
 40
0
 40
0
 40
0
 40
1
 40
1
 40
1
 40
1
 10
301.640250
 20
48.479370
 30
0.0
 10
303.398190
 20
49.466470
 30
0.0
 10
309.392720
 20
55.926030
 30
0.0
 10
309.392720
 20
56.833260
 30
0.0
  0
SPLINE
  5
1c8
100
AcDbEntity
  8
Layer_1
 62
7
100
AcDbSpline
 70
8
 71
3
 72
8
 73
4
 74
0
 40
0
 40
0
 40
0
 40
0
 40
1
 40
1
 40
1
 40
1
 10
309.392720
 20
56.833260
 30
0.0
 10
309.392720
 20
57.071780
 30
0.0
 10
308.015750
 20
58.433380
 30
0.0
 10
306.332760
 20
59.859020
 30
0.0
  0
SPLINE
  5
1c9
100
AcDbEntity
  8
Layer_1
 62
7
100
AcDbSpline
 70
8
 71
3
 72
8
 73
4
 74
0
 40
0
 40
0
 40
0
 40
0
 40
1
 40
1
 40
1
 40
1
 10
306.332760
 20
59.859020
 30
0.0
 10
302.632750
 20
62.993310
 30
0.0
 10
301.897090
 20
64.948320
 30
0.0
 10
301.137690
 20
73.665130
 30
0.0
  0
SPLINE
  5
1ca
100
AcDbEntity
  8
Layer_1
 62
7
100
AcDbSpline
 70
8
 71
3
 72
8
 73
4
 74
0
 40
0
 40
0
 40
0
 40
0
 40
1
 40
1
 40
1
 40
1
 10
301.137690
 20
73.665130
 30
0.0
 10
300.275330
 20
83.563540
 30
0.0
 10
300.343560
 20
84.980650
 30
0.0
 10
301.682510
 20
84.980650
 30
0.0
  0
SPLINE
  5
1cb
100
AcDbEntity
  8
Layer_1
 62
7
100
AcDbSpline
 70
8
 71
3
 72
8
 73
4
 74
0
 40
0
 40
0
 40
0
 40
0
 40
1
 40
1
 40
1
 40
1
 10
301.682510
 20
84.980650
 30
0.0
 10
303.247750
 20
84.980650
 30
0.0
 10
306.549580
 20
80.260200
 30
0.0
 10
307.811750
 20
76.218020
 30
0.0
  0
SPLINE
  5
1cc
100
AcDbEntity
  8
Layer_1
 62
7
100
AcDbSpline
 70
8
 71
3
 72
8
 73
4
 74
0
 40
0
 40
0
 40
0
 40
0
 40
1
 40
1
 40
1
 40
1
 10
307.811750
 20
76.218020
 30
0.0
 10
308.427710
 20
74.245350
 30
0.0
 10
309.913910
 20
71.855750
 30
0.0
 10
311.444990
 20
70.376260
 30
0.0
  0
SPLINE
  5
1cd
100
AcDbEntity
  8
Layer_1
 62
7
100
AcDbSpline
 70
8
 71
3
 72
8
 73
4
 74
0
 40
0
 40
0
 40
0
 40
0
 40
1
 40
1
 40
1
 40
1
 10
311.444990
 20
70.376260
 30
0.0
 10
313.284120
 20
68.599080
 30
0.0
 10
314.325280
 20
66.752710
 30
0.0
 10
315.033270
 20
64.012790
 30
0.0
  0
SPLINE
  5
1ce
100
AcDbEntity
  8
Layer_1
 62
7
100
AcDbSpline
 70
8
 71
3
 72
8
 73
4
 74
0
 40
0
 40
0
 40
0
 40
0
 40
1
 40
1
 40
1
 40
1
 10
315.033270
 20
64.012790
 30
0.0
 10
315.581820
 20
61.889880
 30
0.0
 10
316.342080
 20
59.636640
 30
0.0
 10
316.722730
 20
59.005580
 30
0.0
  0
SPLINE
  5
1cf
100
AcDbEntity
  8
Layer_1
 62
7
100
AcDbSpline
 70
8
 71
3
 72
8
 73
4
 74
0
 40
0
 40
0
 40
0
 40
0
 40
1
 40
1
 40
1
 40
1
 10
316.722730
 20
59.005580
 30
0.0
 10
317.103380
 20
58.374520
 30
0.0
 10
317.599220
 20
57.177210
 30
0.0
 10
317.824580
 20
56.344890
 30
0.0
  0
SPLINE
  5
1d0
100
AcDbEntity
  8
Layer_1
 62
7
100
AcDbSpline
 70
8
 71
3
 72
8
 73
4
 74
0
 40
0
 40
0
 40
0
 40
0
 40
1
 40
1
 40
1
 40
1
 10
317.824580
 20
56.344890
 30
0.0
 10
318.049960
 20
55.512550
 30
0.0
 10
318.505610
 20
55.052860
 30
0.0
 10
318.837160
 20
55.323350
 30
0.0
  0
SPLINE
  5
1d1
100
AcDbEntity
  8
Layer_1
 62
7
100
AcDbSpline
 70
8
 71
3
 72
8
 73
4
 74
0
 40
0
 40
0
 40
0
 40
0
 40
1
 40
1
 40
1
 40
1
 10
318.837160
 20
55.323350
 30
0.0
 10
319.203580
 20
55.622300
 30
0.0
 10
319.081370
 20
57.156950
 30
0.0
 10
318.525540
 20
59.236590
 30
0.0
  0
SPLINE
  5
1d2
100
AcDbEntity
  8
Layer_1
 62
7
100
AcDbSpline
 70
8
 71
3
 72
8
 73
4
 74
0
 40
0
 40
0
 40
0
 40
0
 40
1
 40
1
 40
1
 40
1
 10
318.525540
 20
59.236590
 30
0.0
 10
317.215510
 20
64.138090
 30
0.0
 10
317.511980
 20
69.050920
 30
0.0
 10
319.319480
 20
72.392940
 30
0.0
  0
SPLINE
  5
1d3
100
AcDbEntity
  8
Layer_1
 62
7
100
AcDbSpline
 70
8
 71
3
 72
8
 73
4
 74
0
 40
0
 40
0
 40
0
 40
0
 40
1
 40
1
 40
1
 40
1
 10
319.319480
 20
72.392940
 30
0.0
 10
319.738600
 20
73.167880
 30
0.0
 10
324.565110
 20
65.395040
 30
0.0
 10
324.565110
 20
63.945140
 30
0.0
  0
SPLINE
  5
1d4
100
AcDbEntity
  8
Layer_1
 62
7
100
AcDbSpline
 70
8
 71
3
 72
8
 73
4
 74
0
 40
0
 40
0
 40
0
 40
0
 40
1
 40
1
 40
1
 40
1
 10
324.565110
 20
63.945140
 30
0.0
 10
324.565110
 20
63.085230
 30
0.0
 10
325.134080
 20
60.909420
 30
0.0
 10
325.829470
 20
59.110020
 30
0.0
  0
SPLINE
  5
1d5
100
AcDbEntity
  8
Layer_1
 62
7
100
AcDbSpline
 70
8
 71
3
 72
8
 73
4
 74
0
 40
0
 40
0
 40
0
 40
0
 40
1
 40
1
 40
1
 40
1
 10
325.829470
 20
59.110020
 30
0.0
 10
326.524880
 20
57.310610
 30
0.0
 10
327.093840
 20
54.343400
 30
0.0
 10
327.093840
 20
52.516230
 30
0.0
  0
SPLINE
  5
1d6
100
AcDbEntity
  8
Layer_1
 62
7
100
AcDbSpline
 70
8
 71
3
 72
8
 73
4
 74
0
 40
0
 40
0
 40
0
 40
0
 40
1
 40
1
 40
1
 40
1
 10
327.093840
 20
52.516230
 30
0.0
 10
327.093840
 20
50.689040
 30
0.0
 10
327.307200
 20
49.029310
 30
0.0
 10
327.567970
 20
48.827920
 30
0.0
  0
SPLINE
  5
1d7
100
AcDbEntity
  8
Layer_1
 62
7
100
AcDbSpline
 70
8
 71
3
 72
8
 73
4
 74
0
 40
0
 40
0
 40
0
 40
0
 40
1
 40
1
 40
1
 40
1
 10
327.567970
 20
48.827920
 30
0.0
 10
327.828750
 20
48.626530
 30
0.0
 10
329.401320
 20
48.924520
 30
0.0
 10
331.062560
 20
49.490080
 30
0.0
  0
SPLINE
  5
1d8
100
AcDbEntity
  8
Layer_1
 62
7
100
AcDbSpline
 70
8
 71
3
 72
8
 73
4
 74
0
 40
0
 40
0
 40
0
 40
0
 40
1
 40
1
 40
1
 40
1
 10
331.062560
 20
49.490080
 30
0.0
 10
333.302290
 20
50.252610
 30
0.0
 10
334.663100
 20
51.413060
 30
0.0
 10
336.327320
 20
53.979670
 30
0.0
  0
SPLINE
  5
1d9
100
AcDbEntity
  8
Layer_1
 62
7
100
AcDbSpline
 70
8
 71
3
 72
8
 73
4
 74
0
 40
0
 40
0
 40
0
 40
0
 40
1
 40
1
 40
1
 40
1
 10
336.327320
 20
53.979670
 30
0.0
 10
337.561710
 20
55.883370
 30
0.0
 10
338.998100
 20
57.440940
 30
0.0
 10
339.519310
 20
57.440940
 30
0.0
  0
SPLINE
  5
1da
100
AcDbEntity
  8
Layer_1
 62
7
100
AcDbSpline
 70
8
 71
3
 72
8
 73
4
 74
0
 40
0
 40
0
 40
0
 40
0
 40
1
 40
1
 40
1
 40
1
 10
339.519310
 20
57.440940
 30
0.0
 10
340.040510
 20
57.440940
 30
0.0
 10
341.298510
 20
58.538680
 30
0.0
 10
342.314860
 20
59.880370
 30
0.0
  0
SPLINE
  5
1db
100
AcDbEntity
  8
Layer_1
 62
7
100
AcDbSpline
 70
8
 71
3
 72
8
 73
4
 74
0
 40
0
 40
0
 40
0
 40
0
 40
1
 40
1
 40
1
 40
1
 10
342.314860
 20
59.880370
 30
0.0
 10
345.707990
 20
64.359570
 30
0.0
 10
344.060080
 20
65.838550
 30
0.0
 10
340.345810
 20
61.647540
 30
0.0
  0
SPLINE
  5
1dc
100
AcDbEntity
  8
Layer_1
 62
7
100
AcDbSpline
 70
8
 71
3
 72
8
 73
4
 74
0
 40
0
 40
0
 40
0
 40
0
 40
1
 40
1
 40
1
 40
1
 10
340.345810
 20
61.647540
 30
0.0
 10
336.484560
 20
57.290690
 30
0.0
 10
335.685280
 20
58.708120
 30
0.0
 10
338.012000
 20
65.786310
 30
0.0
  0
SPLINE
  5
1dd
100
AcDbEntity
  8
Layer_1
 62
7
100
AcDbSpline
 70
8
 71
3
 72
8
 73
4
 74
0
 40
0
 40
0
 40
0
 40
0
 40
1
 40
1
 40
1
 40
1
 10
338.012000
 20
65.786310
 30
0.0
 10
338.785850
 20
68.140460
 30
0.0
 10
338.831730
 20
69.273910
 30
0.0
 10
338.248500
 20
71.628070
 30
0.0
  0
SPLINE
  5
1de
100
AcDbEntity
  8
Layer_1
 62
7
100
AcDbSpline
 70
8
 71
3
 72
8
 73
4
 74
0
 40
0
 40
0
 40
0
 40
0
 40
1
 40
1
 40
1
 40
1
 10
338.248500
 20
71.628070
 30
0.0
 10
337.615710
 20
74.182230
 30
0.0
 10
337.207380
 20
74.607070
 30
0.0
 10
334.996130
 20
75.011920
 30
0.0
  0
SPLINE
  5
1df
100
AcDbEntity
  8
Layer_1
 62
7
100
AcDbSpline
 70
8
 71
3
 72
8
 73
4
 74
0
 40
0
 40
0
 40
0
 40
0
 40
1
 40
1
 40
1
 40
1
 10
334.996130
 20
75.011920
 30
0.0
 10
332.060120
 20
75.549480
 30
0.0
 10
330.399680
 20
76.622110
 30
0.0
 10
328.727290
 20
79.061600
 30
0.0
  0
SPLINE
  5
1e0
100
AcDbEntity
  8
Layer_1
 62
7
100
AcDbSpline
 70
8
 71
3
 72
8
 73
4
 74
0
 40
0
 40
0
 40
0
 40
0
 40
1
 40
1
 40
1
 40
1
 10
328.727290
 20
79.061600
 30
0.0
 10
327.909930
 20
80.253860
 30
0.0
 10
326.762860
 20
80.807960
 30
0.0
 10
325.112110
 20
80.807960
 30
0.0
  0
SPLINE
  5
1e1
100
AcDbEntity
  8
Layer_1
 62
7
100
AcDbSpline
 70
8
 71
3
 72
8
 73
4
 74
0
 40
0
 40
0
 40
0
 40
0
 40
1
 40
1
 40
1
 40
1
 10
325.112110
 20
80.807960
 30
0.0
 10
322.181880
 20
80.807960
 30
0.0
 10
317.468490
 20
83.159110
 30
0.0
 10
317.792260
 20
84.459250
 30
0.0
  0
SPLINE
  5
1e2
100
AcDbEntity
  8
Layer_1
 62
7
100
AcDbSpline
 70
8
 71
3
 72
8
 73
4
 74
0
 40
0
 40
0
 40
0
 40
0
 40
1
 40
1
 40
1
 40
1
 10
317.792260
 20
84.459250
 30
0.0
 10
317.920830
 20
84.975520
 30
0.0
 10
319.346930
 20
85.511930
 30
0.0
 10
320.961400
 20
85.651300
 30
0.0
  0
SPLINE
  5
1e3
100
AcDbEntity
  8
Layer_1
 62
7
100
AcDbSpline
 70
8
 71
3
 72
8
 73
4
 74
0
 40
0
 40
0
 40
0
 40
0
 40
1
 40
1
 40
1
 40
1
 10
320.961400
 20
85.651300
 30
0.0
 10
323.407670
 20
85.862470
 30
0.0
 10
324.189440
 20
86.372920
 30
0.0
 10
325.653340
 20
88.714900
 30
0.0
  0
LWPOLYLINE
  5
1e4
100
AcDbEntity
  8
Layer_1
 62
7
100
AcDbPolyline
 90
3
 70
0
 10
315.466550
 20
23.758800
 30
0.0
 10
315.845640
 20
21.371780
 30
0.0
 10
318.866410
 20
25.299530
 30
0.0
  0
SPLINE
  5
1e5
100
AcDbEntity
  8
Layer_1
 62
7
100
AcDbSpline
 70
8
 71
3
 72
8
 73
4
 74
0
 40
0
 40
0
 40
0
 40
0
 40
1
 40
1
 40
1
 40
1
 10
330.177050
 20
89.849080
 30
0.0
 10
332.855040
 20
88.227040
 30
0.0
 10
333.037100
 20
88.219890
 30
0.0
 10
335.828140
 20
89.626990
 30
0.0
  0
LWPOLYLINE
  5
1e6
100
AcDbEntity
  8
Layer_1
 62
7
100
AcDbPolyline
 90
3
 70
0
 10
325.653340
 20
88.714900
 30
0.0
 10
327.409930
 20
91.525130
 30
0.0
 10
330.177050
 20
89.849080
 30
0.0
  0
SPLINE
  5
1e7
100
AcDbEntity
  8
Layer_1
 62
7
100
AcDbSpline
 70
8
 71
3
 72
8
 73
4
 74
0
 40
0
 40
0
 40
0
 40
0
 40
1
 40
1
 40
1
 40
1
 10
340.331120
 20
88.551400
 30
0.0
 10
341.921720
 20
86.066300
 30
0.0
 10
341.986220
 20
86.044720
 30
0.0
 10
344.004740
 20
87.321750
 30
0.0
  0
SPLINE
  5
1e8
100
AcDbEntity
  8
Layer_1
 62
7
100
AcDbSpline
 70
8
 71
3
 72
8
 73
4
 74
0
 40
0
 40
0
 40
0
 40
0
 40
1
 40
1
 40
1
 40
1
 10
344.004740
 20
87.321750
 30
0.0
 10
346.419170
 20
88.849270
 30
0.0
 10
346.446070
 20
89.053660
 30
0.0
 10
344.794970
 20
93.326010
 30
0.0
  0
SPLINE
  5
1e9
100
AcDbEntity
  8
Layer_1
 62
7
100
AcDbSpline
 70
8
 71
3
 72
8
 73
4
 74
0
 40
0
 40
0
 40
0
 40
0
 40
1
 40
1
 40
1
 40
1
 10
344.794970
 20
93.326010
 30
0.0
 10
343.407640
 20
96.915850
 30
0.0
 10
343.106350
 20
102.895810
 30
0.0
 10
344.265160
 20
103.841260
 30
0.0
  0
SPLINE
  5
1ea
100
AcDbEntity
  8
Layer_1
 62
7
100
AcDbSpline
 70
8
 71
3
 72
8
 73
4
 74
0
 40
0
 40
0
 40
0
 40
0
 40
1
 40
1
 40
1
 40
1
 10
344.265160
 20
103.841260
 30
0.0
 10
345.259490
 20
104.652480
 30
0.0
 10
347.136320
 20
101.438840
 30
0.0
 10
348.069490
 20
97.327200
 30
0.0
  0
SPLINE
  5
1eb
100
AcDbEntity
  8
Layer_1
 62
7
100
AcDbSpline
 70
8
 71
3
 72
8
 73
4
 74
0
 40
0
 40
0
 40
0
 40
0
 40
1
 40
1
 40
1
 40
1
 10
348.069490
 20
97.327200
 30
0.0
 10
348.582210
 20
95.068160
 30
0.0
 10
349.355320
 20
93.685980
 30
0.0
 10
350.447160
 20
93.076330
 30
0.0
  0
SPLINE
  5
1ec
100
AcDbEntity
  8
Layer_1
 62
7
100
AcDbSpline
 70
8
 71
3
 72
8
 73
4
 74
0
 40
0
 40
0
 40
0
 40
0
 40
1
 40
1
 40
1
 40
1
 10
350.447160
 20
93.076330
 30
0.0
 10
351.337010
 20
92.579470
 30
0.0
 10
352.705160
 20
91.428070
 30
0.0
 10
353.487480
 20
90.517660
 30
0.0
  0
SPLINE
  5
1ed
100
AcDbEntity
  8
Layer_1
 62
7
100
AcDbSpline
 70
8
 71
3
 72
8
 73
4
 74
0
 40
0
 40
0
 40
0
 40
0
 40
1
 40
1
 40
1
 40
1
 10
353.487480
 20
90.517660
 30
0.0
 10
355.108960
 20
88.630720
 30
0.0
 10
354.378260
 20
88.094320
 30
0.0
 10
361.046920
 20
96.067100
 30
0.0
  0
LWPOLYLINE
  5
1ee
100
AcDbEntity
  8
Layer_1
 62
7
100
AcDbPolyline
 90
3
 70
0
 10
335.828140
 20
89.626990
 30
0.0
 10
338.712120
 20
91.080930
 30
0.0
 10
340.331120
 20
88.551400
 30
0.0
  0
SPLINE
  5
1ef
100
AcDbEntity
  8
Layer_1
 62
7
100
AcDbSpline
 70
8
 71
3
 72
8
 73
4
 74
0
 40
0
 40
0
 40
0
 40
0
 40
1
 40
1
 40
1
 40
1
 10
363.016100
 20
101.630250
 30
0.0
 10
362.288410
 20
102.525170
 30
0.0
 10
360.806930
 20
103.508010
 30
0.0
 10
359.723880
 20
103.814320
 30
0.0
  0
SPLINE
  5
1f0
100
AcDbEntity
  8
Layer_1
 62
7
100
AcDbSpline
 70
8
 71
3
 72
8
 73
4
 74
0
 40
0
 40
0
 40
0
 40
0
 40
1
 40
1
 40
1
 40
1
 10
359.723880
 20
103.814320
 30
0.0
 10
356.866000
 20
104.622630
 30
0.0
 10
356.721870
 20
104.870900
 30
0.0
 10
357.670290
 20
107.351860
 30
0.0
  0
SPLINE
  5
1f1
100
AcDbEntity
  8
Layer_1
 62
7
100
AcDbSpline
 70
8
 71
3
 72
8
 73
4
 74
0
 40
0
 40
0
 40
0
 40
0
 40
1
 40
1
 40
1
 40
1
 10
357.670290
 20
107.351860
 30
0.0
 10
358.538810
 20
109.623780
 30
0.0
 10
358.385560
 20
111.668260
 30
0.0
 10
357.274990
 20
112.625780
 30
0.0
  0
SPLINE
  5
1f2
100
AcDbEntity
  8
Layer_1
 62
7
100
AcDbSpline
 70
8
 71
3
 72
8
 73
4
 74
0
 40
0
 40
0
 40
0
 40
0
 40
1
 40
1
 40
1
 40
1
 10
357.274990
 20
112.625780
 30
0.0
 10
356.941580
 20
112.913260
 30
0.0
 10
356.531870
 20
114.790960
 30
0.0
 10
356.364550
 20
116.798460
 30
0.0
  0
SPLINE
  5
1f3
100
AcDbEntity
  8
Layer_1
 62
7
100
AcDbSpline
 70
8
 71
3
 72
8
 73
4
 74
0
 40
0
 40
0
 40
0
 40
0
 40
1
 40
1
 40
1
 40
1
 10
356.364550
 20
116.798460
 30
0.0
 10
356.105150
 20
119.910680
 30
0.0
 10
356.348750
 20
120.971020
 30
0.0
 10
358.017820
 20
123.995240
 30
0.0
  0
SPLINE
  5
1f4
100
AcDbEntity
  8
Layer_1
 62
7
100
AcDbSpline
 70
8
 71
3
 72
8
 73
4
 74
0
 40
0
 40
0
 40
0
 40
0
 40
1
 40
1
 40
1
 40
1
 10
358.017820
 20
123.995240
 30
0.0
 10
360.839130
 20
129.107230
 30
0.0
 10
361.682530
 20
128.682630
 30
0.0
 10
362.162020
 20
121.908890
 30
0.0
  0
SPLINE
  5
1f5
100
AcDbEntity
  8
Layer_1
 62
7
100
AcDbSpline
 70
8
 71
3
 72
8
 73
4
 74
0
 40
0
 40
0
 40
0
 40
0
 40
1
 40
1
 40
1
 40
1
 10
362.162020
 20
121.908890
 30
0.0
 10
362.748970
 20
113.617050
 30
0.0
 10
362.927600
 20
112.936390
 30
0.0
 10
364.849720
 20
111.668270
 30
0.0
  0
SPLINE
  5
1f6
100
AcDbEntity
  8
Layer_1
 62
7
100
AcDbSpline
 70
8
 71
3
 72
8
 73
4
 74
0
 40
0
 40
0
 40
0
 40
0
 40
1
 40
1
 40
1
 40
1
 10
364.849720
 20
111.668270
 30
0.0
 10
365.815290
 20
111.031260
 30
0.0
 10
367.234790
 20
109.783410
 30
0.0
 10
368.004190
 20
108.895280
 30
0.0
  0
SPLINE
  5
1f7
100
AcDbEntity
  8
Layer_1
 62
7
100
AcDbSpline
 70
8
 71
3
 72
8
 73
4
 74
0
 40
0
 40
0
 40
0
 40
0
 40
1
 40
1
 40
1
 40
1
 10
368.004190
 20
108.895280
 30
0.0
 10
369.321490
 20
107.374710
 30
0.0
 10
369.496140
 20
107.360990
 30
0.0
 10
370.998250
 20
108.660250
 30
0.0
  0
SPLINE
  5
1f8
100
AcDbEntity
  8
Layer_1
 62
7
100
AcDbSpline
 70
8
 71
3
 72
8
 73
4
 74
0
 40
0
 40
0
 40
0
 40
0
 40
1
 40
1
 40
1
 40
1
 10
370.998250
 20
108.660250
 30
0.0
 10
371.875600
 20
109.419110
 30
0.0
 10
373.051770
 20
110.963460
 30
0.0
 10
373.611990
 20
112.092130
 30
0.0
  0
SPLINE
  5
1f9
100
AcDbEntity
  8
Layer_1
 62
7
100
AcDbSpline
 70
8
 71
3
 72
8
 73
4
 74
0
 40
0
 40
0
 40
0
 40
0
 40
1
 40
1
 40
1
 40
1
 10
373.611990
 20
112.092130
 30
0.0
 10
374.262420
 20
113.402570
 30
0.0
 10
375.465170
 20
114.328630
 30
0.0
 10
376.939760
 20
114.654380
 30
0.0
  0
SPLINE
  5
1fa
100
AcDbEntity
  8
Layer_1
 62
7
100
AcDbSpline
 70
8
 71
3
 72
8
 73
4
 74
0
 40
0
 40
0
 40
0
 40
0
 40
1
 40
1
 40
1
 40
1
 10
376.939760
 20
114.654380
 30
0.0
 10
378.209810
 20
114.934960
 30
0.0
 10
380.173410
 20
115.537510
 30
0.0
 10
381.303290
 20
115.993400
 30
0.0
  0
SPLINE
  5
1fb
100
AcDbEntity
  8
Layer_1
 62
7
100
AcDbSpline
 70
8
 71
3
 72
8
 73
4
 74
0
 40
0
 40
0
 40
0
 40
0
 40
1
 40
1
 40
1
 40
1
 10
381.303290
 20
115.993400
 30
0.0
 10
383.020470
 20
116.686220
 30
0.0
 10
383.298310
 20
117.134420
 30
0.0
 10
382.996070
 20
118.724030
 30
0.0
  0
SPLINE
  5
1fc
100
AcDbEntity
  8
Layer_1
 62
7
100
AcDbSpline
 70
8
 71
3
 72
8
 73
4
 74
0
 40
0
 40
0
 40
0
 40
0
 40
1
 40
1
 40
1
 40
1
 10
382.996070
 20
118.724030
 30
0.0
 10
382.529270
 20
121.179310
 30
0.0
 10
383.891080
 20
122.963370
 30
0.0
 10
388.113840
 20
125.428630
 30
0.0
  0
SPLINE
  5
1fd
100
AcDbEntity
  8
Layer_1
 62
7
100
AcDbSpline
 70
8
 71
3
 72
8
 73
4
 74
0
 40
0
 40
0
 40
0
 40
0
 40
1
 40
1
 40
1
 40
1
 10
388.113840
 20
125.428630
 30
0.0
 10
392.267760
 20
127.853720
 30
0.0
 10
392.690810
 20
128.772690
 30
0.0
 10
390.490340
 20
130.590910
 30
0.0
  0
SPLINE
  5
1fe
100
AcDbEntity
  8
Layer_1
 62
7
100
AcDbSpline
 70
8
 71
3
 72
8
 73
4
 74
0
 40
0
 40
0
 40
0
 40
0
 40
1
 40
1
 40
1
 40
1
 10
390.490340
 20
130.590910
 30
0.0
 10
389.523080
 20
131.390150
 30
0.0
 10
388.613020
 20
132.157920
 30
0.0
 10
388.467980
 20
132.297060
 30
0.0
  0
SPLINE
  5
1ff
100
AcDbEntity
  8
Layer_1
 62
7
100
AcDbSpline
 70
8
 71
3
 72
8
 73
4
 74
0
 40
0
 40
0
 40
0
 40
0
 40
1
 40
1
 40
1
 40
1
 10
388.467980
 20
132.297060
 30
0.0
 10
388.322940
 20
132.436200
 30
0.0
 10
388.162420
 20
133.299750
 30
0.0
 10
388.111280
 20
134.216060
 30
0.0
  0
SPLINE
  5
200
100
AcDbEntity
  8
Layer_1
 62
7
100
AcDbSpline
 70
8
 71
3
 72
8
 73
4
 74
0
 40
0
 40
0
 40
0
 40
0
 40
1
 40
1
 40
1
 40
1
 10
388.111280
 20
134.216060
 30
0.0
 10
388.060080
 20
135.132360
 30
0.0
 10
386.400800
 20
137.869250
 30
0.0
 10
384.423850
 20
140.298030
 30
0.0
  0
SPLINE
  5
201
100
AcDbEntity
  8
Layer_1
 62
7
100
AcDbSpline
 70
8
 71
3
 72
8
 73
4
 74
0
 40
0
 40
0
 40
0
 40
0
 40
1
 40
1
 40
1
 40
1
 10
384.423850
 20
140.298030
 30
0.0
 10
380.373490
 20
145.274110
 30
0.0
 10
380.046250
 20
146.979280
 30
0.0
 10
382.251810
 20
151.616040
 30
0.0
  0
SPLINE
  5
202
100
AcDbEntity
  8
Layer_1
 62
7
100
AcDbSpline
 70
8
 71
3
 72
8
 73
4
 74
0
 40
0
 40
0
 40
0
 40
0
 40
1
 40
1
 40
1
 40
1
 10
382.251810
 20
151.616040
 30
0.0
 10
383.034150
 20
153.260720
 30
0.0
 10
384.385440
 20
156.482000
 30
0.0
 10
385.254680
 20
158.774440
 30
0.0
  0
SPLINE
  5
203
100
AcDbEntity
  8
Layer_1
 62
7
100
AcDbSpline
 70
8
 71
3
 72
8
 73
4
 74
0
 40
0
 40
0
 40
0
 40
0
 40
1
 40
1
 40
1
 40
1
 10
385.254680
 20
158.774440
 30
0.0
 10
387.633490
 20
165.047980
 30
0.0
 10
388.415600
 20
164.716680
 30
0.0
 10
388.415600
 20
157.435510
 30
0.0
  0
SPLINE
  5
204
100
AcDbEntity
  8
Layer_1
 62
7
100
AcDbSpline
 70
8
 71
3
 72
8
 73
4
 74
0
 40
0
 40
0
 40
0
 40
0
 40
1
 40
1
 40
1
 40
1
 10
388.415600
 20
157.435510
 30
0.0
 10
388.415600
 20
151.878220
 30
0.0
 10
388.548630
 20
151.227780
 30
0.0
 10
389.838020
 20
150.481030
 30
0.0
  0
SPLINE
  5
205
100
AcDbEntity
  8
Layer_1
 62
7
100
AcDbSpline
 70
8
 71
3
 72
8
 73
4
 74
0
 40
0
 40
0
 40
0
 40
0
 40
1
 40
1
 40
1
 40
1
 10
389.838020
 20
150.481030
 30
0.0
 10
390.620340
 20
150.027960
 30
0.0
 10
391.754620
 20
148.265480
 30
0.0
 10
392.358630
 20
146.564420
 30
0.0
  0
LWPOLYLINE
  5
206
100
AcDbEntity
  8
Layer_1
 62
7
100
AcDbPolyline
 90
3
 70
0
 10
361.046920
 20
96.067100
 30
0.0
 10
364.339120
 20
100.003110
 30
0.0
 10
363.016100
 20
101.630250
 30
0.0
  0
SPLINE
  5
207
100
AcDbEntity
  8
Layer_1
 62
7
100
AcDbSpline
 70
8
 71
3
 72
8
 73
4
 74
0
 40
0
 40
0
 40
0
 40
0
 40
1
 40
1
 40
1
 40
1
 10
396.467830
 20
144.655320
 30
0.0
 10
398.251370
 20
145.356490
 30
0.0
 10
399.994230
 20
146.737060
 30
0.0
 10
400.743180
 20
148.041950
 30
0.0
  0
SPLINE
  5
208
100
AcDbEntity
  8
Layer_1
 62
7
100
AcDbSpline
 70
8
 71
3
 72
8
 73
4
 74
0
 40
0
 40
0
 40
0
 40
0
 40
1
 40
1
 40
1
 40
1
 10
400.743180
 20
148.041950
 30
0.0
 10
404.407810
 20
154.426910
 30
0.0
 10
411.734490
 20
163.766190
 30
0.0
 10
414.177060
 20
165.166080
 30
0.0
  0
SPLINE
  5
209
100
AcDbEntity
  8
Layer_1
 62
7
100
AcDbSpline
 70
8
 71
3
 72
8
 73
4
 74
0
 40
0
 40
0
 40
0
 40
0
 40
1
 40
1
 40
1
 40
1
 10
414.177060
 20
165.166080
 30
0.0
 10
417.141490
 20
166.865050
 30
0.0
 10
417.507170
 20
168.241600
 30
0.0
 10
415.599480
 20
170.520650
 30
0.0
  0
SPLINE
  5
20a
100
AcDbEntity
  8
Layer_1
 62
7
100
AcDbSpline
 70
8
 71
3
 72
8
 73
4
 74
0
 40
0
 40
0
 40
0
 40
0
 40
1
 40
1
 40
1
 40
1
 10
415.599480
 20
170.520650
 30
0.0
 10
413.788200
 20
172.684500
 30
0.0
 10
414.027340
 20
174.656100
 30
0.0
 10
416.547750
 20
178.338860
 30
0.0
  0
SPLINE
  5
20b
100
AcDbEntity
  8
Layer_1
 62
7
100
AcDbSpline
 70
8
 71
3
 72
8
 73
4
 74
0
 40
0
 40
0
 40
0
 40
0
 40
1
 40
1
 40
1
 40
1
 10
416.547750
 20
178.338860
 30
0.0
 10
417.950760
 20
180.388920
 30
0.0
 10
418.760390
 20
182.414970
 30
0.0
 10
418.760390
 20
183.875890
 30
0.0
  0
SPLINE
  5
20c
100
AcDbEntity
  8
Layer_1
 62
7
100
AcDbSpline
 70
8
 71
3
 72
8
 73
4
 74
0
 40
0
 40
0
 40
0
 40
0
 40
1
 40
1
 40
1
 40
1
 10
418.760390
 20
183.875890
 30
0.0
 10
418.760390
 20
186.947700
 30
0.0
 10
421.067750
 20
191.731540
 30
0.0
 10
423.022580
 20
192.712670
 30
0.0
  0
SPLINE
  5
20d
100
AcDbEntity
  8
Layer_1
 62
7
100
AcDbSpline
 70
8
 71
3
 72
8
 73
4
 74
0
 40
0
 40
0
 40
0
 40
0
 40
1
 40
1
 40
1
 40
1
 10
423.022580
 20
192.712670
 30
0.0
 10
423.887940
 20
193.146980
 30
0.0
 10
425.967630
 20
193.262140
 30
0.0
 10
427.644110
 20
192.968570
 30
0.0
  0
SPLINE
  5
20e
100
AcDbEntity
  8
Layer_1
 62
7
100
AcDbSpline
 70
8
 71
3
 72
8
 73
4
 74
0
 40
0
 40
0
 40
0
 40
0
 40
1
 40
1
 40
1
 40
1
 10
427.644110
 20
192.968570
 30
0.0
 10
431.970470
 20
192.210960
 30
0.0
 10
434.738190
 20
194.553780
 30
0.0
 10
436.151190
 20
200.169610
 30
0.0
  0
SPLINE
  5
20f
100
AcDbEntity
  8
Layer_1
 62
7
100
AcDbSpline
 70
8
 71
3
 72
8
 73
4
 74
0
 40
0
 40
0
 40
0
 40
0
 40
1
 40
1
 40
1
 40
1
 10
436.151190
 20
200.169610
 30
0.0
 10
437.132260
 20
204.068790
 30
0.0
 10
439.533650
 20
207.657530
 30
0.0
 10
441.161710
 20
207.657530
 30
0.0
  0
SPLINE
  5
210
100
AcDbEntity
  8
Layer_1
 62
7
100
AcDbSpline
 70
8
 71
3
 72
8
 73
4
 74
0
 40
0
 40
0
 40
0
 40
0
 40
1
 40
1
 40
1
 40
1
 10
441.161710
 20
207.657530
 30
0.0
 10
441.566830
 20
207.657530
 30
0.0
 10
442.234210
 20
208.100970
 30
0.0
 10
442.644770
 20
208.642950
 30
0.0
  0
SPLINE
  5
211
100
AcDbEntity
  8
Layer_1
 62
7
100
AcDbSpline
 70
8
 71
3
 72
8
 73
4
 74
0
 40
0
 40
0
 40
0
 40
0
 40
1
 40
1
 40
1
 40
1
 10
442.644770
 20
208.642950
 30
0.0
 10
443.218600
 20
209.400480
 30
0.0
 10
443.028560
 20
210.256080
 30
0.0
 10
441.822930
 20
212.342680
 30
0.0
  0
SPLINE
  5
212
100
AcDbEntity
  8
Layer_1
 62
7
100
AcDbSpline
 70
8
 71
3
 72
8
 73
4
 74
0
 40
0
 40
0
 40
0
 40
0
 40
1
 40
1
 40
1
 40
1
 10
441.822930
 20
212.342680
 30
0.0
 10
439.633980
 20
216.131130
 30
0.0
 10
439.832100
 20
216.837440
 30
0.0
 10
443.083640
 20
216.837440
 30
0.0
  0
SPLINE
  5
213
100
AcDbEntity
  8
Layer_1
 62
7
100
AcDbSpline
 70
8
 71
3
 72
8
 73
4
 74
0
 40
0
 40
0
 40
0
 40
0
 40
1
 40
1
 40
1
 40
1
 10
443.083640
 20
216.837440
 30
0.0
 10
445.863340
 20
216.837440
 30
0.0
 10
445.906300
 20
216.879340
 30
0.0
 10
445.548680
 20
219.239830
 30
0.0
  0
SPLINE
  5
214
100
AcDbEntity
  8
Layer_1
 62
7
100
AcDbSpline
 70
8
 71
3
 72
8
 73
4
 74
0
 40
0
 40
0
 40
0
 40
0
 40
1
 40
1
 40
1
 40
1
 10
445.548680
 20
219.239830
 30
0.0
 10
445.128750
 20
222.011510
 30
0.0
 10
445.914520
 20
222.958030
 30
0.0
 10
448.553120
 20
222.859000
 30
0.0
  0
SPLINE
  5
215
100
AcDbEntity
  8
Layer_1
 62
7
100
AcDbSpline
 70
8
 71
3
 72
8
 73
4
 74
0
 40
0
 40
0
 40
0
 40
0
 40
1
 40
1
 40
1
 40
1
 10
448.553120
 20
222.859000
 30
0.0
 10
451.694210
 20
222.741060
 30
0.0
 10
451.602460
 20
225.967360
 30
0.0
 10
448.402590
 20
228.151750
 30
0.0
  0
SPLINE
  5
216
100
AcDbEntity
  8
Layer_1
 62
7
100
AcDbSpline
 70
8
 71
3
 72
8
 73
4
 74
0
 40
0
 40
0
 40
0
 40
0
 40
1
 40
1
 40
1
 40
1
 10
448.402590
 20
228.151750
 30
0.0
 10
446.405260
 20
229.515220
 30
0.0
 10
444.047710
 20
234.831660
 30
0.0
 10
444.047710
 20
237.972330
 30
0.0
  0
SPLINE
  5
217
100
AcDbEntity
  8
Layer_1
 62
7
100
AcDbSpline
 70
8
 71
3
 72
8
 73
4
 74
0
 40
0
 40
0
 40
0
 40
0
 40
1
 40
1
 40
1
 40
1
 10
444.047710
 20
237.972330
 30
0.0
 10
444.047710
 20
240.839110
 30
0.0
 10
446.408270
 20
244.507170
 30
0.0
 10
448.059190
 20
244.205750
 30
0.0
  0
SPLINE
  5
218
100
AcDbEntity
  8
Layer_1
 62
7
100
AcDbSpline
 70
8
 71
3
 72
8
 73
4
 74
0
 40
0
 40
0
 40
0
 40
0
 40
1
 40
1
 40
1
 40
1
 10
448.059190
 20
244.205750
 30
0.0
 10
448.896320
 20
244.052890
 30
0.0
 10
449.432080
 20
244.433490
 30
0.0
 10
449.475280
 20
245.211680
 30
0.0
  0
SPLINE
  5
219
100
AcDbEntity
  8
Layer_1
 62
7
100
AcDbSpline
 70
8
 71
3
 72
8
 73
4
 74
0
 40
0
 40
0
 40
0
 40
0
 40
1
 40
1
 40
1
 40
1
 10
449.475280
 20
245.211680
 30
0.0
 10
449.513580
 20
245.900180
 30
0.0
 10
449.588450
 20
247.026800
 30
0.0
 10
449.641850
 20
247.715290
 30
0.0
  0
SPLINE
  5
21a
100
AcDbEntity
  8
Layer_1
 62
7
100
AcDbSpline
 70
8
 71
3
 72
8
 73
4
 74
0
 40
0
 40
0
 40
0
 40
0
 40
1
 40
1
 40
1
 40
1
 10
449.641850
 20
247.715290
 30
0.0
 10
449.695250
 20
248.403790
 30
0.0
 10
450.474470
 20
250.093720
 30
0.0
 10
451.373520
 20
251.470700
 30
0.0
  0
SPLINE
  5
21b
100
AcDbEntity
  8
Layer_1
 62
7
100
AcDbSpline
 70
8
 71
3
 72
8
 73
4
 74
0
 40
0
 40
0
 40
0
 40
0
 40
1
 40
1
 40
1
 40
1
 10
451.373520
 20
251.470700
 30
0.0
 10
452.682310
 20
253.475260
 30
0.0
 10
452.937800
 20
254.550050
 30
0.0
 10
452.655210
 20
256.862650
 30
0.0
  0
SPLINE
  5
21c
100
AcDbEntity
  8
Layer_1
 62
7
100
AcDbSpline
 70
8
 71
3
 72
8
 73
4
 74
0
 40
0
 40
0
 40
0
 40
0
 40
1
 40
1
 40
1
 40
1
 10
452.655210
 20
256.862650
 30
0.0
 10
452.393230
 20
259.006730
 30
0.0
 10
452.694310
 20
260.633910
 30
0.0
 10
453.823460
 20
263.177500
 30
0.0
  0
SPLINE
  5
21d
100
AcDbEntity
  8
Layer_1
 62
7
100
AcDbSpline
 70
8
 71
3
 72
8
 73
4
 74
0
 40
0
 40
0
 40
0
 40
0
 40
1
 40
1
 40
1
 40
1
 10
453.823460
 20
263.177500
 30
0.0
 10
455.164630
 20
266.198570
 30
0.0
 10
455.270670
 20
267.038550
 30
0.0
 10
454.719590
 20
270.276330
 30
0.0
  0
SPLINE
  5
21e
100
AcDbEntity
  8
Layer_1
 62
7
100
AcDbSpline
 70
8
 71
3
 72
8
 73
4
 74
0
 40
0
 40
0
 40
0
 40
0
 40
1
 40
1
 40
1
 40
1
 10
454.719590
 20
270.276330
 30
0.0
 10
454.375810
 20
272.296110
 30
0.0
 10
454.263410
 20
274.836830
 30
0.0
 10
454.469800
 20
275.922400
 30
0.0
  0
SPLINE
  5
21f
100
AcDbEntity
  8
Layer_1
 62
7
100
AcDbSpline
 70
8
 71
3
 72
8
 73
4
 74
0
 40
0
 40
0
 40
0
 40
0
 40
1
 40
1
 40
1
 40
1
 10
454.469800
 20
275.922400
 30
0.0
 10
454.676200
 20
277.007960
 30
0.0
 10
457.855430
 20
281.714500
 30
0.0
 10
461.534760
 20
286.381370
 30
0.0
  0
SPLINE
  5
220
100
AcDbEntity
  8
Layer_1
 62
7
100
AcDbSpline
 70
8
 71
3
 72
8
 73
4
 74
0
 40
0
 40
0
 40
0
 40
0
 40
1
 40
1
 40
1
 40
1
 10
461.534760
 20
286.381370
 30
0.0
 10
465.214120
 20
291.048260
 30
0.0
 10
468.616600
 20
296.075070
 30
0.0
 10
469.095850
 20
297.552060
 30
0.0
  0
SPLINE
  5
221
100
AcDbEntity
  8
Layer_1
 62
7
100
AcDbSpline
 70
8
 71
3
 72
8
 73
4
 74
0
 40
0
 40
0
 40
0
 40
0
 40
1
 40
1
 40
1
 40
1
 10
469.095850
 20
297.552060
 30
0.0
 10
469.575110
 20
299.029050
 30
0.0
 10
469.967220
 20
302.517760
 30
0.0
 10
469.967220
 20
305.304760
 30
0.0
  0
SPLINE
  5
222
100
AcDbEntity
  8
Layer_1
 62
7
100
AcDbSpline
 70
8
 71
3
 72
8
 73
4
 74
0
 40
0
 40
0
 40
0
 40
0
 40
1
 40
1
 40
1
 40
1
 10
469.967220
 20
305.304760
 30
0.0
 10
469.967220
 20
313.452680
 30
0.0
 10
473.060590
 20
319.569550
 30
0.0
 10
479.672000
 20
324.495120
 30
0.0
  0
SPLINE
  5
223
100
AcDbEntity
  8
Layer_1
 62
7
100
AcDbSpline
 70
8
 71
3
 72
8
 73
4
 74
0
 40
0
 40
0
 40
0
 40
0
 40
1
 40
1
 40
1
 40
1
 10
479.672000
 20
324.495120
 30
0.0
 10
483.446300
 20
327.307020
 30
0.0
 10
485.097160
 20
329.550600
 30
0.0
 10
487.721350
 20
335.434520
 30
0.0
  0
SPLINE
  5
224
100
AcDbEntity
  8
Layer_1
 62
7
100
AcDbSpline
 70
8
 71
3
 72
8
 73
4
 74
0
 40
0
 40
0
 40
0
 40
0
 40
1
 40
1
 40
1
 40
1
 10
487.721350
 20
335.434520
 30
0.0
 10
488.905170
 20
338.088850
 30
0.0
 10
490.438880
 20
339.901100
 30
0.0
 10
493.292900
 20
342.017930
 30
0.0
  0
SPLINE
  5
225
100
AcDbEntity
  8
Layer_1
 62
7
100
AcDbSpline
 70
8
 71
3
 72
8
 73
4
 74
0
 40
0
 40
0
 40
0
 40
0
 40
1
 40
1
 40
1
 40
1
 10
493.292900
 20
342.017930
 30
0.0
 10
500.936840
 20
347.687460
 30
0.0
 10
501.876560
 20
345.515070
 30
0.0
 10
484.418400
 20
362.533410
 30
0.0
  0
SPLINE
  5
226
100
AcDbEntity
  8
Layer_1
 62
7
100
AcDbSpline
 70
8
 71
3
 72
8
 73
4
 74
0
 40
0
 40
0
 40
0
 40
0
 40
1
 40
1
 40
1
 40
1
 10
484.418400
 20
362.533410
 30
0.0
 10
475.948700
 20
370.789740
 30
0.0
 10
468.169920
 20
378.255140
 30
0.0
 10
467.132220
 20
379.123210
 30
0.0
  0
SPLINE
  5
227
100
AcDbEntity
  8
Layer_1
 62
7
100
AcDbSpline
 70
8
 71
3
 72
8
 73
4
 74
0
 40
0
 40
0
 40
0
 40
0
 40
1
 40
1
 40
1
 40
1
 10
467.132220
 20
379.123210
 30
0.0
 10
466.094510
 20
379.991280
 30
0.0
 10
457.171970
 20
388.615410
 30
0.0
 10
447.304360
 20
398.287960
 30
0.0
  0
SPLINE
  5
228
100
AcDbEntity
  8
Layer_1
 62
7
100
AcDbSpline
 70
8
 71
3
 72
8
 73
4
 74
0
 40
0
 40
0
 40
0
 40
0
 40
1
 40
1
 40
1
 40
1
 10
447.304360
 20
398.287960
 30
0.0
 10
437.436740
 20
407.960520
 30
0.0
 10
423.573490
 20
421.507544
 30
0.0
 10
416.497150
 20
428.392477
 30
0.0
  0
SPLINE
  5
229
100
AcDbEntity
  8
Layer_1
 62
7
100
AcDbSpline
 70
8
 71
3
 72
8
 73
4
 74
0
 40
0
 40
0
 40
0
 40
0
 40
1
 40
1
 40
1
 40
1
 10
416.497150
 20
428.392477
 30
0.0
 10
386.338460
 20
457.735343
 30
0.0
 10
382.378220
 20
461.631545
 30
0.0
 10
381.777680
 20
462.550403
 30
0.0
  0
SPLINE
  5
22a
100
AcDbEntity
  8
Layer_1
 62
7
100
AcDbSpline
 70
8
 71
3
 72
8
 73
4
 74
0
 40
0
 40
0
 40
0
 40
0
 40
1
 40
1
 40
1
 40
1
 10
381.777680
 20
462.550403
 30
0.0
 10
381.429980
 20
463.082412
 30
0.0
 10
378.788750
 20
465.874704
 30
0.0
 10
375.908290
 20
468.755507
 30
0.0
  0
LWPOLYLINE
  5
22b
100
AcDbEntity
  8
Layer_1
 62
7
100
AcDbPolyline
 90
3
 70
0
 10
392.358630
 20
146.564420
 30
0.0
 10
393.456840
 20
143.471600
 30
0.0
 10
396.467830
 20
144.655320
 30
0.0
  0
SPLINE
  5
22c
100
AcDbEntity
  8
Layer_1
 62
7
100
AcDbSpline
 70
8
 71
3
 72
8
 73
4
 74
0
 40
0
 40
0
 40
0
 40
0
 40
1
 40
1
 40
1
 40
1
 10
343.983050
 20
468.138009
 30
0.0
 10
329.304620
 20
464.917582
 30
0.0
 10
304.351050
 20
459.431138
 30
0.0
 10
288.530670
 20
455.945910
 30
0.0
  0
SPLINE
  5
22d
100
AcDbEntity
  8
Layer_1
 62
7
100
AcDbSpline
 70
8
 71
3
 72
8
 73
4
 74
0
 40
0
 40
0
 40
0
 40
0
 40
1
 40
1
 40
1
 40
1
 10
288.530670
 20
455.945910
 30
0.0
 10
272.710300
 20
452.460684
 30
0.0
 10
259.339620
 20
449.529655
 30
0.0
 10
258.818060
 20
449.432514
 30
0.0
  0
SPLINE
  5
22e
100
AcDbEntity
  8
Layer_1
 62
7
100
AcDbSpline
 70
8
 71
3
 72
8
 73
4
 74
0
 40
0
 40
0
 40
0
 40
0
 40
1
 40
1
 40
1
 40
1
 10
258.818060
 20
449.432514
 30
0.0
 10
258.231680
 20
449.323299
 30
0.0
 10
257.891970
 20
449.892842
 30
0.0
 10
257.927920
 20
450.924968
 30
0.0
  0
SPLINE
  5
22f
100
AcDbEntity
  8
Layer_1
 62
7
100
AcDbSpline
 70
8
 71
3
 72
8
 73
4
 74
0
 40
0
 40
0
 40
0
 40
0
 40
1
 40
1
 40
1
 40
1
 10
257.927920
 20
450.924968
 30
0.0
 10
257.959820
 20
451.842957
 30
0.0
 10
258.169500
 20
456.161683
 30
0.0
 10
258.393750
 20
460.522135
 30
0.0
  0
LWPOLYLINE
  5
230
100
AcDbEntity
  8
Layer_1
 62
7
100
AcDbPolyline
 90
3
 70
0
 10
375.908290
 20
468.755507
 30
0.0
 10
370.671080
 20
473.993335
 30
0.0
 10
343.983050
 20
468.138009
 30
0.0
  0
SPLINE
  5
231
100
AcDbEntity
  8
Layer_1
 62
7
100
AcDbSpline
 70
8
 71
3
 72
8
 73
4
 74
0
 40
0
 40
0
 40
0
 40
0
 40
1
 40
1
 40
1
 40
1
 10
252.717020
 20
477.630138
 30
0.0
 10
249.370570
 20
482.679084
 30
0.0
 10
245.648450
 20
488.259706
 30
0.0
 10
244.445640
 20
490.031527
 30
0.0
  0
LWPOLYLINE
  5
232
100
AcDbEntity
  8
Layer_1
 62
7
100
AcDbPolyline
 90
3
 70
0
 10
258.393750
 20
460.522135
 30
0.0
 10
258.801460
 20
468.450235
 30
0.0
 10
252.717020
 20
477.630138
 30
0.0
  0
SPLINE
  5
233
100
AcDbEntity
  8
Layer_1
 62
7
100
AcDbSpline
 70
8
 71
3
 72
8
 73
4
 74
0
 40
0
 40
0
 40
0
 40
0
 40
1
 40
1
 40
1
 40
1
 10
240.302620
 20
490.031527
 30
0.0
 10
236.082340
 20
483.081156
 30
0.0
 10
232.983090
 20
479.716479
 30
0.0
 10
230.801260
 20
479.716479
 30
0.0
  0
SPLINE
  5
234
100
AcDbEntity
  8
Layer_1
 62
7
100
AcDbSpline
 70
8
 71
3
 72
8
 73
4
 74
0
 40
0
 40
0
 40
0
 40
0
 40
1
 40
1
 40
1
 40
1
 10
230.801260
 20
479.716479
 30
0.0
 10
226.951520
 20
479.716479
 30
0.0
 10
226.099800
 20
483.249457
 30
0.0
 10
228.789380
 20
488.061845
 30
0.0
  0
SPLINE
  5
235
100
AcDbEntity
  8
Layer_1
 62
7
100
AcDbSpline
 70
8
 71
3
 72
8
 73
4
 74
0
 40
0
 40
0
 40
0
 40
0
 40
1
 40
1
 40
1
 40
1
 10
228.789380
 20
488.061845
 30
0.0
 10
230.779600
 20
491.622914
 30
0.0
 10
230.963730
 20
496.763443
 30
0.0
 10
229.147030
 20
498.046926
 30
0.0
  0
SPLINE
  5
236
100
AcDbEntity
  8
Layer_1
 62
7
100
AcDbSpline
 70
8
 71
3
 72
8
 73
4
 74
0
 40
0
 40
0
 40
0
 40
0
 40
1
 40
1
 40
1
 40
1
 10
229.147030
 20
498.046926
 30
0.0
 10
227.318160
 20
499.338998
 30
0.0
 10
223.887470
 20
499.120399
 30
0.0
 10
209.896440
 20
496.820290
 30
0.0
  0
SPLINE
  5
237
100
AcDbEntity
  8
Layer_1
 62
7
100
AcDbSpline
 70
8
 71
3
 72
8
 73
4
 74
0
 40
0
 40
0
 40
0
 40
0
 40
1
 40
1
 40
1
 40
1
 10
209.896440
 20
496.820290
 30
0.0
 10
202.902520
 20
495.670499
 30
0.0
 10
177.051600
 20
491.557152
 30
0.0
 10
152.449960
 20
487.679528
 30
0.0
  0
SPLINE
  5
238
100
AcDbEntity
  8
Layer_1
 62
7
100
AcDbSpline
 70
8
 71
3
 72
8
 73
4
 74
0
 40
0
 40
0
 40
0
 40
0
 40
1
 40
1
 40
1
 40
1
 10
152.449960
 20
487.679528
 30
0.0
 10
109.503230
 20
480.910408
 30
0.0
 10
107.635520
 20
480.544548
 30
0.0
 10
105.608740
 20
478.503814
 30
0.0
  0
SPLINE
  5
239
100
AcDbEntity
  8
Layer_1
 62
7
100
AcDbSpline
 70
8
 71
3
 72
8
 73
4
 74
0
 40
0
 40
0
 40
0
 40
0
 40
1
 40
1
 40
1
 40
1
 10
105.608740
 20
478.503814
 30
0.0
 10
102.272240
 20
475.144362
 30
0.0
 10
97.982189
 20
476.161646
 30
0.0
 10
96.867368
 20
480.576636
 30
0.0
  0
SPLINE
  5
23a
100
AcDbEntity
  8
Layer_1
 62
7
100
AcDbSpline
 70
8
 71
3
 72
8
 73
4
 74
0
 40
0
 40
0
 40
0
 40
0
 40
1
 40
1
 40
1
 40
1
 10
96.867368
 20
480.576636
 30
0.0
 10
96.683054
 20
481.306555
 30
0.0
 10
94.803975
 20
480.246261
 30
0.0
 10
90.940651
 20
477.232405
 30
0.0
  0
SPLINE
  5
23b
100
AcDbEntity
  8
Layer_1
 62
7
100
AcDbSpline
 70
8
 71
3
 72
8
 73
4
 74
0
 40
0
 40
0
 40
0
 40
0
 40
1
 40
1
 40
1
 40
1
 10
90.940651
 20
477.232405
 30
0.0
 10
85.283586
 20
472.819209
 30
0.0
 10
39.912907
 20
440.018624
 30
0.0
 10
33.924186
 20
436.012535
 30
0.0
  0
SPLINE
  5
23c
100
AcDbEntity
  8
Layer_1
 62
7
100
AcDbSpline
 70
8
 71
3
 72
8
 73
4
 74
0
 40
0
 40
0
 40
0
 40
0
 40
1
 40
1
 40
1
 40
1
 10
33.924186
 20
436.012535
 30
0.0
 10
31.272393
 20
434.238642
 30
0.0
 10
30.684159
 20
433.419177
 30
0.0
 10
30.343887
 20
431.024819
 30
0.0
  0
SPLINE
  5
23d
100
AcDbEntity
  8
Layer_1
 62
7
100
AcDbSpline
 70
8
 71
3
 72
8
 73
4
 74
0
 40
0
 40
0
 40
0
 40
0
 40
1
 40
1
 40
1
 40
1
 10
30.343887
 20
431.024819
 30
0.0
 10
29.533422
 20
425.321821
 30
0.0
 10
26.199339
 20
418.087410
 30
0.0
 10
22.297246
 20
413.564944
 30
0.0
  0
SPLINE
  5
23e
100
AcDbEntity
  8
Layer_1
 62
7
100
AcDbSpline
 70
8
 71
3
 72
8
 73
4
 74
0
 40
0
 40
0
 40
0
 40
0
 40
1
 40
1
 40
1
 40
1
 10
22.297246
 20
413.564944
 30
0.0
 10
20.224968
 20
411.163191
 30
0.0
 10
17.623262
 20
407.320430
 30
0.0
 10
16.515685
 20
405.025450
 30
0.0
  0
SPLINE
  5
23f
100
AcDbEntity
  8
Layer_1
 62
7
100
AcDbSpline
 70
8
 71
3
 72
8
 73
4
 74
0
 40
0
 40
0
 40
0
 40
0
 40
1
 40
1
 40
1
 40
1
 10
16.515685
 20
405.025450
 30
0.0
 10
15.408106
 20
402.730480
 30
0.0
 10
13.248974
 20
398.705060
 30
0.0
 10
11.717618
 20
396.080080
 30
0.0
  0
SPLINE
  5
240
100
AcDbEntity
  8
Layer_1
 62
7
100
AcDbSpline
 70
8
 71
3
 72
8
 73
4
 74
0
 40
0
 40
0
 40
0
 40
0
 40
1
 40
1
 40
1
 40
1
 10
11.717618
 20
396.080080
 30
0.0
 10
9.510895
 20
392.297410
 30
0.0
 10
8.933338
 20
390.626180
 30
0.0
 10
8.933338
 20
388.023360
 30
0.0
  0
SPLINE
  5
241
100
AcDbEntity
  8
Layer_1
 62
7
100
AcDbSpline
 70
8
 71
3
 72
8
 73
4
 74
0
 40
0
 40
0
 40
0
 40
0
 40
1
 40
1
 40
1
 40
1
 10
8.933338
 20
388.023360
 30
0.0
 10
8.933338
 20
383.715730
 30
0.0
 10
11.068990
 20
379.808440
 30
0.0
 10
14.527235
 20
377.789050
 30
0.0
  0
SPLINE
  5
242
100
AcDbEntity
  8
Layer_1
 62
7
100
AcDbSpline
 70
8
 71
3
 72
8
 73
4
 74
0
 40
0
 40
0
 40
0
 40
0
 40
1
 40
1
 40
1
 40
1
 10
14.527235
 20
377.789050
 30
0.0
 10
16.008478
 20
376.924090
 30
0.0
 10
18.384513
 20
374.932510
 30
0.0
 10
19.807309
 20
373.363300
 30
0.0
  0
SPLINE
  5
243
100
AcDbEntity
  8
Layer_1
 62
7
100
AcDbSpline
 70
8
 71
3
 72
8
 73
4
 74
0
 40
0
 40
0
 40
0
 40
0
 40
1
 40
1
 40
1
 40
1
 10
19.807309
 20
373.363300
 30
0.0
 10
21.821794
 20
371.141520
 30
0.0
 10
23.197170
 20
370.381290
 30
0.0
 10
26.022959
 20
369.927610
 30
0.0
  0
SPLINE
  5
244
100
AcDbEntity
  8
Layer_1
 62
7
100
AcDbSpline
 70
8
 71
3
 72
8
 73
4
 74
0
 40
0
 40
0
 40
0
 40
0
 40
1
 40
1
 40
1
 40
1
 10
26.022959
 20
369.927610
 30
0.0
 10
30.587378
 20
369.194790
 30
0.0
 10
31.705559
 20
368.430290
 30
0.0
 10
38.243684
 20
361.572320
 30
0.0
  0
SPLINE
  5
245
100
AcDbEntity
  8
Layer_1
 62
7
100
AcDbSpline
 70
8
 71
3
 72
8
 73
4
 74
0
 40
0
 40
0
 40
0
 40
0
 40
1
 40
1
 40
1
 40
1
 10
38.243684
 20
361.572320
 30
0.0
 10
45.928515
 20
353.511520
 30
0.0
 10
47.788770
 20
352.570140
 30
0.0
 10
54.621860
 20
353.284060
 30
0.0
  0
SPLINE
  5
246
100
AcDbEntity
  8
Layer_1
 62
7
100
AcDbSpline
 70
8
 71
3
 72
8
 73
4
 74
0
 40
0
 40
0
 40
0
 40
0
 40
1
 40
1
 40
1
 40
1
 10
54.621860
 20
353.284060
 30
0.0
 10
61.223995
 20
353.973860
 30
0.0
 10
62.462851
 20
353.336160
 30
0.0
 10
64.057130
 20
348.426880
 30
0.0
  0
SPLINE
  5
247
100
AcDbEntity
  8
Layer_1
 62
7
100
AcDbSpline
 70
8
 71
3
 72
8
 73
4
 74
0
 40
0
 40
0
 40
0
 40
0
 40
1
 40
1
 40
1
 40
1
 10
64.057130
 20
348.426880
 30
0.0
 10
65.974389
 20
342.523130
 30
0.0
 10
70.428398
 20
333.468640
 30
0.0
 10
73.620239
 20
328.986180
 30
0.0
  0
SPLINE
  5
248
100
AcDbEntity
  8
Layer_1
 62
7
100
AcDbSpline
 70
8
 71
3
 72
8
 73
4
 74
0
 40
0
 40
0
 40
0
 40
0
 40
1
 40
1
 40
1
 40
1
 10
73.620239
 20
328.986180
 30
0.0
 10
75.722627
 20
326.033690
 30
0.0
 10
76.797458
 20
323.717290
 30
0.0
 10
77.105330
 20
321.475350
 30
0.0
  0
SPLINE
  5
249
100
AcDbEntity
  8
Layer_1
 62
7
100
AcDbSpline
 70
8
 71
3
 72
8
 73
4
 74
0
 40
0
 40
0
 40
0
 40
0
 40
1
 40
1
 40
1
 40
1
 10
77.105330
 20
321.475350
 30
0.0
 10
77.350175
 20
319.692420
 30
0.0
 10
77.982428
 20
317.109210
 30
0.0
 10
78.510333
 20
315.734930
 30
0.0
  0
SPLINE
  5
24a
100
AcDbEntity
  8
Layer_1
 62
7
100
AcDbSpline
 70
8
 71
3
 72
8
 73
4
 74
0
 40
0
 40
0
 40
0
 40
0
 40
1
 40
1
 40
1
 40
1
 10
78.510333
 20
315.734930
 30
0.0
 10
80.219560
 20
311.285310
 30
0.0
 10
84.420562
 20
304.530540
 30
0.0
 10
86.568631
 20
302.778020
 30
0.0
  0
SPLINE
  5
24b
100
AcDbEntity
  8
Layer_1
 62
7
100
AcDbSpline
 70
8
 71
3
 72
8
 73
4
 74
0
 40
0
 40
0
 40
0
 40
0
 40
1
 40
1
 40
1
 40
1
 10
86.568631
 20
302.778020
 30
0.0
 10
89.680878
 20
300.238870
 30
0.0
 10
98.467875
 20
287.144830
 30
0.0
 10
100.333990
 20
282.265410
 30
0.0
  0
SPLINE
  5
24c
100
AcDbEntity
  8
Layer_1
 62
7
100
AcDbSpline
 70
8
 71
3
 72
8
 73
4
 74
0
 40
0
 40
0
 40
0
 40
0
 40
1
 40
1
 40
1
 40
1
 10
100.333990
 20
282.265410
 30
0.0
 10
102.589830
 20
276.367010
 30
0.0
 10
108.245060
 20
270.138100
 30
0.0
 10
115.100300
 20
266.001140
 30
0.0
  0
SPLINE
  5
24d
100
AcDbEntity
  8
Layer_1
 62
7
100
AcDbSpline
 70
8
 71
3
 72
8
 73
4
 74
0
 40
0
 40
0
 40
0
 40
0
 40
1
 40
1
 40
1
 40
1
 10
115.100300
 20
266.001140
 30
0.0
 10
131.608250
 20
256.039060
 30
0.0
 10
133.267690
 20
254.551450
 30
0.0
 10
136.714530
 20
246.624950
 30
0.0
  0
SPLINE
  5
24e
100
AcDbEntity
  8
Layer_1
 62
7
100
AcDbSpline
 70
8
 71
3
 72
8
 73
4
 74
0
 40
0
 40
0
 40
0
 40
0
 40
1
 40
1
 40
1
 40
1
 10
136.714530
 20
246.624950
 30
0.0
 10
139.055660
 20
241.241210
 30
0.0
 10
143.650030
 20
234.342180
 30
0.0
 10
147.727830
 20
230.087120
 30
0.0
  0
SPLINE
  5
24f
100
AcDbEntity
  8
Layer_1
 62
7
100
AcDbSpline
 70
8
 71
3
 72
8
 73
4
 74
0
 40
0
 40
0
 40
0
 40
0
 40
1
 40
1
 40
1
 40
1
 10
147.727830
 20
230.087120
 30
0.0
 10
150.141930
 20
227.568080
 30
0.0
 10
151.380450
 20
226.851880
 30
0.0
 10
153.322500
 20
226.851880
 30
0.0
  0
SPLINE
  5
250
100
AcDbEntity
  8
Layer_1
 62
7
100
AcDbSpline
 70
8
 71
3
 72
8
 73
4
 74
0
 40
0
 40
0
 40
0
 40
0
 40
1
 40
1
 40
1
 40
1
 10
153.322500
 20
226.851880
 30
0.0
 10
156.683520
 20
226.851880
 30
0.0
 10
158.318000
 20
225.252800
 30
0.0
 10
161.702760
 20
218.653150
 30
0.0
  0
SPLINE
  5
251
100
AcDbEntity
  8
Layer_1
 62
7
100
AcDbSpline
 70
8
 71
3
 72
8
 73
4
 74
0
 40
0
 40
0
 40
0
 40
0
 40
1
 40
1
 40
1
 40
1
 10
161.702760
 20
218.653150
 30
0.0
 10
164.728050
 20
212.754420
 30
0.0
 10
166.511550
 20
210.906390
 30
0.0
 10
170.628530
 20
209.404410
 30
0.0
  0
SPLINE
  5
252
100
AcDbEntity
  8
Layer_1
 62
7
100
AcDbSpline
 70
8
 71
3
 72
8
 73
4
 74
0
 40
0
 40
0
 40
0
 40
0
 40
1
 40
1
 40
1
 40
1
 10
170.628530
 20
209.404410
 30
0.0
 10
172.019340
 20
208.897030
 30
0.0
 10
173.838680
 20
207.784210
 30
0.0
 10
174.671510
 20
206.931500
 30
0.0
  0
SPLINE
  5
253
100
AcDbEntity
  8
Layer_1
 62
7
100
AcDbSpline
 70
8
 71
3
 72
8
 73
4
 74
0
 40
0
 40
0
 40
0
 40
0
 40
1
 40
1
 40
1
 40
1
 10
174.671510
 20
206.931500
 30
0.0
 10
176.044940
 20
205.525300
 30
0.0
 10
176.118430
 20
205.126110
 30
0.0
 10
175.461750
 20
202.639380
 30
0.0
  0
SPLINE
  5
254
100
AcDbEntity
  8
Layer_1
 62
7
100
AcDbSpline
 70
8
 71
3
 72
8
 73
4
 74
0
 40
0
 40
0
 40
0
 40
0
 40
1
 40
1
 40
1
 40
1
 10
175.461750
 20
202.639380
 30
0.0
 10
173.699210
 20
195.965030
 30
0.0
 10
175.370950
 20
190.608510
 30
0.0
 10
180.246520
 20
187.308320
 30
0.0
  0
SPLINE
  5
255
100
AcDbEntity
  8
Layer_1
 62
7
100
AcDbSpline
 70
8
 71
3
 72
8
 73
4
 74
0
 40
0
 40
0
 40
0
 40
0
 40
1
 40
1
 40
1
 40
1
 10
180.246520
 20
187.308320
 30
0.0
 10
181.910640
 20
186.181900
 30
0.0
 10
184.836840
 20
183.142830
 30
0.0
 10
186.749190
 20
180.554810
 30
0.0
  0
SPLINE
  5
256
100
AcDbEntity
  8
Layer_1
 62
7
100
AcDbSpline
 70
8
 71
3
 72
8
 73
4
 74
0
 40
0
 40
0
 40
0
 40
0
 40
1
 40
1
 40
1
 40
1
 10
186.749190
 20
180.554810
 30
0.0
 10
188.661560
 20
177.966810
 30
0.0
 10
191.150770
 20
175.089190
 30
0.0
 10
192.280790
 20
174.160110
 30
0.0
  0
SPLINE
  5
257
100
AcDbEntity
  8
Layer_1
 62
7
100
AcDbSpline
 70
8
 71
3
 72
8
 73
4
 74
0
 40
0
 40
0
 40
0
 40
0
 40
1
 40
1
 40
1
 40
1
 10
192.280790
 20
174.160110
 30
0.0
 10
193.679690
 20
173.009980
 30
0.0
 10
194.335390
 20
171.826770
 30
0.0
 10
194.335390
 20
170.452590
 30
0.0
  0
SPLINE
  5
258
100
AcDbEntity
  8
Layer_1
 62
7
100
AcDbSpline
 70
8
 71
3
 72
8
 73
4
 74
0
 40
0
 40
0
 40
0
 40
0
 40
1
 40
1
 40
1
 40
1
 10
194.335390
 20
170.452590
 30
0.0
 10
194.335390
 20
167.501470
 30
0.0
 10
196.463700
 20
165.096180
 30
0.0
 10
199.074950
 20
165.096180
 30
0.0
  0
SPLINE
  5
259
100
AcDbEntity
  8
Layer_1
 62
7
100
AcDbSpline
 70
8
 71
3
 72
8
 73
4
 74
0
 40
0
 40
0
 40
0
 40
0
 40
1
 40
1
 40
1
 40
1
 10
199.074950
 20
165.096180
 30
0.0
 10
200.680880
 20
165.096180
 30
0.0
 10
201.934890
 20
164.338130
 30
0.0
 10
203.658280
 20
162.325590
 30
0.0
  0
SPLINE
  5
25a
100
AcDbEntity
  8
Layer_1
 62
7
100
AcDbSpline
 70
8
 71
3
 72
8
 73
4
 74
0
 40
0
 40
0
 40
0
 40
0
 40
1
 40
1
 40
1
 40
1
 10
203.658280
 20
162.325590
 30
0.0
 10
208.051320
 20
157.195460
 30
0.0
 10
210.429110
 20
155.329740
 30
0.0
 10
216.690140
 20
152.100320
 30
0.0
  0
SPLINE
  5
25b
100
AcDbEntity
  8
Layer_1
 62
7
100
AcDbSpline
 70
8
 71
3
 72
8
 73
4
 74
0
 40
0
 40
0
 40
0
 40
0
 40
1
 40
1
 40
1
 40
1
 10
216.690140
 20
152.100320
 30
0.0
 10
220.528150
 20
150.120700
 30
0.0
 10
223.882290
 20
147.750250
 30
0.0
 10
225.416980
 20
145.932880
 30
0.0
  0
SPLINE
  5
25c
100
AcDbEntity
  8
Layer_1
 62
7
100
AcDbSpline
 70
8
 71
3
 72
8
 73
4
 74
0
 40
0
 40
0
 40
0
 40
0
 40
1
 40
1
 40
1
 40
1
 10
225.416980
 20
145.932880
 30
0.0
 10
227.762160
 20
143.155710
 30
0.0
 10
227.931260
 20
142.635090
 30
0.0
 10
228.273090
 20
137.139180
 30
0.0
  0
SPLINE
  5
25d
100
AcDbEntity
  8
Layer_1
 62
7
100
AcDbSpline
 70
8
 71
3
 72
8
 73
4
 74
0
 40
0
 40
0
 40
0
 40
0
 40
1
 40
1
 40
1
 40
1
 10
228.273090
 20
137.139180
 30
0.0
 10
228.472940
 20
133.926220
 30
0.0
 10
229.316950
 20
129.044190
 30
0.0
 10
230.148680
 20
126.290210
 30
0.0
  0
SPLINE
  5
25e
100
AcDbEntity
  8
Layer_1
 62
7
100
AcDbSpline
 70
8
 71
3
 72
8
 73
4
 74
0
 40
0
 40
0
 40
0
 40
0
 40
1
 40
1
 40
1
 40
1
 10
230.148680
 20
126.290210
 30
0.0
 10
231.459840
 20
121.948760
 30
0.0
 10
232.070850
 20
120.984190
 30
0.0
 10
234.744160
 20
119.035660
 30
0.0
  0
SPLINE
  5
25f
100
AcDbEntity
  8
Layer_1
 62
7
100
AcDbSpline
 70
8
 71
3
 72
8
 73
4
 74
0
 40
0
 40
0
 40
0
 40
0
 40
1
 40
1
 40
1
 40
1
 10
234.744160
 20
119.035660
 30
0.0
 10
238.985500
 20
115.944210
 30
0.0
 10
239.933010
 20
113.193630
 30
0.0
 10
239.435080
 20
105.417800
 30
0.0
  0
SPLINE
  5
260
100
AcDbEntity
  8
Layer_1
 62
7
100
AcDbSpline
 70
8
 71
3
 72
8
 73
4
 74
0
 40
0
 40
0
 40
0
 40
0
 40
1
 40
1
 40
1
 40
1
 10
239.435080
 20
105.417800
 30
0.0
 10
239.091510
 20
100.052350
 30
0.0
 10
239.205320
 20
99.036100
 30
0.0
 10
240.397280
 20
96.826350
 30
0.0
  0
SPLINE
  5
261
100
AcDbEntity
  8
Layer_1
 62
7
100
AcDbSpline
 70
8
 71
3
 72
8
 73
4
 74
0
 40
0
 40
0
 40
0
 40
0
 40
1
 40
1
 40
1
 40
1
 10
240.397280
 20
96.826350
 30
0.0
 10
241.142560
 20
95.444670
 30
0.0
 10
241.749130
 20
93.043840
 30
0.0
 10
241.749130
 20
91.475620
 30
0.0
  0
SPLINE
  5
262
100
AcDbEntity
  8
Layer_1
 62
7
100
AcDbSpline
 70
8
 71
3
 72
8
 73
4
 74
0
 40
0
 40
0
 40
0
 40
0
 40
1
 40
1
 40
1
 40
1
 10
241.749130
 20
91.475620
 30
0.0
 10
241.749130
 20
86.776900
 30
0.0
 10
244.314950
 20
84.292350
 30
0.0
 10
250.672170
 20
82.835170
 30
0.0
  0
SPLINE
  5
263
100
AcDbEntity
  8
Layer_1
 62
7
100
AcDbSpline
 70
8
 71
3
 72
8
 73
4
 74
0
 40
0
 40
0
 40
0
 40
0
 40
1
 40
1
 40
1
 40
1
 10
250.672170
 20
82.835170
 30
0.0
 10
260.423040
 20
80.600110
 30
0.0
 10
259.864470
 20
81.167350
 30
0.0
 10
266.622520
 20
66.637550
 30
0.0
  0
SPLINE
  5
264
100
AcDbEntity
  8
Layer_1
 62
7
100
AcDbSpline
 70
8
 71
3
 72
8
 73
4
 74
0
 40
0
 40
0
 40
0
 40
0
 40
1
 40
1
 40
1
 40
1
 10
266.622520
 20
66.637550
 30
0.0
 10
269.359280
 20
60.753510
 30
0.0
 10
270.451510
 20
57.502180
 30
0.0
 10
270.833310
 20
54.102790
 30
0.0
  0
SPLINE
  5
265
100
AcDbEntity
  8
Layer_1
 62
7
100
AcDbSpline
 70
8
 71
3
 72
8
 73
4
 74
0
 40
0
 40
0
 40
0
 40
0
 40
1
 40
1
 40
1
 40
1
 10
270.833310
 20
54.102790
 30
0.0
 10
271.534070
 20
47.863630
 30
0.0
 10
271.897990
 20
46.901590
 30
0.0
 10
273.990190
 20
45.757580
 30
0.0
  0
SPLINE
  5
266
100
AcDbEntity
  8
Layer_1
 62
7
100
AcDbSpline
 70
8
 71
3
 72
8
 73
4
 74
0
 40
0
 40
0
 40
0
 40
0
 40
1
 40
1
 40
1
 40
1
 10
273.990190
 20
45.757580
 30
0.0
 10
274.983160
 20
45.214610
 30
0.0
 10
276.282810
 20
44.059680
 30
0.0
 10
276.878310
 20
43.191060
 30
0.0
  0
SPLINE
  5
267
100
AcDbEntity
  8
Layer_1
 62
7
100
AcDbSpline
 70
8
 71
3
 72
8
 73
4
 74
0
 40
0
 40
0
 40
0
 40
0
 40
1
 40
1
 40
1
 40
1
 10
276.878310
 20
43.191060
 30
0.0
 10
277.972020
 20
41.595700
 30
0.0
 10
277.948460
 20
39.082030
 30
0.0
 10
276.743360
 20
28.791390
 30
0.0
  0
SPLINE
  5
268
100
AcDbEntity
  8
Layer_1
 62
7
100
AcDbSpline
 70
8
 71
3
 72
8
 73
4
 74
0
 40
0
 40
0
 40
0
 40
0
 40
1
 40
1
 40
1
 40
1
 10
276.743360
 20
28.791390
 30
0.0
 10
276.414880
 20
25.986390
 30
0.0
 10
276.618630
 20
25.255320
 30
0.0
 10
278.408050
 20
22.818170
 30
0.0
  0
SPLINE
  5
269
100
AcDbEntity
  8
Layer_1
 62
7
100
AcDbSpline
 70
8
 71
3
 72
8
 73
4
 74
0
 40
0
 40
0
 40
0
 40
0
 40
1
 40
1
 40
1
 40
1
 10
278.408050
 20
22.818170
 30
0.0
 10
280.320780
 20
20.213050
 30
0.0
 10
280.420310
 20
19.784810
 30
0.0
 10
280.015720
 20
15.901510
 30
0.0
  0
SPLINE
  5
26a
100
AcDbEntity
  8
Layer_1
 62
7
100
AcDbSpline
 70
8
 71
3
 72
8
 73
4
 74
0
 40
0
 40
0
 40
0
 40
0
 40
1
 40
1
 40
1
 40
1
 10
280.015720
 20
15.901510
 30
0.0
 10
279.613400
 20
12.039920
 30
0.0
 10
279.704410
 20
11.636900
 30
0.0
 10
281.370770
 20
9.900520
 30
0.0
  0
SPLINE
  5
26b
100
AcDbEntity
  8
Layer_1
 62
7
100
AcDbSpline
 70
8
 71
3
 72
8
 73
4
 74
0
 40
0
 40
0
 40
0
 40
0
 40
1
 40
1
 40
1
 40
1
 10
281.370770
 20
9.900520
 30
0.0
 10
282.860000
 20
8.348720
 30
0.0
 10
283.656570
 20
8.122170
 30
0.0
 10
286.159990
 20
8.538470
 30
0.0
  0
SPLINE
  5
26c
100
AcDbEntity
  8
Layer_1
 62
7
100
AcDbSpline
 70
8
 71
3
 72
8
 73
4
 74
0
 40
0
 40
0
 40
0
 40
0
 40
1
 40
1
 40
1
 40
1
 10
286.159990
 20
8.538470
 30
0.0
 10
294.937140
 20
9.998020
 30
0.0
 10
295.127340
 20
9.994860
 30
0.0
 10
297.381240
 20
8.351750
 30
0.0
  0
SPLINE
  5
26d
100
AcDbEntity
  8
Layer_1
 62
7
100
AcDbSpline
 70
8
 71
3
 72
8
 73
4
 74
0
 40
0
 40
0
 40
0
 40
0
 40
1
 40
1
 40
1
 40
1
 10
297.381240
 20
8.351750
 30
0.0
 10
298.598180
 20
7.464600
 30
0.0
 10
299.738140
 20
6.692720
 30
0.0
 10
299.914460
 20
6.636470
 30
0.0
  0
SPLINE
  5
26e
100
AcDbEntity
  8
Layer_1
 62
7
100
AcDbSpline
 70
8
 71
3
 72
8
 73
4
 74
0
 40
0
 40
0
 40
0
 40
0
 40
1
 40
1
 40
1
 40
1
 10
299.914460
 20
6.636470
 30
0.0
 10
300.090760
 20
6.580270
 30
0.0
 10
301.795650
 20
8.224150
 30
0.0
 10
303.703070
 20
10.289620
 30
0.0
  0
LWPOLYLINE
  5
26f
100
AcDbEntity
  8
Layer_1
 62
7
100
AcDbPolyline
 90
3
 70
0
 10
244.445640
 20
490.031527
 30
0.0
 10
242.258720
 20
493.253014
 30
0.0
 10
240.302620
 20
490.031527
 30
0.0
  0
SPLINE
  5
270
100
AcDbEntity
  8
Layer_1
 62
7
100
AcDbSpline
 70
8
 71
3
 72
8
 73
4
 74
0
 40
0
 40
0
 40
0
 40
0
 40
1
 40
1
 40
1
 40
1
 10
339.737510
 20
132.853140
 30
0.0
 10
334.586150
 20
134.899550
 30
0.0
 10
331.144180
 20
137.070610
 30
0.0
 10
327.776890
 20
140.397410
 30
0.0
  0
SPLINE
  5
271
100
AcDbEntity
  8
Layer_1
 62
7
100
AcDbSpline
 70
8
 71
3
 72
8
 73
4
 74
0
 40
0
 40
0
 40
0
 40
0
 40
1
 40
1
 40
1
 40
1
 10
327.776890
 20
140.397410
 30
0.0
 10
326.151480
 20
142.003310
 30
0.0
 10
325.408430
 20
142.306760
 30
0.0
 10
324.782070
 20
141.620540
 30
0.0
  0
SPLINE
  5
272
100
AcDbEntity
  8
Layer_1
 62
7
100
AcDbSpline
 70
8
 71
3
 72
8
 73
4
 74
0
 40
0
 40
0
 40
0
 40
0
 40
1
 40
1
 40
1
 40
1
 10
324.782070
 20
141.620540
 30
0.0
 10
323.535830
 20
140.255180
 30
0.0
 10
322.362180
 20
141.223560
 30
0.0
 10
321.138920
 20
144.626540
 30
0.0
  0
SPLINE
  5
273
100
AcDbEntity
  8
Layer_1
 62
7
100
AcDbSpline
 70
8
 71
3
 72
8
 73
4
 74
0
 40
0
 40
0
 40
0
 40
0
 40
1
 40
1
 40
1
 40
1
 10
321.138920
 20
144.626540
 30
0.0
 10
319.853180
 20
148.203310
 30
0.0
 10
320.205620
 20
152.731690
 30
0.0
 10
322.015300
 20
155.887040
 30
0.0
  0
LWPOLYLINE
  5
274
100
AcDbEntity
  8
Layer_1
 62
7
100
AcDbPolyline
 90
1
 70
1
 10
303.703070
 20
10.289620
 30
0.0
  0
SPLINE
  5
275
100
AcDbEntity
  8
Layer_1
 62
7
100
AcDbSpline
 70
8
 71
3
 72
8
 73
4
 74
0
 40
0
 40
0
 40
0
 40
0
 40
1
 40
1
 40
1
 40
1
 10
326.309470
 20
154.098610
 30
0.0
 10
328.022360
 20
151.983550
 30
0.0
 10
330.391220
 20
149.592670
 30
0.0
 10
331.573610
 20
148.785510
 30
0.0
  0
SPLINE
  5
276
100
AcDbEntity
  8
Layer_1
 62
7
100
AcDbSpline
 70
8
 71
3
 72
8
 73
4
 74
0
 40
0
 40
0
 40
0
 40
0
 40
1
 40
1
 40
1
 40
1
 10
331.573610
 20
148.785510
 30
0.0
 10
333.484240
 20
147.481220
 30
0.0
 10
333.584790
 20
147.253770
 30
0.0
 10
332.477320
 20
146.740950
 30
0.0
  0
SPLINE
  5
277
100
AcDbEntity
  8
Layer_1
 62
7
100
AcDbSpline
 70
8
 71
3
 72
8
 73
4
 74
0
 40
0
 40
0
 40
0
 40
0
 40
1
 40
1
 40
1
 40
1
 10
332.477320
 20
146.740950
 30
0.0
 10
331.295820
 20
146.193850
 30
0.0
 10
331.310910
 20
146.107660
 30
0.0
 10
332.768430
 20
145.077930
 30
0.0
  0
SPLINE
  5
278
100
AcDbEntity
  8
Layer_1
 62
7
100
AcDbSpline
 70
8
 71
3
 72
8
 73
4
 74
0
 40
0
 40
0
 40
0
 40
0
 40
1
 40
1
 40
1
 40
1
 10
332.768430
 20
145.077930
 30
0.0
 10
334.360830
 20
143.952900
 30
0.0
 10
340.089100
 20
141.756430
 30
0.0
 10
341.476010
 20
141.739050
 30
0.0
  0
SPLINE
  5
279
100
AcDbEntity
  8
Layer_1
 62
7
100
AcDbSpline
 70
8
 71
3
 72
8
 73
4
 74
0
 40
0
 40
0
 40
0
 40
0
 40
1
 40
1
 40
1
 40
1
 10
341.476010
 20
141.739050
 30
0.0
 10
342.072370
 20
141.732050
 30
0.0
 10
342.266230
 20
144.711110
 30
0.0
 10
342.266230
 20
153.883620
 30
0.0
  0
LWPOLYLINE
  5
27a
100
AcDbEntity
  8
Layer_1
 62
7
100
AcDbPolyline
 90
3
 70
0
 10
322.015300
 20
155.887040
 30
0.0
 10
323.195110
 20
157.944150
 30
0.0
 10
326.309470
 20
154.098610
 30
0.0
  0
SPLINE
  5
27b
100
AcDbEntity
  8
Layer_1
 62
7
100
AcDbSpline
 70
8
 71
3
 72
8
 73
4
 74
0
 40
0
 40
0
 40
0
 40
0
 40
1
 40
1
 40
1
 40
1
 10
335.786360
 20
165.663320
 30
0.0
 10
332.222430
 20
165.457180
 30
0.0
 10
328.398800
 20
165.018130
 30
0.0
 10
327.289390
 20
164.687640
 30
0.0
  0
SPLINE
  5
27c
100
AcDbEntity
  8
Layer_1
 62
7
100
AcDbSpline
 70
8
 71
3
 72
8
 73
4
 74
0
 40
0
 40
0
 40
0
 40
0
 40
1
 40
1
 40
1
 40
1
 10
327.289390
 20
164.687640
 30
0.0
 10
325.614650
 20
164.188700
 30
0.0
 10
324.993560
 20
164.454710
 30
0.0
 10
323.629840
 20
166.254940
 30
0.0
  0
SPLINE
  5
27d
100
AcDbEntity
  8
Layer_1
 62
7
100
AcDbSpline
 70
8
 71
3
 72
8
 73
4
 74
0
 40
0
 40
0
 40
0
 40
0
 40
1
 40
1
 40
1
 40
1
 10
323.629840
 20
166.254940
 30
0.0
 10
322.282570
 20
168.033460
 30
0.0
 10
322.108670
 20
168.722360
 30
0.0
 10
322.662310
 20
170.087950
 30
0.0
  0
SPLINE
  5
27e
100
AcDbEntity
  8
Layer_1
 62
7
100
AcDbSpline
 70
8
 71
3
 72
8
 73
4
 74
0
 40
0
 40
0
 40
0
 40
0
 40
1
 40
1
 40
1
 40
1
 10
322.662310
 20
170.087950
 30
0.0
 10
323.554990
 20
172.289870
 30
0.0
 10
326.174520
 20
173.079370
 30
0.0
 10
328.656570
 20
171.894550
 30
0.0
  0
SPLINE
  5
27f
100
AcDbEntity
  8
Layer_1
 62
7
100
AcDbSpline
 70
8
 71
3
 72
8
 73
4
 74
0
 40
0
 40
0
 40
0
 40
0
 40
1
 40
1
 40
1
 40
1
 10
328.656570
 20
171.894550
 30
0.0
 10
329.758790
 20
171.368390
 30
0.0
 10
333.271880
 20
170.937920
 30
0.0
 10
336.463420
 20
170.937920
 30
0.0
  0
SPLINE
  5
280
100
AcDbEntity
  8
Layer_1
 62
7
100
AcDbSpline
 70
8
 71
3
 72
8
 73
4
 74
0
 40
0
 40
0
 40
0
 40
0
 40
1
 40
1
 40
1
 40
1
 10
336.463420
 20
170.937920
 30
0.0
 10
341.777340
 20
170.937920
 30
0.0
 10
342.266230
 20
171.073810
 30
0.0
 10
342.266230
 20
172.550750
 30
0.0
  0
SPLINE
  5
281
100
AcDbEntity
  8
Layer_1
 62
7
100
AcDbSpline
 70
8
 71
3
 72
8
 73
4
 74
0
 40
0
 40
0
 40
0
 40
0
 40
1
 40
1
 40
1
 40
1
 10
342.266230
 20
172.550750
 30
0.0
 10
342.266230
 20
173.437830
 30
0.0
 10
341.728990
 20
174.388690
 30
0.0
 10
341.072350
 20
174.663800
 30
0.0
  0
SPLINE
  5
282
100
AcDbEntity
  8
Layer_1
 62
7
100
AcDbSpline
 70
8
 71
3
 72
8
 73
4
 74
0
 40
0
 40
0
 40
0
 40
0
 40
1
 40
1
 40
1
 40
1
 10
341.072350
 20
174.663800
 30
0.0
 10
340.415710
 20
174.938920
 30
0.0
 10
339.135550
 20
176.072920
 30
0.0
 10
338.227520
 20
177.183810
 30
0.0
  0
SPLINE
  5
283
100
AcDbEntity
  8
Layer_1
 62
7
100
AcDbSpline
 70
8
 71
3
 72
8
 73
4
 74
0
 40
0
 40
0
 40
0
 40
0
 40
1
 40
1
 40
1
 40
1
 10
338.227520
 20
177.183810
 30
0.0
 10
333.216950
 20
183.313820
 30
0.0
 10
340.620810
 20
191.737060
 30
0.0
 10
349.019990
 20
189.462180
 30
0.0
  0
SPLINE
  5
284
100
AcDbEntity
  8
Layer_1
 62
7
100
AcDbSpline
 70
8
 71
3
 72
8
 73
4
 74
0
 40
0
 40
0
 40
0
 40
0
 40
1
 40
1
 40
1
 40
1
 10
349.019990
 20
189.462180
 30
0.0
 10
353.107810
 20
188.355020
 30
0.0
 10
355.268090
 20
186.528740
 30
0.0
 10
356.066550
 20
183.505100
 30
0.0
  0
SPLINE
  5
285
100
AcDbEntity
  8
Layer_1
 62
7
100
AcDbSpline
 70
8
 71
3
 72
8
 73
4
 74
0
 40
0
 40
0
 40
0
 40
0
 40
1
 40
1
 40
1
 40
1
 10
356.066550
 20
183.505100
 30
0.0
 10
356.942850
 20
180.186770
 30
0.0
 10
355.782630
 20
177.545720
 30
0.0
 10
352.562120
 20
175.527870
 30
0.0
  0
SPLINE
  5
286
100
AcDbEntity
  8
Layer_1
 62
7
100
AcDbSpline
 70
8
 71
3
 72
8
 73
4
 74
0
 40
0
 40
0
 40
0
 40
0
 40
1
 40
1
 40
1
 40
1
 10
352.562120
 20
175.527870
 30
0.0
 10
350.956070
 20
174.521590
 30
0.0
 10
349.889160
 20
173.278870
 30
0.0
 10
349.875350
 20
172.398360
 30
0.0
  0
SPLINE
  5
287
100
AcDbEntity
  8
Layer_1
 62
7
100
AcDbSpline
 70
8
 71
3
 72
8
 73
4
 74
0
 40
0
 40
0
 40
0
 40
0
 40
1
 40
1
 40
1
 40
1
 10
349.875350
 20
172.398360
 30
0.0
 10
349.855150
 20
171.107140
 30
0.0
 10
350.553130
 20
170.937920
 30
0.0
 10
355.899740
 20
170.937920
 30
0.0
  0
SPLINE
  5
288
100
AcDbEntity
  8
Layer_1
 62
7
100
AcDbSpline
 70
8
 71
3
 72
8
 73
4
 74
0
 40
0
 40
0
 40
0
 40
0
 40
1
 40
1
 40
1
 40
1
 10
355.899740
 20
170.937920
 30
0.0
 10
359.225750
 20
170.937920
 30
0.0
 10
362.527250
 20
171.347830
 30
0.0
 10
363.236410
 20
171.848860
 30
0.0
  0
SPLINE
  5
289
100
AcDbEntity
  8
Layer_1
 62
7
100
AcDbSpline
 70
8
 71
3
 72
8
 73
4
 74
0
 40
0
 40
0
 40
0
 40
0
 40
1
 40
1
 40
1
 40
1
 10
363.236410
 20
171.848860
 30
0.0
 10
365.279940
 20
173.292600
 30
0.0
 10
368.753820
 20
172.036730
 30
0.0
 10
369.614510
 20
169.543060
 30
0.0
  0
SPLINE
  5
28a
100
AcDbEntity
  8
Layer_1
 62
7
100
AcDbSpline
 70
8
 71
3
 72
8
 73
4
 74
0
 40
0
 40
0
 40
0
 40
0
 40
1
 40
1
 40
1
 40
1
 10
369.614510
 20
169.543060
 30
0.0
 10
370.260990
 20
167.670050
 30
0.0
 10
370.169950
 20
167.208120
 30
0.0
 10
368.883210
 20
165.832680
 30
0.0
  0
SPLINE
  5
28b
100
AcDbEntity
  8
Layer_1
 62
7
100
AcDbSpline
 70
8
 71
3
 72
8
 73
4
 74
0
 40
0
 40
0
 40
0
 40
0
 40
1
 40
1
 40
1
 40
1
 10
368.883210
 20
165.832680
 30
0.0
 10
367.323150
 20
164.165060
 30
0.0
 10
363.467110
 20
163.697270
 30
0.0
 10
362.812190
 20
165.096180
 30
0.0
  0
SPLINE
  5
28c
100
AcDbEntity
  8
Layer_1
 62
7
100
AcDbSpline
 70
8
 71
3
 72
8
 73
4
 74
0
 40
0
 40
0
 40
0
 40
0
 40
1
 40
1
 40
1
 40
1
 10
362.812190
 20
165.096180
 30
0.0
 10
362.594110
 20
165.561960
 30
0.0
 10
359.644710
 20
165.930700
 30
0.0
 10
356.136950
 20
165.930700
 30
0.0
  0
LWPOLYLINE
  5
28d
100
AcDbEntity
  8
Layer_1
 62
7
100
AcDbPolyline
 90
3
 70
0
 10
342.266230
 20
153.883620
 30
0.0
 10
342.266230
 20
166.038090
 30
0.0
 10
335.786360
 20
165.663320
 30
0.0
  0
SPLINE
  5
28e
100
AcDbEntity
  8
Layer_1
 62
7
100
AcDbSpline
 70
8
 71
3
 72
8
 73
4
 74
0
 40
0
 40
0
 40
0
 40
0
 40
1
 40
1
 40
1
 40
1
 10
349.852430
 20
153.829930
 30
0.0
 10
349.852430
 20
139.866920
 30
0.0
 10
349.404440
 20
140.569740
 30
0.0
 10
356.468590
 20
143.450020
 30
0.0
  0
SPLINE
  5
28f
100
AcDbEntity
  8
Layer_1
 62
7
100
AcDbSpline
 70
8
 71
3
 72
8
 73
4
 74
0
 40
0
 40
0
 40
0
 40
0
 40
1
 40
1
 40
1
 40
1
 10
356.468590
 20
143.450020
 30
0.0
 10
359.900910
 20
144.849500
 30
0.0
 10
360.554860
 20
145.384610
 30
0.0
 10
359.969900
 20
146.315070
 30
0.0
  0
SPLINE
  5
290
100
AcDbEntity
  8
Layer_1
 62
7
100
AcDbSpline
 70
8
 71
3
 72
8
 73
4
 74
0
 40
0
 40
0
 40
0
 40
0
 40
1
 40
1
 40
1
 40
1
 10
359.969900
 20
146.315070
 30
0.0
 10
359.404180
 20
147.214900
 30
0.0
 10
359.630840
 20
147.774930
 30
0.0
 10
361.031380
 20
148.937580
 30
0.0
  0
SPLINE
  5
291
100
AcDbEntity
  8
Layer_1
 62
7
100
AcDbSpline
 70
8
 71
3
 72
8
 73
4
 74
0
 40
0
 40
0
 40
0
 40
0
 40
1
 40
1
 40
1
 40
1
 10
361.031380
 20
148.937580
 30
0.0
 10
362.010830
 20
149.750670
 30
0.0
 10
364.131830
 20
151.841280
 30
0.0
 10
365.744740
 20
153.583360
 30
0.0
  0
SPLINE
  5
292
100
AcDbEntity
  8
Layer_1
 62
7
100
AcDbSpline
 70
8
 71
3
 72
8
 73
4
 74
0
 40
0
 40
0
 40
0
 40
0
 40
1
 40
1
 40
1
 40
1
 10
365.744740
 20
153.583360
 30
0.0
 10
367.357640
 20
155.325460
 30
0.0
 10
369.007940
 20
156.750790
 30
0.0
 10
369.412060
 20
156.750790
 30
0.0
  0
SPLINE
  5
293
100
AcDbEntity
  8
Layer_1
 62
7
100
AcDbSpline
 70
8
 71
3
 72
8
 73
4
 74
0
 40
0
 40
0
 40
0
 40
0
 40
1
 40
1
 40
1
 40
1
 10
369.412060
 20
156.750790
 30
0.0
 10
370.361950
 20
156.750790
 30
0.0
 10
371.979520
 20
151.635270
 30
0.0
 10
371.976480
 20
148.640870
 30
0.0
  0
SPLINE
  5
294
100
AcDbEntity
  8
Layer_1
 62
7
100
AcDbSpline
 70
8
 71
3
 72
8
 73
4
 74
0
 40
0
 40
0
 40
0
 40
0
 40
1
 40
1
 40
1
 40
1
 10
371.976480
 20
148.640870
 30
0.0
 10
371.972480
 20
144.056440
 30
0.0
 10
368.496720
 20
139.039460
 30
0.0
 10
367.217900
 20
141.770930
 30
0.0
  0
SPLINE
  5
295
100
AcDbEntity
  8
Layer_1
 62
7
100
AcDbSpline
 70
8
 71
3
 72
8
 73
4
 74
0
 40
0
 40
0
 40
0
 40
0
 40
1
 40
1
 40
1
 40
1
 10
367.217900
 20
141.770930
 30
0.0
 10
366.962140
 20
142.317230
 30
0.0
 10
365.994480
 20
141.828530
 30
0.0
 10
364.648330
 20
140.473100
 30
0.0
  0
SPLINE
  5
296
100
AcDbEntity
  8
Layer_1
 62
7
100
AcDbSpline
 70
8
 71
3
 72
8
 73
4
 74
0
 40
0
 40
0
 40
0
 40
0
 40
1
 40
1
 40
1
 40
1
 10
364.648330
 20
140.473100
 30
0.0
 10
360.401990
 20
136.197540
 30
0.0
 10
349.706280
 20
130.788350
 30
0.0
 10
345.768470
 20
130.924880
 30
0.0
  0
SPLINE
  5
297
100
AcDbEntity
  8
Layer_1
 62
7
100
AcDbSpline
 70
8
 71
3
 72
8
 73
4
 74
0
 40
0
 40
0
 40
0
 40
0
 40
1
 40
1
 40
1
 40
1
 10
345.768470
 20
130.924880
 30
0.0
 10
345.059190
 20
130.949480
 30
0.0
 10
342.345260
 20
131.817200
 30
0.0
 10
339.737510
 20
132.853140
 30
0.0
  0
LWPOLYLINE
  5
298
100
AcDbEntity
  8
Layer_1
 62
7
100
AcDbPolyline
 90
3
 70
0
 10
356.136950
 20
165.930700
 30
0.0
 10
349.852430
 20
165.930700
 30
0.0
 10
349.852430
 20
153.829930
 30
0.0
  0
SPLINE
  5
299
100
AcDbEntity
  8
Layer_1
 62
7
100
AcDbSpline
 70
8
 71
3
 72
8
 73
4
 74
0
 40
0
 40
0
 40
0
 40
0
 40
1
 40
1
 40
1
 40
1
 10
350.803970
 20
133.681510
 30
0.0
 10
355.345970
 20
135.278400
 30
0.0
 10
359.665020
 20
137.947690
 30
0.0
 10
363.328340
 20
141.421930
 30
0.0
  0
SPLINE
  5
29a
100
AcDbEntity
  8
Layer_1
 62
7
100
AcDbSpline
 70
8
 71
3
 72
8
 73
4
 74
0
 40
0
 40
0
 40
0
 40
0
 40
1
 40
1
 40
1
 40
1
 10
363.328340
 20
141.421930
 30
0.0
 10
365.806410
 20
143.772120
 30
0.0
 10
366.748730
 20
144.255400
 30
0.0
 10
367.555770
 20
143.590060
 30
0.0
  0
SPLINE
  5
29b
100
AcDbEntity
  8
Layer_1
 62
7
100
AcDbSpline
 70
8
 71
3
 72
8
 73
4
 74
0
 40
0
 40
0
 40
0
 40
0
 40
1
 40
1
 40
1
 40
1
 10
367.555770
 20
143.590060
 30
0.0
 10
368.959880
 20
142.432510
 30
0.0
 10
370.085430
 20
144.860810
 30
0.0
 10
370.072610
 20
149.020000
 30
0.0
  0
SPLINE
  5
29c
100
AcDbEntity
  8
Layer_1
 62
7
100
AcDbSpline
 70
8
 71
3
 72
8
 73
4
 74
0
 40
0
 40
0
 40
0
 40
0
 40
1
 40
1
 40
1
 40
1
 10
370.072610
 20
149.020000
 30
0.0
 10
370.055310
 20
154.591220
 30
0.0
 10
369.377930
 20
154.859410
 30
0.0
 10
365.382000
 20
150.876750
 30
0.0
  0
SPLINE
  5
29d
100
AcDbEntity
  8
Layer_1
 62
7
100
AcDbSpline
 70
8
 71
3
 72
8
 73
4
 74
0
 40
0
 40
0
 40
0
 40
0
 40
1
 40
1
 40
1
 40
1
 10
365.382000
 20
150.876750
 30
0.0
 10
362.886310
 20
148.389360
 30
0.0
 10
362.042870
 20
147.106130
 30
0.0
 10
362.603220
 20
146.648970
 30
0.0
  0
SPLINE
  5
29e
100
AcDbEntity
  8
Layer_1
 62
7
100
AcDbSpline
 70
8
 71
3
 72
8
 73
4
 74
0
 40
0
 40
0
 40
0
 40
0
 40
1
 40
1
 40
1
 40
1
 10
362.603220
 20
146.648970
 30
0.0
 10
363.045710
 20
146.287940
 30
0.0
 10
363.273750
 20
145.832150
 30
0.0
 10
363.109970
 20
145.636070
 30
0.0
  0
SPLINE
  5
29f
100
AcDbEntity
  8
Layer_1
 62
7
100
AcDbSpline
 70
8
 71
3
 72
8
 73
4
 74
0
 40
0
 40
0
 40
0
 40
0
 40
1
 40
1
 40
1
 40
1
 10
363.109970
 20
145.636070
 30
0.0
 10
362.073020
 20
144.394600
 30
0.0
 10
358.192890
 20
142.385350
 30
0.0
 10
354.783200
 20
141.324180
 30
0.0
  0
SPLINE
  5
2a0
100
AcDbEntity
  8
Layer_1
 62
7
100
AcDbSpline
 70
8
 71
3
 72
8
 73
4
 74
0
 40
0
 40
0
 40
0
 40
0
 40
1
 40
1
 40
1
 40
1
 10
354.783200
 20
141.324180
 30
0.0
 10
348.045820
 20
139.227350
 30
0.0
 10
348.588070
 20
138.160620
 30
0.0
 10
348.588070
 20
153.511410
 30
0.0
  0
LWPOLYLINE
  5
2a1
100
AcDbEntity
  8
Layer_1
 62
7
100
AcDbPolyline
 90
1
 70
1
 10
339.737510
 20
132.853140
 30
0.0
  0
SPLINE
  5
2a2
100
AcDbEntity
  8
Layer_1
 62
7
100
AcDbSpline
 70
8
 71
3
 72
8
 73
4
 74
0
 40
0
 40
0
 40
0
 40
0
 40
1
 40
1
 40
1
 40
1
 10
358.228850
 20
166.655360
 30
0.0
 10
367.781180
 20
166.350790
 30
0.0
 10
367.871470
 20
166.364930
 30
0.0
 10
368.068740
 20
168.196180
 30
0.0
  0
SPLINE
  5
2a3
100
AcDbEntity
  8
Layer_1
 62
7
100
AcDbSpline
 70
8
 71
3
 72
8
 73
4
 74
0
 40
0
 40
0
 40
0
 40
0
 40
1
 40
1
 40
1
 40
1
 10
368.068740
 20
168.196180
 30
0.0
 10
368.221330
 20
169.612680
 30
0.0
 10
367.866790
 20
170.177260
 30
0.0
 10
366.550920
 20
170.613240
 30
0.0
  0
SPLINE
  5
2a4
100
AcDbEntity
  8
Layer_1
 62
7
100
AcDbSpline
 70
8
 71
3
 72
8
 73
4
 74
0
 40
0
 40
0
 40
0
 40
0
 40
1
 40
1
 40
1
 40
1
 10
366.550920
 20
170.613240
 30
0.0
 10
365.577220
 20
170.935860
 30
0.0
 10
364.331690
 20
170.767990
 30
0.0
 10
363.673620
 20
170.225460
 30
0.0
  0
SPLINE
  5
2a5
100
AcDbEntity
  8
Layer_1
 62
7
100
AcDbSpline
 70
8
 71
3
 72
8
 73
4
 74
0
 40
0
 40
0
 40
0
 40
0
 40
1
 40
1
 40
1
 40
1
 10
363.673620
 20
170.225460
 30
0.0
 10
362.984020
 20
169.656960
 30
0.0
 10
359.688440
 20
169.268850
 30
0.0
 10
355.550660
 20
169.268850
 30
0.0
  0
LWPOLYLINE
  5
2a6
100
AcDbEntity
  8
Layer_1
 62
7
100
AcDbPolyline
 90
3
 70
0
 10
348.588070
 20
153.511410
 30
0.0
 10
348.588070
 20
166.962750
 30
0.0
 10
358.228850
 20
166.655360
 30
0.0
  0
SPLINE
  5
2a7
100
AcDbEntity
  8
Layer_1
 62
7
100
AcDbSpline
 70
8
 71
3
 72
8
 73
4
 74
0
 40
0
 40
0
 40
0
 40
0
 40
1
 40
1
 40
1
 40
1
 10
348.610970
 20
171.981100
 30
0.0
 10
348.630870
 20
174.336440
 30
0.0
 10
348.984420
 20
174.912970
 30
0.0
 10
351.297750
 20
176.362420
 30
0.0
  0
SPLINE
  5
2a8
100
AcDbEntity
  8
Layer_1
 62
7
100
AcDbSpline
 70
8
 71
3
 72
8
 73
4
 74
0
 40
0
 40
0
 40
0
 40
0
 40
1
 40
1
 40
1
 40
1
 10
351.297750
 20
176.362420
 30
0.0
 10
354.860000
 20
178.594380
 30
0.0
 10
355.758310
 20
181.738950
 30
0.0
 10
353.671360
 20
184.671450
 30
0.0
  0
SPLINE
  5
2a9
100
AcDbEntity
  8
Layer_1
 62
7
100
AcDbSpline
 70
8
 71
3
 72
8
 73
4
 74
0
 40
0
 40
0
 40
0
 40
0
 40
1
 40
1
 40
1
 40
1
 10
353.671360
 20
184.671450
 30
0.0
 10
349.446050
 20
190.608740
 30
0.0
 10
339.185490
 20
188.957570
 30
0.0
 10
338.582820
 20
182.243360
 30
0.0
  0
SPLINE
  5
2aa
100
AcDbEntity
  8
Layer_1
 62
7
100
AcDbSpline
 70
8
 71
3
 72
8
 73
4
 74
0
 40
0
 40
0
 40
0
 40
0
 40
1
 40
1
 40
1
 40
1
 10
338.582820
 20
182.243360
 30
0.0
 10
338.341680
 20
179.556880
 30
0.0
 10
340.307020
 20
176.356310
 30
0.0
 10
342.680700
 20
175.569850
 30
0.0
  0
SPLINE
  5
2ab
100
AcDbEntity
  8
Layer_1
 62
7
100
AcDbSpline
 70
8
 71
3
 72
8
 73
4
 74
0
 40
0
 40
0
 40
0
 40
0
 40
1
 40
1
 40
1
 40
1
 10
342.680700
 20
175.569850
 30
0.0
 10
343.992850
 20
175.135110
 30
0.0
 10
344.208540
 20
174.628500
 30
0.0
 10
344.043160
 20
172.369730
 30
0.0
  0
LWPOLYLINE
  5
2ac
100
AcDbEntity
  8
Layer_1
 62
7
100
AcDbPolyline
 90
3
 70
0
 10
355.550660
 20
169.268850
 30
0.0
 10
348.588070
 20
169.268850
 30
0.0
 10
348.610970
 20
171.981100
 30
0.0
  0
SPLINE
  5
2ad
100
AcDbEntity
  8
Layer_1
 62
7
100
AcDbSpline
 70
8
 71
3
 72
8
 73
4
 74
0
 40
0
 40
0
 40
0
 40
0
 40
1
 40
1
 40
1
 40
1
 10
336.576590
 20
169.782420
 30
0.0
 10
332.578040
 20
169.835420
 30
0.0
 10
328.436860
 20
170.149010
 30
0.0
 10
327.373990
 20
170.479400
 30
0.0
  0
SPLINE
  5
2ae
100
AcDbEntity
  8
Layer_1
 62
7
100
AcDbSpline
 70
8
 71
3
 72
8
 73
4
 74
0
 40
0
 40
0
 40
0
 40
0
 40
1
 40
1
 40
1
 40
1
 10
327.373990
 20
170.479400
 30
0.0
 10
324.908800
 20
171.245720
 30
0.0
 10
323.267730
 20
169.246230
 30
0.0
 10
324.609790
 20
167.111510
 30
0.0
  0
SPLINE
  5
2af
100
AcDbEntity
  8
Layer_1
 62
7
100
AcDbSpline
 70
8
 71
3
 72
8
 73
4
 74
0
 40
0
 40
0
 40
0
 40
0
 40
1
 40
1
 40
1
 40
1
 10
324.609790
 20
167.111510
 30
0.0
 10
325.221110
 20
166.139160
 30
0.0
 10
325.953530
 20
165.951800
 30
0.0
 10
327.373990
 20
166.404360
 30
0.0
  0
SPLINE
  5
2b0
100
AcDbEntity
  8
Layer_1
 62
7
100
AcDbSpline
 70
8
 71
3
 72
8
 73
4
 74
0
 40
0
 40
0
 40
0
 40
0
 40
1
 40
1
 40
1
 40
1
 10
327.373990
 20
166.404360
 30
0.0
 10
329.737330
 20
167.157360
 30
0.0
 10
342.779720
 20
167.377760
 30
0.0
 10
343.636120
 20
166.679170
 30
0.0
  0
SPLINE
  5
2b1
100
AcDbEntity
  8
Layer_1
 62
7
100
AcDbSpline
 70
8
 71
3
 72
8
 73
4
 74
0
 40
0
 40
0
 40
0
 40
0
 40
1
 40
1
 40
1
 40
1
 10
343.636120
 20
166.679170
 30
0.0
 10
344.026500
 20
166.360720
 30
0.0
 10
344.087040
 20
161.377540
 30
0.0
 10
343.800870
 20
153.117930
 30
0.0
  0
SPLINE
  5
2b2
100
AcDbEntity
  8
Layer_1
 62
7
100
AcDbSpline
 70
8
 71
3
 72
8
 73
4
 74
0
 40
0
 40
0
 40
0
 40
0
 40
1
 40
1
 40
1
 40
1
 10
343.800870
 20
153.117930
 30
0.0
 10
343.408560
 20
141.795050
 30
0.0
 10
343.210220
 20
140.060150
 30
0.0
 10
342.307990
 20
140.060150
 30
0.0
  0
SPLINE
  5
2b3
100
AcDbEntity
  8
Layer_1
 62
7
100
AcDbSpline
 70
8
 71
3
 72
8
 73
4
 74
0
 40
0
 40
0
 40
0
 40
0
 40
1
 40
1
 40
1
 40
1
 10
342.307990
 20
140.060150
 30
0.0
 10
340.406380
 20
140.060150
 30
0.0
 10
334.045630
 20
142.531340
 30
0.0
 10
331.452970
 20
144.277390
 30
0.0
  0
SPLINE
  5
2b4
100
AcDbEntity
  8
Layer_1
 62
7
100
AcDbSpline
 70
8
 71
3
 72
8
 73
4
 74
0
 40
0
 40
0
 40
0
 40
0
 40
1
 40
1
 40
1
 40
1
 10
331.452970
 20
144.277390
 30
0.0
 10
329.348910
 20
145.694390
 30
0.0
 10
329.030460
 20
146.211860
 30
0.0
 10
329.653100
 20
147.202240
 30
0.0
  0
SPLINE
  5
2b5
100
AcDbEntity
  8
Layer_1
 62
7
100
AcDbSpline
 70
8
 71
3
 72
8
 73
4
 74
0
 40
0
 40
0
 40
0
 40
0
 40
1
 40
1
 40
1
 40
1
 10
329.653100
 20
147.202240
 30
0.0
 10
330.071400
 20
147.867610
 30
0.0
 10
330.132150
 20
148.405510
 30
0.0
 10
329.789000
 20
148.405510
 30
0.0
  0
SPLINE
  5
2b6
100
AcDbEntity
  8
Layer_1
 62
7
100
AcDbSpline
 70
8
 71
3
 72
8
 73
4
 74
0
 40
0
 40
0
 40
0
 40
0
 40
1
 40
1
 40
1
 40
1
 10
329.789000
 20
148.405510
 30
0.0
 10
329.447670
 20
148.405510
 30
0.0
 10
327.849800
 20
149.937720
 30
0.0
 10
326.238180
 20
151.810420
 30
0.0
  0
LWPOLYLINE
  5
2b7
100
AcDbEntity
  8
Layer_1
 62
7
100
AcDbPolyline
 90
3
 70
0
 10
344.043160
 20
172.369730
 30
0.0
 10
343.846700
 20
169.686120
 30
0.0
 10
336.576590
 20
169.782420
 30
0.0
  0
SPLINE
  5
2b8
100
AcDbEntity
  8
Layer_1
 62
7
100
AcDbSpline
 70
8
 71
3
 72
8
 73
4
 74
0
 40
0
 40
0
 40
0
 40
0
 40
1
 40
1
 40
1
 40
1
 10
322.672160
 20
153.007890
 30
0.0
 10
321.854260
 20
150.168080
 30
0.0
 10
321.862700
 20
147.055130
 30
0.0
 10
322.693760
 20
145.004980
 30
0.0
  0
SPLINE
  5
2b9
100
AcDbEntity
  8
Layer_1
 62
7
100
AcDbSpline
 70
8
 71
3
 72
8
 73
4
 74
0
 40
0
 40
0
 40
0
 40
0
 40
1
 40
1
 40
1
 40
1
 10
322.693760
 20
145.004980
 30
0.0
 10
323.186530
 20
143.789520
 30
0.0
 10
323.751140
 20
143.515750
 30
0.0
 10
324.947550
 20
143.912140
 30
0.0
  0
SPLINE
  5
2ba
100
AcDbEntity
  8
Layer_1
 62
7
100
AcDbSpline
 70
8
 71
3
 72
8
 73
4
 74
0
 40
0
 40
0
 40
0
 40
0
 40
1
 40
1
 40
1
 40
1
 10
324.947550
 20
143.912140
 30
0.0
 10
326.130630
 20
144.304120
 30
0.0
 10
326.983240
 20
143.909140
 30
0.0
 10
328.241220
 20
142.383410
 30
0.0
  0
SPLINE
  5
2bb
100
AcDbEntity
  8
Layer_1
 62
7
100
AcDbSpline
 70
8
 71
3
 72
8
 73
4
 74
0
 40
0
 40
0
 40
0
 40
0
 40
1
 40
1
 40
1
 40
1
 10
328.241220
 20
142.383410
 30
0.0
 10
330.931210
 20
139.122470
 30
0.0
 10
334.432870
 20
136.649390
 30
0.0
 10
339.317530
 20
134.560670
 30
0.0
  0
SPLINE
  5
2bc
100
AcDbEntity
  8
Layer_1
 62
7
100
AcDbSpline
 70
8
 71
3
 72
8
 73
4
 74
0
 40
0
 40
0
 40
0
 40
0
 40
1
 40
1
 40
1
 40
1
 10
339.317530
 20
134.560670
 30
0.0
 10
344.589010
 20
132.306540
 30
0.0
 10
346.480970
 20
132.161740
 30
0.0
 10
350.803880
 20
133.681590
 30
0.0
  0
LWPOLYLINE
  5
2bd
100
AcDbEntity
  8
Layer_1
 62
7
100
AcDbPolyline
 90
3
 70
0
 10
326.238180
 20
151.810420
 30
0.0
 10
323.307910
 20
155.215330
 30
0.0
 10
322.672160
 20
153.007890
 30
0.0
  0
SPLINE
  5
2be
100
AcDbEntity
  8
Layer_1
 62
7
100
AcDbSpline
 70
8
 71
3
 72
8
 73
4
 74
0
 40
0
 40
0
 40
0
 40
0
 40
1
 40
1
 40
1
 40
1
 10
342.740370
 20
178.515610
 30
0.0
 10
341.190780
 20
179.707060
 30
0.0
 10
341.355920
 20
183.104160
 30
0.0
 10
343.039090
 20
184.660450
 30
0.0
  0
SPLINE
  5
2bf
100
AcDbEntity
  8
Layer_1
 62
7
100
AcDbSpline
 70
8
 71
3
 72
8
 73
4
 74
0
 40
0
 40
0
 40
0
 40
0
 40
1
 40
1
 40
1
 40
1
 10
343.039090
 20
184.660450
 30
0.0
 10
347.129170
 20
188.442250
 30
0.0
 10
354.259080
 20
183.150160
 30
0.0
 10
350.494890
 20
179.126460
 30
0.0
  0
SPLINE
  5
2c0
100
AcDbEntity
  8
Layer_1
 62
7
100
AcDbSpline
 70
8
 71
3
 72
8
 73
4
 74
0
 40
0
 40
0
 40
0
 40
0
 40
1
 40
1
 40
1
 40
1
 10
350.494890
 20
179.126460
 30
0.0
 10
348.934230
 20
177.458200
 30
0.0
 10
344.563420
 20
177.113890
 30
0.0
 10
342.740370
 20
178.515610
 30
0.0
  0
LWPOLYLINE
  5
2c1
100
AcDbEntity
  8
Layer_1
 62
7
100
AcDbPolyline
 90
1
 70
1
 10
350.803880
 20
133.681590
 30
0.0
  0
SPLINE
  5
2c2
100
AcDbEntity
  8
Layer_1
 62
7
100
AcDbSpline
 70
8
 71
3
 72
8
 73
4
 74
0
 40
0
 40
0
 40
0
 40
0
 40
1
 40
1
 40
1
 40
1
 10
349.522130
 20
180.199860
 30
0.0
 10
350.608520
 20
181.603510
 30
0.0
 10
348.914850
 20
183.857440
 30
0.0
 10
346.573380
 20
184.124070
 30
0.0
  0
SPLINE
  5
2c3
100
AcDbEntity
  8
Layer_1
 62
7
100
AcDbSpline
 70
8
 71
3
 72
8
 73
4
 74
0
 40
0
 40
0
 40
0
 40
0
 40
1
 40
1
 40
1
 40
1
 10
346.573380
 20
184.124070
 30
0.0
 10
345.108090
 20
184.290940
 30
0.0
 10
344.078160
 20
183.909670
 30
0.0
 10
343.496990
 20
182.985250
 30
0.0
  0
SPLINE
  5
2c4
100
AcDbEntity
  8
Layer_1
 62
7
100
AcDbSpline
 70
8
 71
3
 72
8
 73
4
 74
0
 40
0
 40
0
 40
0
 40
0
 40
1
 40
1
 40
1
 40
1
 10
343.496990
 20
182.985250
 30
0.0
 10
342.735350
 20
181.773760
 30
0.0
 10
342.818200
 20
181.387300
 30
0.0
 10
344.143320
 20
179.970820
 30
0.0
  0
SPLINE
  5
2c5
100
AcDbEntity
  8
Layer_1
 62
7
100
AcDbSpline
 70
8
 71
3
 72
8
 73
4
 74
0
 40
0
 40
0
 40
0
 40
0
 40
1
 40
1
 40
1
 40
1
 10
344.143320
 20
179.970820
 30
0.0
 10
345.677710
 20
178.330650
 30
0.0
 10
348.157140
 20
178.436230
 30
0.0
 10
349.522130
 20
180.199860
 30
0.0
  0
LWPOLYLINE
  5
2c6
100
AcDbEntity
  8
Layer_1
 62
7
100
AcDbPolyline
 90
1
 70
1
 10
342.740370
 20
178.515610
 30
0.0
  0
SPLINE
  5
2c7
100
AcDbEntity
  8
Layer_1
 62
7
100
AcDbSpline
 70
8
 71
3
 72
8
 73
4
 74
0
 40
0
 40
0
 40
0
 40
0
 40
1
 40
1
 40
1
 40
1
 10
109.758570
 20
309.247380
 30
0.0
 10
103.664260
 20
312.025600
 30
0.0
 10
97.536575
 20
322.669820
 30
0.0
 10
95.793927
 20
333.505010
 30
0.0
  0
SPLINE
  5
2c8
100
AcDbEntity
  8
Layer_1
 62
7
100
AcDbSpline
 70
8
 71
3
 72
8
 73
4
 74
0
 40
0
 40
0
 40
0
 40
0
 40
1
 40
1
 40
1
 40
1
 10
95.793927
 20
333.505010
 30
0.0
 10
94.794228
 20
339.720700
 30
0.0
 10
94.909545
 20
351.638900
 30
0.0
 10
96.024026
 20
357.287290
 30
0.0
  0
SPLINE
  5
2c9
100
AcDbEntity
  8
Layer_1
 62
7
100
AcDbSpline
 70
8
 71
3
 72
8
 73
4
 74
0
 40
0
 40
0
 40
0
 40
0
 40
1
 40
1
 40
1
 40
1
 10
96.024026
 20
357.287290
 30
0.0
 10
97.242399
 20
363.462170
 30
0.0
 10
100.121080
 20
370.931620
 30
0.0
 10
102.596580
 20
374.341390
 30
0.0
  0
SPLINE
  5
2ca
100
AcDbEntity
  8
Layer_1
 62
7
100
AcDbSpline
 70
8
 71
3
 72
8
 73
4
 74
0
 40
0
 40
0
 40
0
 40
0
 40
1
 40
1
 40
1
 40
1
 10
102.596580
 20
374.341390
 30
0.0
 10
108.536660
 20
382.523270
 30
0.0
 10
116.969040
 20
384.811460
 30
0.0
 10
124.059890
 20
380.165640
 30
0.0
  0
SPLINE
  5
2cb
100
AcDbEntity
  8
Layer_1
 62
7
100
AcDbSpline
 70
8
 71
3
 72
8
 73
4
 74
0
 40
0
 40
0
 40
0
 40
0
 40
1
 40
1
 40
1
 40
1
 10
124.059890
 20
380.165640
 30
0.0
 10
126.616690
 20
378.490460
 30
0.0
 10
126.842590
 20
378.466160
 30
0.0
 10
127.410270
 20
379.805250
 30
0.0
  0
SPLINE
  5
2cc
100
AcDbEntity
  8
Layer_1
 62
7
100
AcDbSpline
 70
8
 71
3
 72
8
 73
4
 74
0
 40
0
 40
0
 40
0
 40
0
 40
1
 40
1
 40
1
 40
1
 10
127.410270
 20
379.805250
 30
0.0
 10
127.745080
 20
380.595000
 30
0.0
 10
128.716060
 20
381.241160
 30
0.0
 10
129.568050
 20
381.241160
 30
0.0
  0
LWPOLYLINE
  5
2cd
100
AcDbEntity
  8
Layer_1
 62
7
100
AcDbPolyline
 90
1
 70
1
 10
349.522130
 20
180.199860
 30
0.0
  0
SPLINE
  5
2ce
100
AcDbEntity
  8
Layer_1
 62
7
100
AcDbSpline
 70
8
 71
3
 72
8
 73
4
 74
0
 40
0
 40
0
 40
0
 40
0
 40
1
 40
1
 40
1
 40
1
 10
129.586850
 20
356.205060
 30
0.0
 10
128.372100
 20
356.205060
 30
0.0
 10
127.965980
 20
356.764220
 30
0.0
 10
127.616880
 20
358.917300
 30
0.0
  0
SPLINE
  5
2cf
100
AcDbEntity
  8
Layer_1
 62
7
100
AcDbSpline
 70
8
 71
3
 72
8
 73
4
 74
0
 40
0
 40
0
 40
0
 40
0
 40
1
 40
1
 40
1
 40
1
 10
127.616880
 20
358.917300
 30
0.0
 10
125.222300
 20
373.686730
 30
0.0
 10
119.433530
 20
379.953700
 30
0.0
 10
111.982060
 20
375.843720
 30
0.0
  0
SPLINE
  5
2d0
100
AcDbEntity
  8
Layer_1
 62
7
100
AcDbSpline
 70
8
 71
3
 72
8
 73
4
 74
0
 40
0
 40
0
 40
0
 40
0
 40
1
 40
1
 40
1
 40
1
 10
111.982060
 20
375.843720
 30
0.0
 10
106.933010
 20
373.058830
 30
0.0
 10
103.472890
 20
362.744800
 30
0.0
 10
102.849470
 20
348.620980
 30
0.0
  0
SPLINE
  5
2d1
100
AcDbEntity
  8
Layer_1
 62
7
100
AcDbSpline
 70
8
 71
3
 72
8
 73
4
 74
0
 40
0
 40
0
 40
0
 40
0
 40
1
 40
1
 40
1
 40
1
 10
102.849470
 20
348.620980
 30
0.0
 10
102.487680
 20
340.424350
 30
0.0
 10
103.531880
 20
331.299980
 30
0.0
 10
105.567820
 20
324.867590
 30
0.0
  0
SPLINE
  5
2d2
100
AcDbEntity
  8
Layer_1
 62
7
100
AcDbSpline
 70
8
 71
3
 72
8
 73
4
 74
0
 40
0
 40
0
 40
0
 40
0
 40
1
 40
1
 40
1
 40
1
 10
105.567820
 20
324.867590
 30
0.0
 10
106.705770
 20
321.272350
 30
0.0
 10
109.932340
 20
316.410450
 30
0.0
 10
112.214050
 20
314.852860
 30
0.0
  0
SPLINE
  5
2d3
100
AcDbEntity
  8
Layer_1
 62
7
100
AcDbSpline
 70
8
 71
3
 72
8
 73
4
 74
0
 40
0
 40
0
 40
0
 40
0
 40
1
 40
1
 40
1
 40
1
 10
112.214050
 20
314.852860
 30
0.0
 10
115.785090
 20
312.415120
 30
0.0
 10
122.357560
 20
313.788010
 30
0.0
 10
124.311430
 20
317.379830
 30
0.0
  0
SPLINE
  5
2d4
100
AcDbEntity
  8
Layer_1
 62
7
100
AcDbSpline
 70
8
 71
3
 72
8
 73
4
 74
0
 40
0
 40
0
 40
0
 40
0
 40
1
 40
1
 40
1
 40
1
 10
124.311430
 20
317.379830
 30
0.0
 10
124.876510
 20
318.418610
 30
0.0
 10
124.951630
 20
332.163580
 30
0.0
 10
124.402530
 20
334.052440
 30
0.0
  0
SPLINE
  5
2d5
100
AcDbEntity
  8
Layer_1
 62
7
100
AcDbSpline
 70
8
 71
3
 72
8
 73
4
 74
0
 40
0
 40
0
 40
0
 40
0
 40
1
 40
1
 40
1
 40
1
 10
124.402530
 20
334.052440
 30
0.0
 10
123.923710
 20
335.699680
 30
0.0
 10
120.921250
 20
337.845250
 30
0.0
 10
119.095000
 20
337.845250
 30
0.0
  0
SPLINE
  5
2d6
100
AcDbEntity
  8
Layer_1
 62
7
100
AcDbSpline
 70
8
 71
3
 72
8
 73
4
 74
0
 40
0
 40
0
 40
0
 40
0
 40
1
 40
1
 40
1
 40
1
 10
119.095000
 20
337.845250
 30
0.0
 10
118.021700
 20
337.845250
 30
0.0
 10
117.796790
 20
338.278340
 30
0.0
 10
117.957270
 20
340.036150
 30
0.0
  0
LWPOLYLINE
  5
2d7
100
AcDbEntity
  8
Layer_1
 62
7
100
AcDbPolyline
 90
5
 70
0
 10
129.568050
 20
381.241160
 30
0.0
 10
131.117090
 20
381.241160
 30
0.0
 10
131.117090
 20
368.723110
 30
0.0
 10
131.117090
 20
356.205060
 30
0.0
 10
129.586850
 20
356.205060
 30
0.0
  0
SPLINE
  5
2d8
100
AcDbEntity
  8
Layer_1
 62
7
100
AcDbSpline
 70
8
 71
3
 72
8
 73
4
 74
0
 40
0
 40
0
 40
0
 40
0
 40
1
 40
1
 40
1
 40
1
 10
126.691790
 20
342.197350
 30
0.0
 10
137.541120
 20
342.159750
 30
0.0
 10
136.806720
 20
342.292950
 30
0.0
 10
136.806720
 20
340.360020
 30
0.0
  0
SPLINE
  5
2d9
100
AcDbEntity
  8
Layer_1
 62
7
100
AcDbSpline
 70
8
 71
3
 72
8
 73
4
 74
0
 40
0
 40
0
 40
0
 40
0
 40
1
 40
1
 40
1
 40
1
 10
136.806720
 20
340.360020
 30
0.0
 10
136.806720
 20
339.253550
 30
0.0
 10
136.069460
 20
338.295510
 30
0.0
 10
134.590050
 20
337.479520
 30
0.0
  0
SPLINE
  5
2da
100
AcDbEntity
  8
Layer_1
 62
7
100
AcDbSpline
 70
8
 71
3
 72
8
 73
4
 74
0
 40
0
 40
0
 40
0
 40
0
 40
1
 40
1
 40
1
 40
1
 10
134.590050
 20
337.479520
 30
0.0
 10
131.613500
 20
335.837740
 30
0.0
 10
131.039040
 20
333.416890
 30
0.0
 10
131.164550
 20
323.043990
 30
0.0
  0
SPLINE
  5
2db
100
AcDbEntity
  8
Layer_1
 62
7
100
AcDbSpline
 70
8
 71
3
 72
8
 73
4
 74
0
 40
0
 40
0
 40
0
 40
0
 40
1
 40
1
 40
1
 40
1
 10
131.164550
 20
323.043990
 30
0.0
 10
131.287940
 20
312.847580
 30
0.0
 10
131.453790
 20
313.144760
 30
0.0
 10
123.846960
 20
309.931110
 30
0.0
  0
SPLINE
  5
2dc
100
AcDbEntity
  8
Layer_1
 62
7
100
AcDbSpline
 70
8
 71
3
 72
8
 73
4
 74
0
 40
0
 40
0
 40
0
 40
0
 40
1
 40
1
 40
1
 40
1
 10
123.846960
 20
309.931110
 30
0.0
 10
118.213770
 20
307.551250
 30
0.0
 10
113.934700
 20
307.343570
 30
0.0
 10
109.758550
 20
309.247360
 30
0.0
  0
LWPOLYLINE
  5
2dd
100
AcDbEntity
  8
Layer_1
 62
7
100
AcDbPolyline
 90
3
 70
0
 10
117.957270
 20
340.036150
 30
0.0
 10
118.157310
 20
342.227050
 30
0.0
 10
126.691790
 20
342.197350
 30
0.0
  0
SPLINE
  5
2de
100
AcDbEntity
  8
Layer_1
 62
7
100
AcDbSpline
 70
8
 71
3
 72
8
 73
4
 74
0
 40
0
 40
0
 40
0
 40
0
 40
1
 40
1
 40
1
 40
1
 10
218.892420
 20
309.041460
 30
0.0
 10
217.621510
 20
309.658530
 30
0.0
 10
215.867950
 20
310.780700
 30
0.0
 10
214.995650
 20
311.535230
 30
0.0
  0
SPLINE
  5
2df
100
AcDbEntity
  8
Layer_1
 62
7
100
AcDbSpline
 70
8
 71
3
 72
8
 73
4
 74
0
 40
0
 40
0
 40
0
 40
0
 40
1
 40
1
 40
1
 40
1
 10
214.995650
 20
311.535230
 30
0.0
 10
213.487180
 20
312.839960
 30
0.0
 10
213.389430
 20
312.823040
 30
0.0
 10
212.996570
 20
311.189040
 30
0.0
  0
SPLINE
  5
2e0
100
AcDbEntity
  8
Layer_1
 62
7
100
AcDbSpline
 70
8
 71
3
 72
8
 73
4
 74
0
 40
0
 40
0
 40
0
 40
0
 40
1
 40
1
 40
1
 40
1
 10
212.996570
 20
311.189040
 30
0.0
 10
212.728710
 20
310.074950
 30
0.0
 10
212.042880
 20
309.471010
 30
0.0
 10
211.045640
 20
309.471010
 30
0.0
  0
LWPOLYLINE
  5
2e1
100
AcDbEntity
  8
Layer_1
 62
7
100
AcDbPolyline
 90
1
 70
1
 10
109.758550
 20
309.247360
 30
0.0
  0
SPLINE
  5
2e2
100
AcDbEntity
  8
Layer_1
 62
7
100
AcDbSpline
 70
8
 71
3
 72
8
 73
4
 74
0
 40
0
 40
0
 40
0
 40
0
 40
1
 40
1
 40
1
 40
1
 10
209.507780
 20
322.047100
 30
0.0
 10
209.507780
 20
334.426450
 30
0.0
 10
209.528980
 20
334.619020
 30
0.0
 10
210.861470
 20
334.356520
 30
0.0
  0
SPLINE
  5
2e3
100
AcDbEntity
  8
Layer_1
 62
7
100
AcDbSpline
 70
8
 71
3
 72
8
 73
4
 74
0
 40
0
 40
0
 40
0
 40
0
 40
1
 40
1
 40
1
 40
1
 10
210.861470
 20
334.356520
 30
0.0
 10
211.905200
 20
334.150900
 30
0.0
 10
212.403310
 20
333.115290
 30
0.0
 10
213.036900
 20
329.833610
 30
0.0
  0
SPLINE
  5
2e4
100
AcDbEntity
  8
Layer_1
 62
7
100
AcDbSpline
 70
8
 71
3
 72
8
 73
4
 74
0
 40
0
 40
0
 40
0
 40
0
 40
1
 40
1
 40
1
 40
1
 10
213.036900
 20
329.833610
 30
0.0
 10
214.141910
 20
324.110290
 30
0.0
 10
217.029430
 20
317.813790
 30
0.0
 10
219.600380
 20
315.521400
 30
0.0
  0
SPLINE
  5
2e5
100
AcDbEntity
  8
Layer_1
 62
7
100
AcDbSpline
 70
8
 71
3
 72
8
 73
4
 74
0
 40
0
 40
0
 40
0
 40
0
 40
1
 40
1
 40
1
 40
1
 10
219.600380
 20
315.521400
 30
0.0
 10
222.117650
 20
313.276860
 30
0.0
 10
226.519780
 20
313.009140
 30
0.0
 10
228.778910
 20
314.963190
 30
0.0
  0
SPLINE
  5
2e6
100
AcDbEntity
  8
Layer_1
 62
7
100
AcDbSpline
 70
8
 71
3
 72
8
 73
4
 74
0
 40
0
 40
0
 40
0
 40
0
 40
1
 40
1
 40
1
 40
1
 10
228.778910
 20
314.963190
 30
0.0
 10
230.971870
 20
316.860000
 30
0.0
 10
232.533260
 20
322.778970
 30
0.0
 10
232.004910
 20
327.192500
 30
0.0
  0
SPLINE
  5
2e7
100
AcDbEntity
  8
Layer_1
 62
7
100
AcDbSpline
 70
8
 71
3
 72
8
 73
4
 74
0
 40
0
 40
0
 40
0
 40
0
 40
1
 40
1
 40
1
 40
1
 10
232.004910
 20
327.192500
 30
0.0
 10
231.250620
 20
333.493430
 30
0.0
 10
229.203770
 20
336.417130
 30
0.0
 10
222.447960
 20
340.843560
 30
0.0
  0
SPLINE
  5
2e8
100
AcDbEntity
  8
Layer_1
 62
7
100
AcDbSpline
 70
8
 71
3
 72
8
 73
4
 74
0
 40
0
 40
0
 40
0
 40
0
 40
1
 40
1
 40
1
 40
1
 10
222.447960
 20
340.843560
 30
0.0
 10
215.638320
 20
345.305240
 30
0.0
 10
211.767970
 20
350.154900
 30
0.0
 10
210.945390
 20
355.256610
 30
0.0
  0
SPLINE
  5
2e9
100
AcDbEntity
  8
Layer_1
 62
7
100
AcDbSpline
 70
8
 71
3
 72
8
 73
4
 74
0
 40
0
 40
0
 40
0
 40
0
 40
1
 40
1
 40
1
 40
1
 10
210.945390
 20
355.256610
 30
0.0
 10
210.676250
 20
356.925740
 30
0.0
 10
210.480040
 20
360.732420
 30
0.0
 10
210.509360
 20
363.715890
 30
0.0
  0
SPLINE
  5
2ea
100
AcDbEntity
  8
Layer_1
 62
7
100
AcDbSpline
 70
8
 71
3
 72
8
 73
4
 74
0
 40
0
 40
0
 40
0
 40
0
 40
1
 40
1
 40
1
 40
1
 10
210.509360
 20
363.715890
 30
0.0
 10
210.573460
 20
370.242700
 30
0.0
 10
212.166170
 20
374.875260
 30
0.0
 10
215.653240
 20
378.677410
 30
0.0
  0
SPLINE
  5
2eb
100
AcDbEntity
  8
Layer_1
 62
7
100
AcDbSpline
 70
8
 71
3
 72
8
 73
4
 74
0
 40
0
 40
0
 40
0
 40
0
 40
1
 40
1
 40
1
 40
1
 10
215.653240
 20
378.677410
 30
0.0
 10
220.090370
 20
383.515540
 30
0.0
 10
224.921160
 20
383.915900
 30
0.0
 10
230.140520
 20
379.878090
 30
0.0
  0
LWPOLYLINE
  5
2ec
100
AcDbEntity
  8
Layer_1
 62
7
100
AcDbPolyline
 90
3
 70
0
 10
211.045640
 20
309.471010
 30
0.0
 10
209.507780
 20
309.471010
 30
0.0
 10
209.507780
 20
322.047100
 30
0.0
  0
SPLINE
  5
2ed
100
AcDbEntity
  8
Layer_1
 62
7
100
AcDbSpline
 70
8
 71
3
 72
8
 73
4
 74
0
 40
0
 40
0
 40
0
 40
0
 40
1
 40
1
 40
1
 40
1
 10
233.216960
 20
379.581660
 30
0.0
 10
233.506390
 20
380.785480
 30
0.0
 10
234.069970
 20
381.257480
 30
0.0
 10
235.007460
 20
381.081180
 30
0.0
  0
SPLINE
  5
2ee
100
AcDbEntity
  8
Layer_1
 62
7
100
AcDbSpline
 70
8
 71
3
 72
8
 73
4
 74
0
 40
0
 40
0
 40
0
 40
0
 40
1
 40
1
 40
1
 40
1
 10
235.007460
 20
381.081180
 30
0.0
 10
236.327830
 20
380.832860
 30
0.0
 10
236.381710
 20
380.406810
 30
0.0
 10
236.551250
 20
368.870640
 30
0.0
  0
LWPOLYLINE
  5
2ef
100
AcDbEntity
  8
Layer_1
 62
7
100
AcDbPolyline
 90
3
 70
0
 10
230.140520
 20
379.878090
 30
0.0
 10
232.794580
 20
377.824870
 30
0.0
 10
233.216960
 20
379.581660
 30
0.0
  0
SPLINE
  5
2f0
100
AcDbEntity
  8
Layer_1
 62
7
100
AcDbSpline
 70
8
 71
3
 72
8
 73
4
 74
0
 40
0
 40
0
 40
0
 40
0
 40
1
 40
1
 40
1
 40
1
 10
235.286900
 20
357.187130
 30
0.0
 10
234.162880
 20
357.397670
 30
0.0
 10
233.692090
 20
358.284250
 30
0.0
 10
233.141750
 20
361.226840
 30
0.0
  0
SPLINE
  5
2f1
100
AcDbEntity
  8
Layer_1
 62
7
100
AcDbSpline
 70
8
 71
3
 72
8
 73
4
 74
0
 40
0
 40
0
 40
0
 40
0
 40
1
 40
1
 40
1
 40
1
 10
233.141750
 20
361.226840
 30
0.0
 10
230.649480
 20
374.552740
 30
0.0
 10
224.077640
 20
380.808190
 30
0.0
 10
218.938360
 20
374.746420
 30
0.0
  0
SPLINE
  5
2f2
100
AcDbEntity
  8
Layer_1
 62
7
100
AcDbSpline
 70
8
 71
3
 72
8
 73
4
 74
0
 40
0
 40
0
 40
0
 40
0
 40
1
 40
1
 40
1
 40
1
 10
218.938360
 20
374.746420
 30
0.0
 10
215.602900
 20
370.812260
 30
0.0
 10
215.726180
 20
361.389680
 30
0.0
 10
219.166930
 20
357.275050
 30
0.0
  0
SPLINE
  5
2f3
100
AcDbEntity
  8
Layer_1
 62
7
100
AcDbSpline
 70
8
 71
3
 72
8
 73
4
 74
0
 40
0
 40
0
 40
0
 40
0
 40
1
 40
1
 40
1
 40
1
 10
219.166930
 20
357.275050
 30
0.0
 10
219.939170
 20
356.351570
 30
0.0
 10
223.131330
 20
353.824760
 30
0.0
 10
226.260640
 20
351.659910
 30
0.0
  0
SPLINE
  5
2f4
100
AcDbEntity
  8
Layer_1
 62
7
100
AcDbSpline
 70
8
 71
3
 72
8
 73
4
 74
0
 40
0
 40
0
 40
0
 40
0
 40
1
 40
1
 40
1
 40
1
 10
226.260640
 20
351.659910
 30
0.0
 10
229.389950
 20
349.495060
 30
0.0
 10
232.768610
 20
346.721670
 30
0.0
 10
233.768750
 20
345.496780
 30
0.0
  0
SPLINE
  5
2f5
100
AcDbEntity
  8
Layer_1
 62
7
100
AcDbSpline
 70
8
 71
3
 72
8
 73
4
 74
0
 40
0
 40
0
 40
0
 40
0
 40
1
 40
1
 40
1
 40
1
 10
233.768750
 20
345.496780
 30
0.0
 10
236.589470
 20
342.042290
 30
0.0
 10
238.574840
 20
335.714870
 30
0.0
 10
238.582030
 20
330.156690
 30
0.0
  0
SPLINE
  5
2f6
100
AcDbEntity
  8
Layer_1
 62
7
100
AcDbSpline
 70
8
 71
3
 72
8
 73
4
 74
0
 40
0
 40
0
 40
0
 40
0
 40
1
 40
1
 40
1
 40
1
 10
238.582030
 20
330.156690
 30
0.0
 10
238.601930
 20
314.838010
 30
0.0
 10
228.738810
 20
304.260810
 30
0.0
 10
218.892420
 20
309.041460
 30
0.0
  0
LWPOLYLINE
  5
2f7
100
AcDbEntity
  8
Layer_1
 62
7
100
AcDbPolyline
 90
3
 70
0
 10
236.551250
 20
368.870640
 30
0.0
 10
236.726950
 20
356.917400
 30
0.0
 10
235.286900
 20
357.187130
 30
0.0
  0
SPLINE
  5
2f8
100
AcDbEntity
  8
Layer_1
 62
7
100
AcDbSpline
 70
8
 71
3
 72
8
 73
4
 74
0
 40
0
 40
0
 40
0
 40
0
 40
1
 40
1
 40
1
 40
1
 10
385.408860
 20
310.320340
 30
0.0
 10
384.802510
 20
311.770040
 30
0.0
 10
383.129430
 20
315.645750
 30
0.0
 10
381.690900
 20
318.933050
 30
0.0
  0
SPLINE
  5
2f9
100
AcDbEntity
  8
Layer_1
 62
7
100
AcDbSpline
 70
8
 71
3
 72
8
 73
4
 74
0
 40
0
 40
0
 40
0
 40
0
 40
1
 40
1
 40
1
 40
1
 10
381.690900
 20
318.933050
 30
0.0
 10
380.252360
 20
322.220330
 30
0.0
 10
375.202800
 20
333.915170
 30
0.0
 10
370.469650
 20
344.921580
 30
0.0
  0
LWPOLYLINE
  5
2fa
100
AcDbEntity
  8
Layer_1
 62
7
100
AcDbPolyline
 90
1
 70
1
 10
218.892420
 20
309.041460
 30
0.0
  0
SPLINE
  5
2fb
100
AcDbEntity
  8
Layer_1
 62
7
100
AcDbSpline
 70
8
 71
3
 72
8
 73
4
 74
0
 40
0
 40
0
 40
0
 40
0
 40
1
 40
1
 40
1
 40
1
 10
361.863910
 20
343.168400
 30
0.0
 10
361.863910
 20
330.012630
 30
0.0
 10
362.128520
 20
320.401540
 30
0.0
 10
362.532890
 20
318.870270
 30
0.0
  0
SPLINE
  5
2fc
100
AcDbEntity
  8
Layer_1
 62
7
100
AcDbSpline
 70
8
 71
3
 72
8
 73
4
 74
0
 40
0
 40
0
 40
0
 40
0
 40
1
 40
1
 40
1
 40
1
 10
362.532890
 20
318.870270
 30
0.0
 10
363.034460
 20
316.970940
 30
0.0
 10
363.904630
 20
315.982660
 30
0.0
 10
366.009910
 20
314.921300
 30
0.0
  0
SPLINE
  5
2fd
100
AcDbEntity
  8
Layer_1
 62
7
100
AcDbSpline
 70
8
 71
3
 72
8
 73
4
 74
0
 40
0
 40
0
 40
0
 40
0
 40
1
 40
1
 40
1
 40
1
 10
366.009910
 20
314.921300
 30
0.0
 10
368.262290
 20
313.785760
 30
0.0
 10
368.817920
 20
313.106470
 30
0.0
 10
368.817920
 20
311.488320
 30
0.0
  0
LWPOLYLINE
  5
2fe
100
AcDbEntity
  8
Layer_1
 62
7
100
AcDbPolyline
 90
3
 70
0
 10
370.469650
 20
344.921580
 30
0.0
 10
361.863910
 20
364.933200
 30
0.0
 10
361.863910
 20
343.168400
 30
0.0
  0
SPLINE
  5
2ff
100
AcDbEntity
  8
Layer_1
 62
7
100
AcDbSpline
 70
8
 71
3
 72
8
 73
4
 74
0
 40
0
 40
0
 40
0
 40
0
 40
1
 40
1
 40
1
 40
1
 10
351.116810
 20
311.466730
 30
0.0
 10
351.116810
 20
313.011880
 30
0.0
 10
351.680540
 20
313.760220
 30
0.0
 10
353.613740
 20
314.781330
 30
0.0
  0
SPLINE
  5
300
100
AcDbEntity
  8
Layer_1
 62
7
100
AcDbSpline
 70
8
 71
3
 72
8
 73
4
 74
0
 40
0
 40
0
 40
0
 40
0
 40
1
 40
1
 40
1
 40
1
 10
353.613740
 20
314.781330
 30
0.0
 10
354.987070
 20
315.506700
 30
0.0
 10
356.477330
 20
316.955770
 30
0.0
 10
356.925470
 20
318.001460
 30
0.0
  0
SPLINE
  5
301
100
AcDbEntity
  8
Layer_1
 62
7
100
AcDbSpline
 70
8
 71
3
 72
8
 73
4
 74
0
 40
0
 40
0
 40
0
 40
0
 40
1
 40
1
 40
1
 40
1
 10
356.925470
 20
318.001460
 30
0.0
 10
357.521070
 20
319.391240
 30
0.0
 10
357.793480
 20
326.076620
 30
0.0
 10
357.938090
 20
342.852480
 30
0.0
  0
SPLINE
  5
302
100
AcDbEntity
  8
Layer_1
 62
7
100
AcDbSpline
 70
8
 71
3
 72
8
 73
4
 74
0
 40
0
 40
0
 40
0
 40
0
 40
1
 40
1
 40
1
 40
1
 10
357.938090
 20
342.852480
 30
0.0
 10
358.177320
 20
370.607420
 30
0.0
 10
357.954990
 20
372.218970
 30
0.0
 10
353.467580
 20
375.267490
 30
0.0
  0
SPLINE
  5
303
100
AcDbEntity
  8
Layer_1
 62
7
100
AcDbSpline
 70
8
 71
3
 72
8
 73
4
 74
0
 40
0
 40
0
 40
0
 40
0
 40
1
 40
1
 40
1
 40
1
 10
353.467580
 20
375.267490
 30
0.0
 10
351.185380
 20
376.817880
 30
0.0
 10
350.484610
 20
377.757580
 30
0.0
 10
350.484610
 20
379.267540
 30
0.0
  0
SPLINE
  5
304
100
AcDbEntity
  8
Layer_1
 62
7
100
AcDbSpline
 70
8
 71
3
 72
8
 73
4
 74
0
 40
0
 40
0
 40
0
 40
0
 40
1
 40
1
 40
1
 40
1
 10
350.484610
 20
379.267540
 30
0.0
 10
350.484610
 20
381.208250
 30
0.0
 10
350.587830
 20
381.241160
 30
0.0
 10
356.672880
 20
381.241160
 30
0.0
  0
LWPOLYLINE
  5
305
100
AcDbEntity
  8
Layer_1
 62
7
100
AcDbPolyline
 90
5
 70
0
 10
368.817920
 20
311.488320
 30
0.0
 10
368.817920
 20
309.471010
 30
0.0
 10
359.967370
 20
309.471010
 30
0.0
 10
351.116810
 20
309.471010
 30
0.0
 10
351.116810
 20
311.466730
 30
0.0
  0
SPLINE
  5
306
100
AcDbEntity
  8
Layer_1
 62
7
100
AcDbSpline
 70
8
 71
3
 72
8
 73
4
 74
0
 40
0
 40
0
 40
0
 40
0
 40
1
 40
1
 40
1
 40
1
 10
364.841770
 20
376.859830
 30
0.0
 10
365.931130
 20
374.450120
 30
0.0
 10
368.102030
 20
369.474180
 30
0.0
 10
369.666000
 20
365.802220
 30
0.0
  0
SPLINE
  5
307
100
AcDbEntity
  8
Layer_1
 62
7
100
AcDbSpline
 70
8
 71
3
 72
8
 73
4
 74
0
 40
0
 40
0
 40
0
 40
0
 40
1
 40
1
 40
1
 40
1
 10
369.666000
 20
365.802220
 30
0.0
 10
376.385970
 20
350.024770
 30
0.0
 10
378.422450
 20
345.292020
 30
0.0
 10
382.049090
 20
337.024080
 30
0.0
  0
LWPOLYLINE
  5
308
100
AcDbEntity
  8
Layer_1
 62
7
100
AcDbPolyline
 90
3
 70
0
 10
356.672880
 20
381.241160
 30
0.0
 10
362.861140
 20
381.241160
 30
0.0
 10
364.841770
 20
376.859830
 30
0.0
  0
SPLINE
  5
309
100
AcDbEntity
  8
Layer_1
 62
7
100
AcDbSpline
 70
8
 71
3
 72
8
 73
4
 74
0
 40
0
 40
0
 40
0
 40
0
 40
1
 40
1
 40
1
 40
1
 10
385.885870
 20
348.707580
 30
0.0
 10
385.884870
 20
372.398970
 30
0.0
 10
385.549990
 20
374.368810
 30
0.0
 10
381.303530
 20
375.672140
 30
0.0
  0
SPLINE
  5
30a
100
AcDbEntity
  8
Layer_1
 62
7
100
AcDbSpline
 70
8
 71
3
 72
8
 73
4
 74
0
 40
0
 40
0
 40
0
 40
0
 40
1
 40
1
 40
1
 40
1
 10
381.303530
 20
375.672140
 30
0.0
 10
379.235610
 20
376.306810
 30
0.0
 10
378.932850
 20
376.708890
 30
0.0
 10
378.932850
 20
378.820450
 30
0.0
  0
LWPOLYLINE
  5
30b
100
AcDbEntity
  8
Layer_1
 62
7
100
AcDbPolyline
 90
3
 70
0
 10
382.049090
 20
337.024080
 30
0.0
 10
385.886870
 20
328.274790
 30
0.0
 10
385.885870
 20
348.707580
 30
0.0
  0
SPLINE
  5
30c
100
AcDbEntity
  8
Layer_1
 62
7
100
AcDbSpline
 70
8
 71
3
 72
8
 73
4
 74
0
 40
0
 40
0
 40
0
 40
0
 40
1
 40
1
 40
1
 40
1
 10
387.487430
 20
381.241160
 30
0.0
 10
394.540100
 20
381.241160
 30
0.0
 10
396.106170
 20
381.019540
 30
0.0
 10
396.408720
 20
379.978720
 30
0.0
  0
SPLINE
  5
30d
100
AcDbEntity
  8
Layer_1
 62
7
100
AcDbSpline
 70
8
 71
3
 72
8
 73
4
 74
0
 40
0
 40
0
 40
0
 40
0
 40
1
 40
1
 40
1
 40
1
 10
396.408720
 20
379.978720
 30
0.0
 10
396.912410
 20
378.246020
 30
0.0
 10
395.642630
 20
376.445630
 30
0.0
 10
393.473340
 20
375.816660
 30
0.0
  0
SPLINE
  5
30e
100
AcDbEntity
  8
Layer_1
 62
7
100
AcDbSpline
 70
8
 71
3
 72
8
 73
4
 74
0
 40
0
 40
0
 40
0
 40
0
 40
1
 40
1
 40
1
 40
1
 10
393.473340
 20
375.816660
 30
0.0
 10
389.977890
 20
374.803200
 30
0.0
 10
390.021540
 20
375.210350
 30
0.0
 10
389.680240
 20
340.430470
 30
0.0
  0
LWPOLYLINE
  5
30f
100
AcDbEntity
  8
Layer_1
 62
7
100
AcDbPolyline
 90
3
 70
0
 10
378.932850
 20
378.820450
 30
0.0
 10
378.933130
 20
381.241160
 30
0.0
 10
387.487430
 20
381.241160
 30
0.0
  0
SPLINE
  5
310
100
AcDbEntity
  8
Layer_1
 62
7
100
AcDbSpline
 70
8
 71
3
 72
8
 73
4
 74
0
 40
0
 40
0
 40
0
 40
0
 40
1
 40
1
 40
1
 40
1
 10
387.937860
 20
307.951850
 30
0.0
 10
386.882270
 20
307.753990
 30
0.0
 10
386.225040
 20
308.369560
 30
0.0
 10
385.409130
 20
310.320340
 30
0.0
  0
LWPOLYLINE
  5
311
100
AcDbEntity
  8
Layer_1
 62
7
100
AcDbPolyline
 90
3
 70
0
 10
389.680240
 20
340.430470
 30
0.0
 10
389.364150
 20
308.219200
 30
0.0
 10
387.937860
 20
307.951850
 30
0.0
  0
SPLINE
  5
312
100
AcDbEntity
  8
Layer_1
 62
7
100
AcDbSpline
 70
8
 71
3
 72
8
 73
4
 74
0
 40
0
 40
0
 40
0
 40
0
 40
1
 40
1
 40
1
 40
1
 10
423.817850
 20
308.834060
 30
0.0
 10
422.948600
 20
309.339590
 30
0.0
 10
421.279890
 20
310.316440
 30
0.0
 10
420.109630
 20
311.004840
 30
0.0
  0
SPLINE
  5
313
100
AcDbEntity
  8
Layer_1
 62
7
100
AcDbSpline
 70
8
 71
3
 72
8
 73
4
 74
0
 40
0
 40
0
 40
0
 40
0
 40
1
 40
1
 40
1
 40
1
 10
420.109630
 20
311.004840
 30
0.0
 10
418.175880
 20
312.142340
 30
0.0
 10
417.928020
 20
312.129470
 30
0.0
 10
417.391440
 20
310.863740
 30
0.0
  0
SPLINE
  5
314
100
AcDbEntity
  8
Layer_1
 62
7
100
AcDbSpline
 70
8
 71
3
 72
8
 73
4
 74
0
 40
0
 40
0
 40
0
 40
0
 40
1
 40
1
 40
1
 40
1
 10
417.391440
 20
310.863740
 30
0.0
 10
417.066690
 20
310.097730
 30
0.0
 10
416.281750
 20
309.471010
 30
0.0
 10
415.647070
 20
309.471010
 30
0.0
  0
SPLINE
  5
315
100
AcDbEntity
  8
Layer_1
 62
7
100
AcDbSpline
 70
8
 71
3
 72
8
 73
4
 74
0
 40
0
 40
0
 40
0
 40
0
 40
1
 40
1
 40
1
 40
1
 10
415.647070
 20
309.471010
 30
0.0
 10
414.087440
 20
309.471010
 30
0.0
 10
413.702920
 20
312.462580
 30
0.0
 10
413.702920
 20
324.596970
 30
0.0
  0
SPLINE
  5
316
100
AcDbEntity
  8
Layer_1
 62
7
100
AcDbSpline
 70
8
 71
3
 72
8
 73
4
 74
0
 40
0
 40
0
 40
0
 40
0
 40
1
 40
1
 40
1
 40
1
 10
413.702920
 20
324.596970
 30
0.0
 10
413.702920
 20
334.465470
 30
0.0
 10
413.708920
 20
334.507100
 30
0.0
 10
415.200670
 20
334.507100
 30
0.0
  0
SPLINE
  5
317
100
AcDbEntity
  8
Layer_1
 62
7
100
AcDbSpline
 70
8
 71
3
 72
8
 73
4
 74
0
 40
0
 40
0
 40
0
 40
0
 40
1
 40
1
 40
1
 40
1
 10
415.200670
 20
334.507100
 30
0.0
 10
416.408700
 20
334.507100
 30
0.0
 10
416.764640
 20
333.968220
 30
0.0
 10
417.040870
 20
331.721190
 30
0.0
  0
SPLINE
  5
318
100
AcDbEntity
  8
Layer_1
 62
7
100
AcDbSpline
 70
8
 71
3
 72
8
 73
4
 74
0
 40
0
 40
0
 40
0
 40
0
 40
1
 40
1
 40
1
 40
1
 10
417.040870
 20
331.721190
 30
0.0
 10
417.229230
 20
330.188940
 30
0.0
 10
418.276670
 20
326.527420
 30
0.0
 10
419.368500
 20
323.584470
 30
0.0
  0
SPLINE
  5
319
100
AcDbEntity
  8
Layer_1
 62
7
100
AcDbSpline
 70
8
 71
3
 72
8
 73
4
 74
0
 40
0
 40
0
 40
0
 40
0
 40
1
 40
1
 40
1
 40
1
 10
419.368500
 20
323.584470
 30
0.0
 10
421.953800
 20
316.615970
 30
0.0
 10
424.948700
 20
313.643680
 30
0.0
 10
429.384970
 20
313.643680
 30
0.0
  0
SPLINE
  5
31a
100
AcDbEntity
  8
Layer_1
 62
7
100
AcDbSpline
 70
8
 71
3
 72
8
 73
4
 74
0
 40
0
 40
0
 40
0
 40
0
 40
1
 40
1
 40
1
 40
1
 10
429.384970
 20
313.643680
 30
0.0
 10
432.202200
 20
313.643680
 30
0.0
 10
432.746090
 20
313.957380
 30
0.0
 10
434.499470
 20
316.593610
 30
0.0
  0
SPLINE
  5
31b
100
AcDbEntity
  8
Layer_1
 62
7
100
AcDbSpline
 70
8
 71
3
 72
8
 73
4
 74
0
 40
0
 40
0
 40
0
 40
0
 40
1
 40
1
 40
1
 40
1
 10
434.499470
 20
316.593610
 30
0.0
 10
436.228930
 20
319.193820
 30
0.0
 10
436.461520
 20
320.138570
 30
0.0
 10
436.461520
 20
324.563150
 30
0.0
  0
SPLINE
  5
31c
100
AcDbEntity
  8
Layer_1
 62
7
100
AcDbSpline
 70
8
 71
3
 72
8
 73
4
 74
0
 40
0
 40
0
 40
0
 40
0
 40
1
 40
1
 40
1
 40
1
 10
436.461520
 20
324.563150
 30
0.0
 10
436.461520
 20
329.677190
 30
0.0
 10
435.298360
 20
333.958910
 30
0.0
 10
433.361490
 20
335.974630
 30
0.0
  0
SPLINE
  5
31d
100
AcDbEntity
  8
Layer_1
 62
7
100
AcDbSpline
 70
8
 71
3
 72
8
 73
4
 74
0
 40
0
 40
0
 40
0
 40
0
 40
1
 40
1
 40
1
 40
1
 10
433.361490
 20
335.974630
 30
0.0
 10
432.806460
 20
336.552270
 30
0.0
 10
429.821420
 20
338.778070
 30
0.0
 10
426.728120
 20
340.920840
 30
0.0
  0
SPLINE
  5
31e
100
AcDbEntity
  8
Layer_1
 62
7
100
AcDbSpline
 70
8
 71
3
 72
8
 73
4
 74
0
 40
0
 40
0
 40
0
 40
0
 40
1
 40
1
 40
1
 40
1
 10
426.728120
 20
340.920840
 30
0.0
 10
417.525250
 20
347.295780
 30
0.0
 10
415.006140
 20
351.925290
 30
0.0
 10
414.981180
 20
362.508860
 30
0.0
  0
SPLINE
  5
31f
100
AcDbEntity
  8
Layer_1
 62
7
100
AcDbSpline
 70
8
 71
3
 72
8
 73
4
 74
0
 40
0
 40
0
 40
0
 40
0
 40
1
 40
1
 40
1
 40
1
 10
414.981180
 20
362.508860
 30
0.0
 10
414.957680
 20
372.431500
 30
0.0
 10
418.594640
 20
379.608400
 30
0.0
 10
424.912580
 20
382.107200
 30
0.0
  0
SPLINE
  5
320
100
AcDbEntity
  8
Layer_1
 62
7
100
AcDbSpline
 70
8
 71
3
 72
8
 73
4
 74
0
 40
0
 40
0
 40
0
 40
0
 40
1
 40
1
 40
1
 40
1
 10
424.912580
 20
382.107200
 30
0.0
 10
428.001030
 20
383.328690
 30
0.0
 10
432.402810
 20
382.198700
 30
0.0
 10
435.350850
 20
379.427610
 30
0.0
  0
LWPOLYLINE
  5
321
100
AcDbEntity
  8
Layer_1
 62
7
100
AcDbPolyline
 90
2
 70
0
 10
385.409130
 20
310.320340
 30
0.0
 10
385.408860
 20
310.320340
 30
0.0
  0
SPLINE
  5
322
100
AcDbEntity
  8
Layer_1
 62
7
100
AcDbSpline
 70
8
 71
3
 72
8
 73
4
 74
0
 40
0
 40
0
 40
0
 40
0
 40
1
 40
1
 40
1
 40
1
 10
437.523920
 20
379.477280
 30
0.0
 10
437.749490
 20
380.615900
 30
0.0
 10
438.379440
 20
381.241160
 30
0.0
 10
439.301040
 20
381.241160
 30
0.0
  0
SPLINE
  5
323
100
AcDbEntity
  8
Layer_1
 62
7
100
AcDbSpline
 70
8
 71
3
 72
8
 73
4
 74
0
 40
0
 40
0
 40
0
 40
0
 40
1
 40
1
 40
1
 40
1
 10
439.301040
 20
381.241160
 30
0.0
 10
441.081420
 20
381.241160
 30
0.0
 10
441.267600
 20
379.872270
 30
0.0
 10
441.230590
 20
367.054030
 30
0.0
  0
SPLINE
  5
324
100
AcDbEntity
  8
Layer_1
 62
7
100
AcDbSpline
 70
8
 71
3
 72
8
 73
4
 74
0
 40
0
 40
0
 40
0
 40
0
 40
1
 40
1
 40
1
 40
1
 10
441.230590
 20
367.054030
 30
0.0
 10
441.202890
 20
357.467080
 30
0.0
 10
441.201290
 20
357.456860
 30
0.0
 10
439.672430
 20
357.456860
 30
0.0
  0
SPLINE
  5
325
100
AcDbEntity
  8
Layer_1
 62
7
100
AcDbSpline
 70
8
 71
3
 72
8
 73
4
 74
0
 40
0
 40
0
 40
0
 40
0
 40
1
 40
1
 40
1
 40
1
 10
439.672430
 20
357.456860
 30
0.0
 10
438.326150
 20
357.456860
 30
0.0
 10
438.042450
 20
358.035250
 30
0.0
 10
437.315160
 20
362.262630
 30
0.0
  0
SPLINE
  5
326
100
AcDbEntity
  8
Layer_1
 62
7
100
AcDbSpline
 70
8
 71
3
 72
8
 73
4
 74
0
 40
0
 40
0
 40
0
 40
0
 40
1
 40
1
 40
1
 40
1
 10
437.315160
 20
362.262630
 30
0.0
 10
435.623740
 20
372.093930
 30
0.0
 10
432.160400
 20
377.105280
 30
0.0
 10
427.095660
 20
377.049910
 30
0.0
  0
SPLINE
  5
327
100
AcDbEntity
  8
Layer_1
 62
7
100
AcDbSpline
 70
8
 71
3
 72
8
 73
4
 74
0
 40
0
 40
0
 40
0
 40
0
 40
1
 40
1
 40
1
 40
1
 10
427.095660
 20
377.049910
 30
0.0
 10
423.427900
 20
377.009810
 30
0.0
 10
420.272300
 20
370.845320
 30
0.0
 10
420.934680
 20
365.014370
 30
0.0
  0
SPLINE
  5
328
100
AcDbEntity
  8
Layer_1
 62
7
100
AcDbSpline
 70
8
 71
3
 72
8
 73
4
 74
0
 40
0
 40
0
 40
0
 40
0
 40
1
 40
1
 40
1
 40
1
 10
420.934680
 20
365.014370
 30
0.0
 10
421.523040
 20
359.835070
 30
0.0
 10
424.195930
 20
356.179140
 30
0.0
 10
430.483290
 20
351.953970
 30
0.0
  0
SPLINE
  5
329
100
AcDbEntity
  8
Layer_1
 62
7
100
AcDbSpline
 70
8
 71
3
 72
8
 73
4
 74
0
 40
0
 40
0
 40
0
 40
0
 40
1
 40
1
 40
1
 40
1
 10
430.483290
 20
351.953970
 30
0.0
 10
436.523850
 20
347.894650
 30
0.0
 10
440.522490
 20
343.372770
 30
0.0
 10
441.888840
 20
339.055900
 30
0.0
  0
SPLINE
  5
32a
100
AcDbEntity
  8
Layer_1
 62
7
100
AcDbSpline
 70
8
 71
3
 72
8
 73
4
 74
0
 40
0
 40
0
 40
0
 40
0
 40
1
 40
1
 40
1
 40
1
 10
441.888840
 20
339.055900
 30
0.0
 10
442.401810
 20
337.435200
 30
0.0
 10
442.783350
 20
333.440600
 30
0.0
 10
442.783350
 20
329.690540
 30
0.0
  0
SPLINE
  5
32b
100
AcDbEntity
  8
Layer_1
 62
7
100
AcDbSpline
 70
8
 71
3
 72
8
 73
4
 74
0
 40
0
 40
0
 40
0
 40
0
 40
1
 40
1
 40
1
 40
1
 10
442.783350
 20
329.690540
 30
0.0
 10
442.783350
 20
324.335030
 30
0.0
 10
442.488250
 20
322.369610
 30
0.0
 10
441.153200
 20
318.832950
 30
0.0
  0
SPLINE
  5
32c
100
AcDbEntity
  8
Layer_1
 62
7
100
AcDbSpline
 70
8
 71
3
 72
8
 73
4
 74
0
 40
0
 40
0
 40
0
 40
0
 40
1
 40
1
 40
1
 40
1
 10
441.153200
 20
318.832950
 30
0.0
 10
439.529210
 20
314.530860
 30
0.0
 10
436.473930
 20
310.721640
 30
0.0
 10
433.112800
 20
308.808450
 30
0.0
  0
SPLINE
  5
32d
100
AcDbEntity
  8
Layer_1
 62
7
100
AcDbSpline
 70
8
 71
3
 72
8
 73
4
 74
0
 40
0
 40
0
 40
0
 40
0
 40
1
 40
1
 40
1
 40
1
 10
433.112800
 20
308.808450
 30
0.0
 10
430.946980
 20
307.575640
 30
0.0
 10
425.958040
 20
307.589370
 30
0.0
 10
423.817850
 20
308.834050
 30
0.0
  0
LWPOLYLINE
  5
32e
100
AcDbEntity
  8
Layer_1
 62
7
100
AcDbPolyline
 90
3
 70
0
 10
435.350850
 20
379.427610
 30
0.0
 10
437.174500
 20
377.713400
 30
0.0
 10
437.523920
 20
379.477280
 30
0.0
  0
SPLINE
  5
32f
100
AcDbEntity
  8
Layer_1
 62
7
100
AcDbSpline
 70
8
 71
3
 72
8
 73
4
 74
0
 40
0
 40
0
 40
0
 40
0
 40
1
 40
1
 40
1
 40
1
 10
150.082580
 20
311.456100
 30
0.0
 10
150.082580
 20
312.864060
 30
0.0
 10
150.620680
 20
313.735430
 30
0.0
 10
151.933430
 20
314.453230
 30
0.0
  0
SPLINE
  5
330
100
AcDbEntity
  8
Layer_1
 62
7
100
AcDbSpline
 70
8
 71
3
 72
8
 73
4
 74
0
 40
0
 40
0
 40
0
 40
0
 40
1
 40
1
 40
1
 40
1
 10
151.933430
 20
314.453230
 30
0.0
 10
155.446670
 20
316.374270
 30
0.0
 10
155.338770
 20
316.040930
 30
0.0
 10
162.475680
 20
347.025140
 30
0.0
  0
SPLINE
  5
331
100
AcDbEntity
  8
Layer_1
 62
7
100
AcDbSpline
 70
8
 71
3
 72
8
 73
4
 74
0
 40
0
 40
0
 40
0
 40
0
 40
1
 40
1
 40
1
 40
1
 10
162.475680
 20
347.025140
 30
0.0
 10
163.691520
 20
352.303600
 30
0.0
 10
165.517390
 20
360.189970
 30
0.0
 10
166.533180
 20
364.550420
 30
0.0
  0
SPLINE
  5
332
100
AcDbEntity
  8
Layer_1
 62
7
100
AcDbSpline
 70
8
 71
3
 72
8
 73
4
 74
0
 40
0
 40
0
 40
0
 40
0
 40
1
 40
1
 40
1
 40
1
 10
166.533180
 20
364.550420
 30
0.0
 10
167.548970
 20
368.910880
 30
0.0
 10
168.840490
 20
374.662650
 30
0.0
 10
169.403240
 20
377.332170
 30
0.0
  0
SPLINE
  5
333
100
AcDbEntity
  8
Layer_1
 62
7
100
AcDbSpline
 70
8
 71
3
 72
8
 73
4
 74
0
 40
0
 40
0
 40
0
 40
0
 40
1
 40
1
 40
1
 40
1
 10
169.403240
 20
377.332170
 30
0.0
 10
171.035280
 20
385.074130
 30
0.0
 10
173.221590
 20
384.641920
 30
0.0
 10
174.958490
 20
376.233940
 30
0.0
  0
SPLINE
  5
334
100
AcDbEntity
  8
Layer_1
 62
7
100
AcDbSpline
 70
8
 71
3
 72
8
 73
4
 74
0
 40
0
 40
0
 40
0
 40
0
 40
1
 40
1
 40
1
 40
1
 10
174.958490
 20
376.233940
 30
0.0
 10
176.039760
 20
370.999740
 30
0.0
 10
186.329250
 20
325.587150
 30
0.0
 10
187.438260
 20
321.154520
 30
0.0
  0
SPLINE
  5
335
100
AcDbEntity
  8
Layer_1
 62
7
100
AcDbSpline
 70
8
 71
3
 72
8
 73
4
 74
0
 40
0
 40
0
 40
0
 40
0
 40
1
 40
1
 40
1
 40
1
 10
187.438260
 20
321.154520
 30
0.0
 10
188.358280
 20
317.477290
 30
0.0
 10
189.504620
 20
315.736970
 30
0.0
 10
191.852370
 20
314.453230
 30
0.0
  0
SPLINE
  5
336
100
AcDbEntity
  8
Layer_1
 62
7
100
AcDbSpline
 70
8
 71
3
 72
8
 73
4
 74
0
 40
0
 40
0
 40
0
 40
0
 40
1
 40
1
 40
1
 40
1
 10
191.852370
 20
314.453230
 30
0.0
 10
193.165100
 20
313.735430
 30
0.0
 10
193.703210
 20
312.864060
 30
0.0
 10
193.703210
 20
311.456100
 30
0.0
  0
LWPOLYLINE
  5
337
100
AcDbEntity
  8
Layer_1
 62
7
100
AcDbPolyline
 90
1
 70
1
 10
423.817850
 20
308.834050
 30
0.0
  0
SPLINE
  5
338
100
AcDbEntity
  8
Layer_1
 62
7
100
AcDbSpline
 70
8
 71
3
 72
8
 73
4
 74
0
 40
0
 40
0
 40
0
 40
0
 40
1
 40
1
 40
1
 40
1
 10
184.920280
 20
309.471010
 30
0.0
 10
178.160290
 20
309.471010
 30
0.0
 10
176.062440
 20
309.728700
 30
0.0
 10
175.812130
 20
310.589850
 30
0.0
  0
SPLINE
  5
339
100
AcDbEntity
  8
Layer_1
 62
7
100
AcDbSpline
 70
8
 71
3
 72
8
 73
4
 74
0
 40
0
 40
0
 40
0
 40
0
 40
1
 40
1
 40
1
 40
1
 10
175.812130
 20
310.589850
 30
0.0
 10
175.356110
 20
312.158580
 30
0.0
 10
175.958000
 20
313.006480
 30
0.0
 10
178.728690
 20
314.698430
 30
0.0
  0
SPLINE
  5
33a
100
AcDbEntity
  8
Layer_1
 62
7
100
AcDbSpline
 70
8
 71
3
 72
8
 73
4
 74
0
 40
0
 40
0
 40
0
 40
0
 40
1
 40
1
 40
1
 40
1
 10
178.728690
 20
314.698430
 30
0.0
 10
180.485180
 20
315.771040
 30
0.0
 10
181.052840
 20
316.563530
 30
0.0
 10
180.820910
 20
317.619300
 30
0.0
  0
SPLINE
  5
33b
100
AcDbEntity
  8
Layer_1
 62
7
100
AcDbSpline
 70
8
 71
3
 72
8
 73
4
 74
0
 40
0
 40
0
 40
0
 40
0
 40
1
 40
1
 40
1
 40
1
 10
180.820910
 20
317.619300
 30
0.0
 10
180.645860
 20
318.416190
 30
0.0
 10
180.185510
 20
320.758120
 30
0.0
 10
179.797950
 20
322.823600
 30
0.0
  0
SPLINE
  5
33c
100
AcDbEntity
  8
Layer_1
 62
7
100
AcDbSpline
 70
8
 71
3
 72
8
 73
4
 74
0
 40
0
 40
0
 40
0
 40
0
 40
1
 40
1
 40
1
 40
1
 10
179.797950
 20
322.823600
 30
0.0
 10
179.410370
 20
324.889070
 30
0.0
 10
178.656350
 20
328.374810
 30
0.0
 10
178.122350
 20
330.569680
 30
0.0
  0
LWPOLYLINE
  5
33d
100
AcDbEntity
  8
Layer_1
 62
7
100
AcDbPolyline
 90
3
 70
0
 10
193.703210
 20
311.456100
 30
0.0
 10
193.703210
 20
309.471010
 30
0.0
 10
184.920280
 20
309.471010
 30
0.0
  0
SPLINE
  5
33e
100
AcDbEntity
  8
Layer_1
 62
7
100
AcDbSpline
 70
8
 71
3
 72
8
 73
4
 74
0
 40
0
 40
0
 40
0
 40
0
 40
1
 40
1
 40
1
 40
1
 10
161.646400
 20
327.413540
 30
0.0
 10
159.666360
 20
318.221550
 30
0.0
 10
159.844190
 20
317.002890
 30
0.0
 10
163.516470
 20
314.598320
 30
0.0
  0
SPLINE
  5
33f
100
AcDbEntity
  8
Layer_1
 62
7
100
AcDbSpline
 70
8
 71
3
 72
8
 73
4
 74
0
 40
0
 40
0
 40
0
 40
0
 40
1
 40
1
 40
1
 40
1
 10
163.516470
 20
314.598320
 30
0.0
 10
165.517510
 20
313.288060
 30
0.0
 10
166.519330
 20
312.104770
 30
0.0
 10
166.519330
 20
311.051540
 30
0.0
  0
SPLINE
  5
340
100
AcDbEntity
  8
Layer_1
 62
7
100
AcDbSpline
 70
8
 71
3
 72
8
 73
4
 74
0
 40
0
 40
0
 40
0
 40
0
 40
1
 40
1
 40
1
 40
1
 10
166.519330
 20
311.051540
 30
0.0
 10
166.519330
 20
309.581570
 30
0.0
 10
165.944420
 20
309.471010
 30
0.0
 10
158.300970
 20
309.471010
 30
0.0
  0
LWPOLYLINE
  5
341
100
AcDbEntity
  8
Layer_1
 62
7
100
AcDbPolyline
 90
5
 70
0
 10
178.122350
 20
330.569680
 30
0.0
 10
177.151440
 20
334.560350
 30
0.0
 10
170.117980
 20
334.325090
 30
0.0
 10
163.084520
 20
334.089840
 30
0.0
 10
161.646400
 20
327.413540
 30
0.0
  0
SPLINE
  5
342
100
AcDbEntity
  8
Layer_1
 62
7
100
AcDbSpline
 70
8
 71
3
 72
8
 73
4
 74
0
 40
0
 40
0
 40
0
 40
0
 40
1
 40
1
 40
1
 40
1
 10
176.002080
 20
339.863540
 30
0.0
 10
176.002080
 20
340.055610
 30
0.0
 10
175.040390
 20
344.280450
 30
0.0
 10
173.865000
 20
349.252080
 30
0.0
  0
SPLINE
  5
343
100
AcDbEntity
  8
Layer_1
 62
7
100
AcDbSpline
 70
8
 71
3
 72
8
 73
4
 74
0
 40
0
 40
0
 40
0
 40
0
 40
1
 40
1
 40
1
 40
1
 10
173.865000
 20
349.252080
 30
0.0
 10
172.689600
 20
354.223710
 30
0.0
 10
171.529070
 20
359.511900
 30
0.0
 10
171.286040
 20
361.003650
 30
0.0
  0
SPLINE
  5
344
100
AcDbEntity
  8
Layer_1
 62
7
100
AcDbSpline
 70
8
 71
3
 72
8
 73
4
 74
0
 40
0
 40
0
 40
0
 40
0
 40
1
 40
1
 40
1
 40
1
 10
171.286040
 20
361.003650
 30
0.0
 10
171.043000
 20
362.495380
 30
0.0
 10
170.649050
 20
363.715890
 30
0.0
 10
170.410590
 20
363.715890
 30
0.0
  0
SPLINE
  5
345
100
AcDbEntity
  8
Layer_1
 62
7
100
AcDbSpline
 70
8
 71
3
 72
8
 73
4
 74
0
 40
0
 40
0
 40
0
 40
0
 40
1
 40
1
 40
1
 40
1
 10
170.410590
 20
363.715890
 30
0.0
 10
169.731130
 20
363.715890
 30
0.0
 10
164.622800
 20
342.670620
 30
0.0
 10
164.622800
 20
339.871370
 30
0.0
  0
SPLINE
  5
346
100
AcDbEntity
  8
Layer_1
 62
7
100
AcDbSpline
 70
8
 71
3
 72
8
 73
4
 74
0
 40
0
 40
0
 40
0
 40
0
 40
1
 40
1
 40
1
 40
1
 10
164.622800
 20
339.871370
 30
0.0
 10
164.622800
 20
339.675000
 30
0.0
 10
167.183130
 20
339.514320
 30
0.0
 10
170.312450
 20
339.514320
 30
0.0
  0
SPLINE
  5
347
100
AcDbEntity
  8
Layer_1
 62
7
100
AcDbSpline
 70
8
 71
3
 72
8
 73
4
 74
0
 40
0
 40
0
 40
0
 40
0
 40
1
 40
1
 40
1
 40
1
 10
170.312450
 20
339.514320
 30
0.0
 10
173.441740
 20
339.514320
 30
0.0
 10
176.002080
 20
339.671460
 30
0.0
 10
176.002080
 20
339.863540
 30
0.0
  0
LWPOLYLINE
  5
348
100
AcDbEntity
  8
Layer_1
 62
7
100
AcDbPolyline
 90
3
 70
0
 10
158.300970
 20
309.471010
 30
0.0
 10
150.082580
 20
309.471010
 30
0.0
 10
150.082580
 20
311.456100
 30
0.0
  0
SPLINE
  5
349
100
AcDbEntity
  8
Layer_1
 62
7
100
AcDbSpline
 70
8
 71
3
 72
8
 73
4
 74
0
 40
0
 40
0
 40
0
 40
0
 40
1
 40
1
 40
1
 40
1
 10
258.030560
 20
310.514180
 30
0.0
 10
257.560120
 20
312.202880
 30
0.0
 10
258.205750
 20
313.643680
 30
0.0
 10
259.432900
 20
313.643680
 30
0.0
  0
SPLINE
  5
34a
100
AcDbEntity
  8
Layer_1
 62
7
100
AcDbSpline
 70
8
 71
3
 72
8
 73
4
 74
0
 40
0
 40
0
 40
0
 40
0
 40
1
 40
1
 40
1
 40
1
 10
259.432900
 20
313.643680
 30
0.0
 10
260.060800
 20
313.643680
 30
0.0
 10
261.181820
 20
314.300880
 30
0.0
 10
261.924060
 20
315.104130
 30
0.0
  0
SPLINE
  5
34b
100
AcDbEntity
  8
Layer_1
 62
7
100
AcDbSpline
 70
8
 71
3
 72
8
 73
4
 74
0
 40
0
 40
0
 40
0
 40
0
 40
1
 40
1
 40
1
 40
1
 10
261.924060
 20
315.104130
 30
0.0
 10
263.260850
 20
316.550790
 30
0.0
 10
263.271940
 20
316.836030
 30
0.0
 10
263.100410
 20
345.348510
 30
0.0
  0
LWPOLYLINE
  5
34c
100
AcDbEntity
  8
Layer_1
 62
7
100
AcDbPolyline
 90
1
 70
1
 10
176.002080
 20
339.863540
 30
0.0
  0
SPLINE
  5
34d
100
AcDbEntity
  8
Layer_1
 62
7
100
AcDbSpline
 70
8
 71
3
 72
8
 73
4
 74
0
 40
0
 40
0
 40
0
 40
0
 40
1
 40
1
 40
1
 40
1
 10
260.800120
 20
375.458060
 30
0.0
 10
258.529370
 20
376.873170
 30
0.0
 10
257.238540
 20
379.058280
 30
0.0
 10
257.872880
 20
380.413230
 30
0.0
  0
SPLINE
  5
34e
100
AcDbEntity
  8
Layer_1
 62
7
100
AcDbSpline
 70
8
 71
3
 72
8
 73
4
 74
0
 40
0
 40
0
 40
0
 40
0
 40
1
 40
1
 40
1
 40
1
 10
257.872880
 20
380.413230
 30
0.0
 10
258.099390
 20
380.897010
 30
0.0
 10
261.941310
 20
381.241160
 30
0.0
 10
267.115740
 20
381.241160
 30
0.0
  0
LWPOLYLINE
  5
34f
100
AcDbEntity
  8
Layer_1
 62
7
100
AcDbPolyline
 90
3
 70
0
 10
263.100410
 20
345.348510
 30
0.0
 10
262.927260
 20
374.132450
 30
0.0
 10
260.800120
 20
375.458060
 30
0.0
  0
SPLINE
  5
350
100
AcDbEntity
  8
Layer_1
 62
7
100
AcDbSpline
 70
8
 71
3
 72
8
 73
4
 74
0
 40
0
 40
0
 40
0
 40
0
 40
1
 40
1
 40
1
 40
1
 10
275.770960
 20
378.946190
 30
0.0
 10
275.608360
 20
377.080690
 30
0.0
 10
275.138430
 20
376.510130
 30
0.0
 10
273.259880
 20
375.897350
 30
0.0
  0
SPLINE
  5
351
100
AcDbEntity
  8
Layer_1
 62
7
100
AcDbSpline
 70
8
 71
3
 72
8
 73
4
 74
0
 40
0
 40
0
 40
0
 40
0
 40
1
 40
1
 40
1
 40
1
 10
273.259880
 20
375.897350
 30
0.0
 10
270.344730
 20
374.946450
 30
0.0
 10
270.191980
 20
374.047670
 30
0.0
 10
270.214380
 20
357.978460
 30
0.0
  0
LWPOLYLINE
  5
352
100
AcDbEntity
  8
Layer_1
 62
7
100
AcDbPolyline
 90
3
 70
0
 10
267.115740
 20
381.241160
 30
0.0
 10
275.970990
 20
381.241160
 30
0.0
 10
275.770960
 20
378.946190
 30
0.0
  0
SPLINE
  5
353
100
AcDbEntity
  8
Layer_1
 62
7
100
AcDbSpline
 70
8
 71
3
 72
8
 73
4
 74
0
 40
0
 40
0
 40
0
 40
0
 40
1
 40
1
 40
1
 40
1
 10
272.127360
 20
348.694220
 30
0.0
 10
278.116840
 20
357.921360
 30
0.0
 10
283.704400
 20
368.958470
 30
0.0
 10
284.440850
 20
373.017090
 30
0.0
  0
SPLINE
  5
354
100
AcDbEntity
  8
Layer_1
 62
7
100
AcDbSpline
 70
8
 71
3
 72
8
 73
4
 74
0
 40
0
 40
0
 40
0
 40
0
 40
1
 40
1
 40
1
 40
1
 10
284.440850
 20
373.017090
 30
0.0
 10
284.798790
 20
374.989800
 30
0.0
 10
284.596640
 20
375.331350
 30
0.0
 10
282.540880
 20
376.227000
 30
0.0
  0
SPLINE
  5
355
100
AcDbEntity
  8
Layer_1
 62
7
100
AcDbSpline
 70
8
 71
3
 72
8
 73
4
 74
0
 40
0
 40
0
 40
0
 40
0
 40
1
 40
1
 40
1
 40
1
 10
282.540880
 20
376.227000
 30
0.0
 10
280.723240
 20
377.018880
 30
0.0
 10
280.281040
 20
377.606550
 30
0.0
 10
280.434350
 20
379.026570
 30
0.0
  0
SPLINE
  5
356
100
AcDbEntity
  8
Layer_1
 62
7
100
AcDbSpline
 70
8
 71
3
 72
8
 73
4
 74
0
 40
0
 40
0
 40
0
 40
0
 40
1
 40
1
 40
1
 40
1
 10
280.434350
 20
379.026570
 30
0.0
 10
280.619920
 20
380.745560
 30
0.0
 10
280.981560
 20
380.834080
 30
0.0
 10
288.732570
 20
381.057880
 30
0.0
  0
LWPOLYLINE
  5
357
100
AcDbEntity
  8
Layer_1
 62
7
100
AcDbPolyline
 90
3
 70
0
 10
270.214380
 20
357.978460
 30
0.0
 10
270.231380
 20
345.773340
 30
0.0
 10
272.127360
 20
348.694220
 30
0.0
  0
SPLINE
  5
358
100
AcDbEntity
  8
Layer_1
 62
7
100
AcDbSpline
 70
8
 71
3
 72
8
 73
4
 74
0
 40
0
 40
0
 40
0
 40
0
 40
1
 40
1
 40
1
 40
1
 10
296.634860
 20
378.998280
 30
0.0
 10
296.468840
 20
377.112270
 30
0.0
 10
296.009670
 20
376.573350
 30
0.0
 10
294.050940
 20
375.965610
 30
0.0
  0
SPLINE
  5
359
100
AcDbEntity
  8
Layer_1
 62
7
100
AcDbSpline
 70
8
 71
3
 72
8
 73
4
 74
0
 40
0
 40
0
 40
0
 40
0
 40
1
 40
1
 40
1
 40
1
 10
294.050940
 20
375.965610
 30
0.0
 10
291.380100
 20
375.136910
 30
0.0
 10
289.795840
 20
372.844120
 30
0.0
 10
283.568410
 20
360.795010
 30
0.0
  0
SPLINE
  5
35a
100
AcDbEntity
  8
Layer_1
 62
7
100
AcDbSpline
 70
8
 71
3
 72
8
 73
4
 74
0
 40
0
 40
0
 40
0
 40
0
 40
1
 40
1
 40
1
 40
1
 10
283.568410
 20
360.795010
 30
0.0
 10
281.433380
 20
356.664050
 30
0.0
 10
279.128110
 20
352.316160
 30
0.0
 10
278.445590
 20
351.133020
 30
0.0
  0
LWPOLYLINE
  5
35b
100
AcDbEntity
  8
Layer_1
 62
7
100
AcDbPolyline
 90
3
 70
0
 10
288.732570
 20
381.057880
 30
0.0
 10
296.836750
 20
381.291890
 30
0.0
 10
296.634860
 20
378.998280
 30
0.0
  0
SPLINE
  5
35c
100
AcDbEntity
  8
Layer_1
 62
7
100
AcDbSpline
 70
8
 71
3
 72
8
 73
4
 74
0
 40
0
 40
0
 40
0
 40
0
 40
1
 40
1
 40
1
 40
1
 10
281.969520
 20
339.449520
 30
0.0
 10
284.590190
 20
334.206720
 30
0.0
 10
287.471820
 20
328.227210
 30
0.0
 10
288.373130
 20
326.161730
 30
0.0
  0
SPLINE
  5
35d
100
AcDbEntity
  8
Layer_1
 62
7
100
AcDbSpline
 70
8
 71
3
 72
8
 73
4
 74
0
 40
0
 40
0
 40
0
 40
0
 40
1
 40
1
 40
1
 40
1
 10
288.373130
 20
326.161730
 30
0.0
 10
291.335130
 20
319.373960
 30
0.0
 10
293.962480
 20
315.692260
 30
0.0
 10
296.693410
 20
314.502470
 30
0.0
  0
SPLINE
  5
35e
100
AcDbEntity
  8
Layer_1
 62
7
100
AcDbSpline
 70
8
 71
3
 72
8
 73
4
 74
0
 40
0
 40
0
 40
0
 40
0
 40
1
 40
1
 40
1
 40
1
 10
296.693410
 20
314.502470
 30
0.0
 10
298.738480
 20
313.611500
 30
0.0
 10
299.277790
 20
312.969030
 30
0.0
 10
299.277790
 20
311.423770
 30
0.0
  0
SPLINE
  5
35f
100
AcDbEntity
  8
Layer_1
 62
7
100
AcDbSpline
 70
8
 71
3
 72
8
 73
4
 74
0
 40
0
 40
0
 40
0
 40
0
 40
1
 40
1
 40
1
 40
1
 10
299.277790
 20
311.423770
 30
0.0
 10
299.277790
 20
309.508720
 30
0.0
 10
299.157600
 20
309.471010
 30
0.0
 10
293.056430
 20
309.471010
 30
0.0
  0
LWPOLYLINE
  5
360
100
AcDbEntity
  8
Layer_1
 62
7
100
AcDbPolyline
 90
3
 70
0
 10
278.445590
 20
351.133020
 30
0.0
 10
277.204650
 20
348.981870
 30
0.0
 10
281.969520
 20
339.449520
 30
0.0
  0
SPLINE
  5
361
100
AcDbEntity
  8
Layer_1
 62
7
100
AcDbSpline
 70
8
 71
3
 72
8
 73
4
 74
0
 40
0
 40
0
 40
0
 40
0
 40
1
 40
1
 40
1
 40
1
 10
285.049960
 20
313.852320
 30
0.0
 10
282.747330
 20
319.503860
 30
0.0
 10
271.701840
 20
341.723540
 30
0.0
 10
270.849330
 20
342.419060
 30
0.0
  0
SPLINE
  5
362
100
AcDbEntity
  8
Layer_1
 62
7
100
AcDbSpline
 70
8
 71
3
 72
8
 73
4
 74
0
 40
0
 40
0
 40
0
 40
0
 40
1
 40
1
 40
1
 40
1
 10
270.849330
 20
342.419060
 30
0.0
 10
270.412530
 20
342.775430
 30
0.0
 10
270.197360
 20
338.803620
 30
0.0
 10
270.197360
 20
330.383680
 30
0.0
  0
SPLINE
  5
363
100
AcDbEntity
  8
Layer_1
 62
7
100
AcDbSpline
 70
8
 71
3
 72
8
 73
4
 74
0
 40
0
 40
0
 40
0
 40
0
 40
1
 40
1
 40
1
 40
1
 10
270.197360
 20
330.383680
 30
0.0
 10
270.197360
 20
318.983050
 30
0.0
 10
270.313260
 20
317.663390
 30
0.0
 10
271.445650
 20
316.168540
 30
0.0
  0
SPLINE
  5
364
100
AcDbEntity
  8
Layer_1
 62
7
100
AcDbSpline
 70
8
 71
3
 72
8
 73
4
 74
0
 40
0
 40
0
 40
0
 40
0
 40
1
 40
1
 40
1
 40
1
 10
271.445650
 20
316.168540
 30
0.0
 10
272.132210
 20
315.262220
 30
0.0
 10
273.412370
 20
314.282640
 30
0.0
 10
274.290480
 20
313.991720
 30
0.0
  0
SPLINE
  5
365
100
AcDbEntity
  8
Layer_1
 62
7
100
AcDbSpline
 70
8
 71
3
 72
8
 73
4
 74
0
 40
0
 40
0
 40
0
 40
0
 40
1
 40
1
 40
1
 40
1
 10
274.290480
 20
313.991720
 30
0.0
 10
275.441000
 20
313.610520
 30
0.0
 10
275.887010
 20
312.905170
 30
0.0
 10
275.887010
 20
311.466870
 30
0.0
  0
LWPOLYLINE
  5
366
100
AcDbEntity
  8
Layer_1
 62
7
100
AcDbPolyline
 90
3
 70
0
 10
293.056430
 20
309.471010
 30
0.0
 10
286.835060
 20
309.471010
 30
0.0
 10
285.049960
 20
313.852320
 30
0.0
  0
SPLINE
  5
367
100
AcDbEntity
  8
Layer_1
 62
7
100
AcDbSpline
 70
8
 71
3
 72
8
 73
4
 74
0
 40
0
 40
0
 40
0
 40
0
 40
1
 40
1
 40
1
 40
1
 10
267.104090
 20
309.471010
 30
0.0
 10
260.654190
 20
309.471010
 30
0.0
 10
258.243970
 20
309.748110
 30
0.0
 10
258.030560
 20
310.514180
 30
0.0
  0
LWPOLYLINE
  5
368
100
AcDbEntity
  8
Layer_1
 62
7
100
AcDbPolyline
 90
3
 70
0
 10
275.887010
 20
311.466870
 30
0.0
 10
275.887010
 20
309.471010
 30
0.0
 10
267.104090
 20
309.471010
 30
0.0
  0
SPLINE
  5
369
100
AcDbEntity
  8
Layer_1
 62
7
100
AcDbSpline
 70
8
 71
3
 72
8
 73
4
 74
0
 40
0
 40
0
 40
0
 40
0
 40
1
 40
1
 40
1
 40
1
 10
313.818000
 20
311.557350
 30
0.0
 10
313.818000
 20
313.109470
 30
0.0
 10
314.152390
 20
313.643680
 30
0.0
 10
315.123920
 20
313.643680
 30
0.0
  0
SPLINE
  5
36a
100
AcDbEntity
  8
Layer_1
 62
7
100
AcDbSpline
 70
8
 71
3
 72
8
 73
4
 74
0
 40
0
 40
0
 40
0
 40
0
 40
1
 40
1
 40
1
 40
1
 10
315.123920
 20
313.643680
 30
0.0
 10
316.611260
 20
313.643680
 30
0.0
 10
318.966820
 20
315.118310
 30
0.0
 10
319.656010
 20
316.480850
 30
0.0
  0
SPLINE
  5
36b
100
AcDbEntity
  8
Layer_1
 62
7
100
AcDbSpline
 70
8
 71
3
 72
8
 73
4
 74
0
 40
0
 40
0
 40
0
 40
0
 40
1
 40
1
 40
1
 40
1
 10
319.656010
 20
316.480850
 30
0.0
 10
319.911460
 20
316.985900
 30
0.0
 10
320.124830
 20
329.827660
 30
0.0
 10
320.130150
 20
345.018100
 30
0.0
  0
SPLINE
  5
36c
100
AcDbEntity
  8
Layer_1
 62
7
100
AcDbSpline
 70
8
 71
3
 72
8
 73
4
 74
0
 40
0
 40
0
 40
0
 40
0
 40
1
 40
1
 40
1
 40
1
 10
320.130150
 20
345.018100
 30
0.0
 10
320.140850
 20
375.537280
 30
0.0
 10
320.321510
 20
374.172690
 30
0.0
 10
316.030630
 20
375.980770
 30
0.0
  0
SPLINE
  5
36d
100
AcDbEntity
  8
Layer_1
 62
7
100
AcDbSpline
 70
8
 71
3
 72
8
 73
4
 74
0
 40
0
 40
0
 40
0
 40
0
 40
1
 40
1
 40
1
 40
1
 10
316.030630
 20
375.980770
 30
0.0
 10
314.633780
 20
376.569360
 30
0.0
 10
314.080960
 20
377.373430
 30
0.0
 10
313.932440
 20
379.032580
 30
0.0
  0
LWPOLYLINE
  5
36e
100
AcDbEntity
  8
Layer_1
 62
7
100
AcDbPolyline
 90
1
 70
1
 10
258.030560
 20
310.514180
 30
0.0
  0
SPLINE
  5
36f
100
AcDbEntity
  8
Layer_1
 62
7
100
AcDbSpline
 70
8
 71
3
 72
8
 73
4
 74
0
 40
0
 40
0
 40
0
 40
0
 40
1
 40
1
 40
1
 40
1
 10
323.415190
 20
381.054580
 30
0.0
 10
332.842470
 20
380.830010
 30
0.0
 10
333.104830
 20
380.775250
 30
0.0
 10
333.297010
 20
378.992340
 30
0.0
  0
SPLINE
  5
370
100
AcDbEntity
  8
Layer_1
 62
7
100
AcDbSpline
 70
8
 71
3
 72
8
 73
4
 74
0
 40
0
 40
0
 40
0
 40
0
 40
1
 40
1
 40
1
 40
1
 10
333.297010
 20
378.992340
 30
0.0
 10
333.461750
 20
377.464070
 30
0.0
 10
333.043050
 20
377.000670
 30
0.0
 10
330.768280
 20
376.193730
 30
0.0
  0
SPLINE
  5
371
100
AcDbEntity
  8
Layer_1
 62
7
100
AcDbSpline
 70
8
 71
3
 72
8
 73
4
 74
0
 40
0
 40
0
 40
0
 40
0
 40
1
 40
1
 40
1
 40
1
 10
330.768280
 20
376.193730
 30
0.0
 10
329.268890
 20
375.661850
 30
0.0
 10
327.833110
 20
374.796100
 30
0.0
 10
327.577660
 20
374.269860
 30
0.0
  0
SPLINE
  5
372
100
AcDbEntity
  8
Layer_1
 62
7
100
AcDbSpline
 70
8
 71
3
 72
8
 73
4
 74
0
 40
0
 40
0
 40
0
 40
0
 40
1
 40
1
 40
1
 40
1
 10
327.577660
 20
374.269860
 30
0.0
 10
327.322200
 20
373.743620
 30
0.0
 10
327.108850
 20
360.826300
 30
0.0
 10
327.103520
 20
345.564720
 30
0.0
  0
SPLINE
  5
373
100
AcDbEntity
  8
Layer_1
 62
7
100
AcDbSpline
 70
8
 71
3
 72
8
 73
4
 74
0
 40
0
 40
0
 40
0
 40
0
 40
1
 40
1
 40
1
 40
1
 10
327.103520
 20
345.564720
 30
0.0
 10
327.094520
 20
318.777900
 30
0.0
 10
327.138320
 20
317.757630
 30
0.0
 10
328.377970
 20
316.121220
 30
0.0
  0
SPLINE
  5
374
100
AcDbEntity
  8
Layer_1
 62
7
100
AcDbSpline
 70
8
 71
3
 72
8
 73
4
 74
0
 40
0
 40
0
 40
0
 40
0
 40
1
 40
1
 40
1
 40
1
 10
328.377970
 20
316.121220
 30
0.0
 10
329.084230
 20
315.188880
 30
0.0
 10
330.506650
 20
314.203080
 30
0.0
 10
331.538880
 20
313.930560
 30
0.0
  0
SPLINE
  5
375
100
AcDbEntity
  8
Layer_1
 62
7
100
AcDbSpline
 70
8
 71
3
 72
8
 73
4
 74
0
 40
0
 40
0
 40
0
 40
0
 40
1
 40
1
 40
1
 40
1
 10
331.538880
 20
313.930560
 30
0.0
 10
332.987640
 20
313.548070
 30
0.0
 10
333.415670
 20
312.983010
 30
0.0
 10
333.415670
 20
311.453030
 30
0.0
  0
LWPOLYLINE
  5
376
100
AcDbEntity
  8
Layer_1
 62
7
100
AcDbPolyline
 90
3
 70
0
 10
313.932440
 20
379.032580
 30
0.0
 10
313.730800
 20
381.285260
 30
0.0
 10
323.415190
 20
381.054580
 30
0.0
  0
LWPOLYLINE
  5
377
100
AcDbEntity
  8
Layer_1
 62
7
100
AcDbPolyline
 90
5
 70
0
 10
333.415670
 20
311.453030
 30
0.0
 10
333.415670
 20
309.471010
 30
0.0
 10
323.616840
 20
309.471010
 30
0.0
 10
313.818000
 20
309.471010
 30
0.0
 10
313.818000
 20
311.557350
 30
0.0
  0
ENDSEC
  0
SECTION
  2
OBJECTS
  0
DICTIONARY
  5
C
330
0
100
AcDbDictionary
  3
ACAD_GROUP
350
D
  3
ACAD_MLINESTYLE
350
17
  0
DICTIONARY
  5
D
330
C
100
AcDbDictionary
  0
DICTIONARY
  5
1A
330
C
100
AcDbDictionary
  0
DICTIONARY
  5
17
330
C
100
AcDbDictionary
  3
STANDARD
350
18
  0
DICTIONARY
  5
19
330
C
100
AcDbDictionary
  0
ENDSEC
  0
EOF
