0
SECTION
2
HEADER
9
$INSUNITS
70
4
9
$ACADVER
1
AC1014
9
$HANDSEED
5
FFFF
0
ENDSEC
0
SECTION
2
TABLES
0
TABLE
2
VPORT
5
8
100
AcDbSymbolTable
0
ENDTAB
0
TABLE
2
LTYPE
5
5
100
AcDbSymbolTable
0
LTYPE
5
14
100
AcDbSymbolTableRecord
100
AcDbLinetypeTableRecord
2
BYBLOCK
70
0
0
LTYPE
5
15
100
AcDbSymbolTableRecord
100
AcDbLinetypeTableRecord
2
BYLAYER
70
0
0
ENDTAB
0
TABLE
2
LAYER
5
2
100
AcDbSymbolTable
70
2
0
LAYER
5
50
100
AcDbSymbolTableRecord
100
AcDbLayerTableRecord
2
0
70
0
6
CONTINUOUS
0
ENDTAB
0
TABLE
2
STYLE
5
3
100
AcDbSymbolTable
70
1
0
STYLE
5
11
100
AcDbSymbolTableRecord
100
AcDbTextStyleTableRecord
2
STANDARD
70
0
0
ENDTAB
0
TABLE
2
VIEW
5
6
100
AcDbSymbolTable
70
0
0
ENDTAB
0
TABLE
2
UCS
5
7
100
AcDbSymbolTable
70
0
0
ENDTAB
0
TABLE
2
APPID
5
9
100
AcDbSymbolTable
70
2
0
APPID
5
12
100
AcDbSymbolTableRecord
100
AcDbRegAppTableRecord
2
ACAD
70
0
0
ENDTAB
0
TABLE
2
DIMSTYLE
5
A
100
AcDbSymbolTable
70
1
0
ENDTAB
0
TABLE
2
BLOCK_RECORD
5
1
100
AcDbSymbolTable
70
1
0
BLOCK_RECORD
5
1F
100
AcDbSymbolTableRecord
100
AcDbBlockTableRecord
2
*MODEL_SPACE
0
BLOCK_RECORD
5
1B
100
AcDbSymbolTableRecord
100
AcDbBlockTableRecord
2
*PAPER_SPACE
0
ENDTAB
0
ENDSEC
0
SECTION
2
BLOCKS
0
BLOCK
5
20
100
AcDbEntity
100
AcDbBlockBegin
2
*MODEL_SPACE
0
ENDBLK
5
21
100
AcDbEntity
100
AcDbBlockEnd
0
BLOCK
5
1C
100
AcDbEntity
100
AcDbBlockBegin
2
*PAPER_SPACE
0
ENDBLK
5
1D
100
AcDbEntity
100
AcDbBlockEnd
0
ENDSEC
0
SECTION
2
ENTITIES
0
LWPOLYLINE
5
100
100
AcDbEntity
8
0
100
AcDbPolyline
90
6
70
1
43
0.0
10
520.30556207692007
20
62
10
546.49443792307966
20
62.000000000000028
42
-0.80726224838675587
10
548.14364352197094
20
54.355809981273488
10
535.04920559889104
20
48.429823623233979
42
-0.21574628506762403
10
531.75079440110858
20
48.429823623233986
10
518.65635647802878
20
54.355809981273509
42
-0.80726224838675531
0
LWPOLYLINE
5
101
100
AcDbEntity
8
0
100
AcDbPolyline
90
6
70
1
43
0.0
10
17.999999999999989
20
22
10
18.000000000000011
20
53.168627104013659
42
-0.54493181319107731
10
23.649205598891214
20
56.812817122740128
10
92.521394649314658
20
25.644190018726498
42
-0.80726224838675764
10
90.872189050423415
20
18
10
22.000000000000028
20
18
42
-0.41421356237309698
0
LINE
5
102
100
AcDbEntity
8
0
100
AcDbLine
10
1066.8000000000002
20
80
30
0
11
0
21
80
31
0
0
LINE
5
103
100
AcDbEntity
8
0
100
AcDbLine
10
0
20
80
30
0
11
0
21
0
31
0
0
LINE
5
104
100
AcDbEntity
8
0
100
AcDbLine
10
761.33571428571429
20
0
30
0
11
906.49285714285725
21
0
31
0
0
LINE
5
105
100
AcDbEntity
8
0
100
AcDbLine
10
1066.8000000000002
20
-3.944304526105059e-30
30
0
11
1066.8000000000002
21
80
31
0
0
LWPOLYLINE
5
106
100
AcDbEntity
8
0
100
AcDbPolyline
90
4
70
1
43
0.0
10
10.050000000000008
20
74.000000000000014
42
0.99999999999999989
10
4.9500000000000091
20
74.000000000000014
10
4.9500000000000117
20
64.713445739534336
42
3.5837042115820914
10
10.050000000000008
20
64.713445739534336
0
LINE
5
107
100
AcDbEntity
8
0
100
AcDbLine
10
611.07857142857154
20
74.000000000000014
30
0
11
611.07857142857154
21
64.713445739534322
31
0
0
ARC
5
108
100
AcDbEntity
8
0
100
AcDbCircle
10
608.52857142857147
20
60.500000000000007
30
0
40
4.9250000000000025
210
0
220
0
230
1
100
AcDbArc
50
-238.81744853933535
51
58.81744853933651
0
LINE
5
109
100
AcDbEntity
8
0
100
AcDbLine
10
605.9785714285714
20
64.713445739534322
30
0
11
605.9785714285714
21
74.000000000000014
31
0
0
ARC
5
110
100
AcDbEntity
8
0
100
AcDbCircle
10
608.52857142857147
20
74.000000000000014
30
0
40
2.5500000000000256
210
0
220
0
230
1
100
AcDbArc
50
0
51
180
0
LINE
5
111
100
AcDbEntity
8
0
100
AcDbLine
10
310.56428571428575
20
74.000000000000014
30
0
11
310.56428571428575
21
64.713445739534336
31
0
0
ARC
5
112
100
AcDbEntity
8
0
100
AcDbCircle
10
308.01428571428573
20
60.500000000000007
30
0
40
4.9249999999999998
210
0
220
0
230
1
100
AcDbArc
50
-238.81744853933603
51
58.817448539336027
0
LINE
5
113
100
AcDbEntity
8
0
100
AcDbLine
10
305.46428571428572
20
64.713445739534336
30
0
11
305.46428571428572
21
74.000000000000014
31
0
0
ARC
5
114
100
AcDbEntity
8
0
100
AcDbCircle
10
308.01428571428573
20
74.000000000000014
30
0
40
2.5500000000000256
210
0
220
0
230
1
100
AcDbArc
50
0
51
180
0
LINE
5
115
100
AcDbEntity
8
0
100
AcDbLine
10
160.30714285714288
20
74.000000000000014
30
0
11
160.30714285714285
21
64.713445739534336
31
0
0
ARC
5
116
100
AcDbEntity
8
0
100
AcDbCircle
10
157.75714285714287
20
60.500000000000007
30
0
40
4.9249999999999998
210
0
220
0
230
1
100
AcDbArc
50
-238.81744853933631
51
58.817448539336318
0
LINE
5
117
100
AcDbEntity
8
0
100
AcDbLine
10
155.20714285714288
20
64.713445739534336
30
0
11
155.20714285714288
21
74.000000000000014
31
0
0
ARC
5
118
100
AcDbEntity
8
0
100
AcDbCircle
10
157.75714285714287
20
74.000000000000014
30
0
40
2.5500000000000256
210
0
220
0
230
1
100
AcDbArc
50
0
51
180
0
LINE
5
119
100
AcDbEntity
8
0
100
AcDbLine
10
761.33571428571429
20
74.000000000000014
30
0
11
761.33571428571429
21
64.71344573953435
31
0
0
ARC
5
120
100
AcDbEntity
8
0
100
AcDbCircle
10
758.78571428571433
20
60.500000000000007
30
0
40
4.9250000000000096
210
0
220
0
230
1
100
AcDbArc
50
-238.8174485393352
51
58.81744853933791
0
LINE
5
121
100
AcDbEntity
8
0
100
AcDbLine
10
756.23571428571427
20
64.713445739534293
30
0
11
756.23571428571438
21
74.000000000000014
31
0
0
ARC
5
122
100
AcDbEntity
8
0
100
AcDbCircle
10
758.78571428571433
20
74.000000000000014
30
0
40
2.5499999999999545
210
0
220
0
230
1
100
AcDbArc
50
0
51
180
0
LINE
5
123
100
AcDbEntity
8
0
100
AcDbLine
10
460.82142857142861
20
74.000000000000014
30
0
11
460.82142857142861
21
64.713445739534322
31
0
0
ARC
5
124
100
AcDbEntity
8
0
100
AcDbCircle
10
458.2714285714286
20
60.500000000000007
30
0
40
4.9250000000000025
210
0
220
0
230
1
100
AcDbArc
50
-238.81744853933594
51
58.81744853933651
0
LINE
5
125
100
AcDbEntity
8
0
100
AcDbLine
10
455.72142857142859
20
64.713445739534322
30
0
11
455.72142857142859
21
74.000000000000014
31
0
0
ARC
5
126
100
AcDbEntity
8
0
100
AcDbCircle
10
458.2714285714286
20
74.000000000000014
30
0
40
2.5500000000000256
210
0
220
0
230
1
100
AcDbArc
50
0
51
180
0
LINE
5
127
100
AcDbEntity
8
0
100
AcDbLine
10
756.23571428571438
20
0
30
0
11
756.23571428571438
21
5.9999999999999876
31
0
0
ARC
5
128
100
AcDbEntity
8
0
100
AcDbCircle
10
758.78571428571433
20
6.000000000000032
30
0
40
2.5499999999999545
210
0
220
0
230
1
100
AcDbArc
50
0
51
180
0
LINE
5
129
100
AcDbEntity
8
0
100
AcDbLine
10
761.33571428571429
20
5.9999999999999876
30
0
11
761.33571428571429
21
0
31
0
0
LINE
5
130
100
AcDbEntity
8
0
100
AcDbLine
10
0
20
0
30
0
11
4.9500000000000091
21
0
31
0
0
LINE
5
131
100
AcDbEntity
8
0
100
AcDbLine
10
4.9500000000000091
20
0
30
0
11
4.9500000000000099
21
5.9999999999999876
31
0
0
ARC
5
132
100
AcDbEntity
8
0
100
AcDbCircle
10
7.5000000000000089
20
5.9999999999999876
30
0
40
2.5499999999999989
210
0
220
0
230
1
100
AcDbArc
50
0
51
180
0
LINE
5
133
100
AcDbEntity
8
0
100
AcDbLine
10
10.050000000000008
20
5.9999999999999876
30
0
11
10.050000000000008
21
0
31
0
0
LINE
5
134
100
AcDbEntity
8
0
100
AcDbLine
10
10.050000000000008
20
0
30
0
11
155.20714285714288
21
0
31
0
0
LINE
5
135
100
AcDbEntity
8
0
100
AcDbLine
10
155.20714285714288
20
0
30
0
11
155.20714285714288
21
5.9999999999999876
31
0
0
ARC
5
136
100
AcDbEntity
8
0
100
AcDbCircle
10
157.75714285714287
20
5.9999999999999964
30
0
40
2.5499999999999901
210
0
220
0
230
1
100
AcDbArc
50
0
51
180
0
LINE
5
137
100
AcDbEntity
8
0
100
AcDbLine
10
160.30714285714285
20
5.9999999999999876
30
0
11
160.30714285714288
21
0
31
0
0
LINE
5
138
100
AcDbEntity
8
0
100
AcDbLine
10
160.30714285714288
20
0
30
0
11
305.46428571428572
21
0
31
0
0
LINE
5
139
100
AcDbEntity
8
0
100
AcDbLine
10
305.46428571428572
20
0
30
0
11
305.46428571428572
21
5.9999999999999876
31
0
0
ARC
5
140
100
AcDbEntity
8
0
100
AcDbCircle
10
308.01428571428573
20
6.0000000000000142
30
0
40
2.5499999999999901
210
0
220
0
230
1
100
AcDbArc
50
0
51
180
0
LINE
5
141
100
AcDbEntity
8
0
100
AcDbLine
10
310.56428571428575
20
5.9999999999999876
30
0
11
310.56428571428575
21
0
31
0
0
LINE
5
142
100
AcDbEntity
8
0
100
AcDbLine
10
310.56428571428575
20
0
30
0
11
455.72142857142865
21
0
31
0
0
LINE
5
143
100
AcDbEntity
8
0
100
AcDbLine
10
455.72142857142865
20
0
30
0
11
455.72142857142859
21
5.9999999999999876
31
0
0
ARC
5
144
100
AcDbEntity
8
0
100
AcDbCircle
10
458.2714285714286
20
5.9999999999999964
30
0
40
2.5500000000000256
210
-0
220
0
230
1
100
AcDbArc
50
0
51
180
0
LINE
5
145
100
AcDbEntity
8
0
100
AcDbLine
10
460.82142857142861
20
5.9999999999999876
30
0
11
460.82142857142861
21
0
31
0
0
LINE
5
146
100
AcDbEntity
8
0
100
AcDbLine
10
460.82142857142861
20
0
30
0
11
605.97857142857151
21
0
31
0
0
LINE
5
147
100
AcDbEntity
8
0
100
AcDbLine
10
605.97857142857151
20
0
30
0
11
605.9785714285714
21
5.9999999999999876
31
0
0
ARC
5
148
100
AcDbEntity
8
0
100
AcDbCircle
10
608.52857142857147
20
5.9999999999999964
30
0
40
2.5500000000000256
210
0
220
0
230
1
100
AcDbArc
50
0
51
180
0
LINE
5
149
100
AcDbEntity
8
0
100
AcDbLine
10
611.07857142857154
20
5.9999999999999876
30
0
11
611.07857142857154
21
0
31
0
0
LINE
5
150
100
AcDbEntity
8
0
100
AcDbLine
10
611.07857142857154
20
0
30
0
11
756.23571428571438
21
0
31
0
0
SPLINE
5
151
100
AcDbEntity
8
0
100
AcDbSpline
70
0
71
3
72
8
73
4
74
0
42
0.000000001
43
0.0000000001
44
0.0000000001
40
-1
40
-1
40
-1
40
-1
40
0
40
0
40
0
40
0
10
666.16800688948842
20
10.473014426118485
30
0
10
666.24128518948828
20
10.162475726118437
30
0
10
666.1021772894884
20
9.840652826118518
30
0
10
665.82585688948836
20
9.6811251261184044
30
0
0
LINE
5
152
100
AcDbEntity
8
0
100
AcDbLine
10
665.82585688948825
20
9.6811251261184044
30
0
11
661.96686748948832
21
7.4530434261187919
31
0
0
SPLINE
5
153
100
AcDbEntity
8
0
100
AcDbSpline
70
0
71
3
72
8
73
4
74
0
42
0.000000001
43
0.0000000001
44
0.0000000001
40
-1
40
-1
40
-1
40
-1
40
0
40
0
40
0
40
0
10
661.96686748948832
20
7.4530434261187919
30
0
10
661.69053928948847
20
7.2935076261186103
30
0
10
661.3423274894883
20
7.3340094261185094
30
0
10
661.11002068948835
20
7.5527271261185778
30
0
0
SPLINE
5
154
100
AcDbEntity
8
0
100
AcDbSpline
70
0
71
3
72
8
73
4
74
0
42
0.000000001
43
0.0000000001
44
0.0000000001
40
-1
40
-1
40
-1
40
-1
40
0
40
0
40
0
40
0
10
661.11002068948835
20
7.5527271261185778
30
0
10
657.76229278948847
20
10.704811826118716
30
0
10
653.72695198948827
20
13.034712326118605
30
0
10
649.32329848948848
20
14.357893526118502
30
0
0
SPLINE
5
155
100
AcDbEntity
8
0
100
AcDbSpline
70
0
71
3
72
8
73
4
74
0
42
0.000000001
43
0.0000000001
44
0.0000000001
40
-1
40
-1
40
-1
40
-1
40
0
40
0
40
0
40
0
10
649.32329848948848
20
14.357893526118502
30
0
10
649.01774428948841
20
14.449714526118488
30
0
10
648.8084459894884
20
14.731035626118496
30
0
10
648.8084459894884
20
15.050099126118583
30
0
0
LINE
5
156
100
AcDbEntity
8
0
100
AcDbLine
10
648.8084459894884
20
15.050099126118583
30
0
11
648.8084459894884
21
19.50610622611865
31
0
0
SPLINE
5
157
100
AcDbEntity
8
0
100
AcDbSpline
70
0
71
3
72
8
73
4
74
0
42
0.000000001
43
0.0000000001
44
0.0000000001
40
-1
40
-1
40
-1
40
-1
40
0
40
0
40
0
40
0
10
666.16800688948842
20
24.083190926118725
30
0
10
665.11208908948845
20
19.607925326118462
30
0
10
665.11208908948845
20
14.94828002611853
30
0
10
666.16800688948842
20
10.473014426118485
30
0
0
LWPOLYLINE
5
158
100
AcDbEntity
8
0
100
AcDbPolyline
90
4
70
1
43
0.0
10
1061.8499999999999
20
74.000000000000014
10
1061.8500000000001
20
64.713445739534365
42
-3.5837042115820483
10
1056.75
20
64.713445739534293
10
1056.75
20
74.000000000000014
42
-0.99999999999999989
0
ARC
5
159
100
AcDbEntity
8
0
100
AcDbCircle
10
909.0428571428572
20
60.500000000000007
30
0
40
4.9250000000000096
210
0
220
0
230
1
100
AcDbArc
50
-238.8174485393352
51
58.81744853933791
0
LINE
5
160
100
AcDbEntity
8
0
100
AcDbLine
10
906.49285714285713
20
64.713445739534293
30
0
11
906.49285714285725
21
74.000000000000014
31
0
0
ARC
5
161
100
AcDbEntity
8
0
100
AcDbCircle
10
909.0428571428572
20
74.000000000000014
30
0
40
2.5499999999999545
210
0
220
0
230
1
100
AcDbArc
50
0
51
180
0
LINE
5
162
100
AcDbEntity
8
0
100
AcDbLine
10
911.59285714285716
20
74.000000000000014
30
0
11
911.59285714285716
21
64.71344573953435
31
0
0
LINE
5
163
100
AcDbEntity
8
0
100
AcDbLine
10
906.49285714285725
20
0
30
0
11
906.49285714285725
21
5.9999999999999876
31
0
0
ARC
5
164
100
AcDbEntity
8
0
100
AcDbCircle
10
909.0428571428572
20
6.000000000000032
30
0
40
2.5499999999999545
210
0
220
0
230
1
100
AcDbArc
50
0
51
180
0
LINE
5
165
100
AcDbEntity
8
0
100
AcDbLine
10
911.59285714285716
20
5.9999999999999876
30
0
11
911.59285714285716
21
0
31
0
0
LINE
5
166
100
AcDbEntity
8
0
100
AcDbLine
10
911.59285714285716
20
0
30
0
11
1056.75
21
0
31
0
0
LINE
5
167
100
AcDbEntity
8
0
100
AcDbLine
10
1056.75
20
0
30
0
11
1056.75
21
5.9999999999999876
31
0
0
ARC
5
168
100
AcDbEntity
8
0
100
AcDbCircle
10
1059.3000000000002
20
6.000000000000032
30
0
40
2.5499999999999545
210
0
220
0
230
1
100
AcDbArc
50
0
51
180
0
LINE
5
169
100
AcDbEntity
8
0
100
AcDbLine
10
1061.8499999999999
20
5.9999999999999876
30
0
11
1061.8499999999999
21
0
31
0
0
LINE
5
170
100
AcDbEntity
8
0
100
AcDbLine
10
1061.8499999999999
20
0
30
0
11
1066.8000000000002
21
-3.944304526105059e-30
31
0
0
SPLINE
5
171
100
AcDbEntity
8
0
100
AcDbSpline
70
0
71
3
72
8
73
4
74
0
42
0.000000001
43
0.0000000001
44
0.0000000001
40
-1
40
-1
40
-1
40
-1
40
0
40
0
40
0
40
0
10
648.8084459894884
20
19.50610622611865
30
0
10
648.8084459894884
20
19.825169726118506
30
0
10
649.01774428948841
20
20.106498626118565
30
0
10
649.32329848948848
20
20.198312426118751
30
0
0
SPLINE
5
172
100
AcDbEntity
8
0
100
AcDbSpline
70
0
71
3
72
8
73
4
74
0
42
0.000000001
43
0.0000000001
44
0.0000000001
40
-1
40
-1
40
-1
40
-1
40
0
40
0
40
0
40
0
10
649.32329848948848
20
20.198312426118751
30
0
10
653.72695198948827
20
21.521501726118469
30
0
10
657.76229278948847
20
23.851398326118435
30
0
10
661.11002068948835
20
27.003474026118475
30
0
0
SPLINE
5
173
100
AcDbEntity
8
0
100
AcDbSpline
70
0
71
3
72
8
73
4
74
0
42
0.000000001
43
0.0000000001
44
0.0000000001
40
-1
40
-1
40
-1
40
-1
40
0
40
0
40
0
40
0
10
661.11002068948835
20
27.003474026118475
30
0
10
661.24069348948842
20
27.126513326118548
30
0
10
661.40791678948835
20
27.193085126118568
30
0
10
661.57851898948832
20
27.199435226118531
30
0
0
SPLINE
5
174
100
AcDbEntity
8
0
100
AcDbSpline
70
0
71
3
72
8
73
4
74
0
42
0.000000001
43
0.0000000001
44
0.0000000001
40
-1
40
-1
40
-1
40
-1
40
0
40
0
40
0
40
0
10
661.57851898948832
20
27.199435226118531
30
0
10
661.71121018948838
20
27.204396026118474
30
0
10
661.84597378948843
20
27.172955726118477
30
0
10
661.96686748948832
20
27.103161326118396
30
0
0
LINE
5
175
100
AcDbEntity
8
0
100
AcDbLine
10
661.96686748948832
20
27.103161326118396
30
0
11
665.82585688948836
21
24.875081126118385
31
0
0
SPLINE
5
176
100
AcDbEntity
8
0
100
AcDbSpline
70
0
71
3
72
8
73
4
74
0
42
0.000000001
43
0.0000000001
44
0.0000000001
40
-1
40
-1
40
-1
40
-1
40
0
40
0
40
0
40
0
10
665.82585688948836
20
24.875081126118385
30
0
10
666.1021772894884
20
24.715545326118431
30
0
10
666.24128578948842
20
24.393729626118308
30
0
10
666.16800688948842
20
24.083190926118725
30
0
0
LWPOLYLINE
5
177
100
AcDbEntity
8
0
100
AcDbPolyline
90
6
70
1
43
0.0
10
293.36508011539445
20
22.508346596598198
10
222.99289106497116
20
54.355809981273524
42
-0.80726224838675242
10
224.64209666386245
20
62
10
295.01428571428596
20
61.999999999999986
42
-0.41421356237309698
10
299.01428571428596
20
57.999999999999972
10
299.01428571428573
20
26.152536615324667
42
-0.54493181319107831
0
LWPOLYLINE
5
178
100
AcDbEntity
8
0
100
AcDbPolyline
90
6
70
1
43
0.0
10
317.01428571428562
20
22.000000000000007
10
317.01428571428573
20
53.847463384675471
42
-0.54493181319107864
10
322.66349131317696
20
57.491653403401955
10
393.03568036360059
20
25.644190018726484
42
-0.80726224838675431
10
391.38647476470936
20
18.000000000000004
10
321.01428571428573
20
17.99999999999995
42
-0.41421356237309509
0
LWPOLYLINE
5
179
100
AcDbEntity
8
0
100
AcDbPolyline
90
6
70
1
43
0.0
10
518.65635647802947
20
25.644190018726512
10
531.75079440110881
20
31.570176376765914
42
-0.21574628506762464
10
535.04920559889138
20
31.570176376765914
10
548.14364352197094
20
25.644190018726487
42
-0.80726224838675475
10
546.49443792307966
20
18
10
520.30556207692075
20
17.999999999999975
42
-0.80726224838675587
0
LWPOLYLINE
5
180
100
AcDbEntity
8
0
100
AcDbPolyline
90
6
70
1
43
0.0
10
896.04285714285709
20
18.000000000000004
10
825.67066809243374
20
18
42
-0.80726224838675498
10
824.02146249354246
20
25.644190018726487
10
894.3936515439658
20
57.491653403401898
42
-0.54493181319107897
10
900.0428571428572
20
53.847463384675358
10
900.0428571428572
20
22
42
-0.41421356237309509
0
LWPOLYLINE
5
181
100
AcDbEntity
8
0
100
AcDbPolyline
90
6
70
1
43
0.0
10
508.36969394213895
20
36.355809981273467
10
472.92063417032006
20
20.313071388969057
42
-0.54493181319107808
10
467.27142857142883
20
23.957261407695533
10
467.27142857142883
20
56.042738592304417
42
-0.5449318131910792
10
472.92063417032006
20
59.686928611030879
10
508.36969394213895
20
43.644190018726476
42
-0.64508008337344336
0
LWPOLYLINE
5
182
100
AcDbEntity
8
0
100
AcDbPolyline
90
6
70
1
43
0.0
10
166.75714285714278
20
22.000000000000007
10
166.75714285714278
20
53.8474633846754
42
-0.54493181319107864
10
172.40634845603407
20
57.491653403401884
10
242.77853750645764
20
25.644190018726491
42
-0.80726224838675664
10
241.12933190756638
20
18.000000000000004
10
170.75714285714284
20
17.99999999999995
42
-0.41421356237309509
0
LWPOLYLINE
5
183
100
AcDbEntity
8
0
100
AcDbPolyline
90
6
70
1
43
0.0
10
148.75714285714284
20
58
10
148.75714285714287
20
26.152536615324635
42
-0.54493181319107553
10
143.10793725825167
20
22.50834659659813
10
72.735748207828195
20
54.355809981273502
42
-0.80726224838675664
10
74.384953806719452
20
62
10
144.7571428571429
20
61.999999999999964
42
-0.4142135623730937
0
LWPOLYLINE
5
184
100
AcDbEntity
8
0
100
AcDbPolyline
90
6
70
1
43
0.0
10
443.6222229725376
20
22.508346596598003
10
373.25003392211391
20
54.355809981273502
42
-0.80726224838675575
10
374.8992395210052
20
62
10
445.27142857142871
20
61.999999999999986
42
-0.4142135623730937
10
449.27142857142871
20
58.000000000000014
10
449.27142857142883
20
26.152536615324529
42
-0.54493181319107986
0
LWPOLYLINE
5
185
100
AcDbEntity
8
0
100
AcDbPolyline
90
6
70
1
43
0.0
10
593.87936582968007
20
20.313071388968972
10
558.43030605786089
20
36.35580998127346
42
-0.64508008337344103
10
558.43030605786089
20
43.64419001872642
10
593.87936582968007
20
59.686928611031092
42
-0.54493181319107953
10
599.52857142857124
20
56.04273859230463
10
599.52857142857124
20
23.957261407695452
42
-0.54493181319107886
0
LWPOLYLINE
5
186
100
AcDbEntity
8
0
100
AcDbPolyline
90
6
70
1
43
0.0
10
693.54996607788598
20
54.355809981273495
10
623.17777702746241
20
22.508346596598091
42
-0.54493181319107908
10
617.52857142857113
20
26.152536615324586
10
617.52857142857135
20
58.000000000000014
42
-0.4142135623730937
10
621.52857142857135
20
62
10
691.9007604789947
20
62.000000000000021
42
-0.80726224838675575
0
LWPOLYLINE
5
187
100
AcDbEntity
8
0
100
AcDbPolyline
90
6
70
1
43
0.0
10
994.06425179217183
20
54.355809981273481
10
923.6920627417486
20
22.508346596598127
42
-0.54493181319107897
10
918.0428571428572
20
26.152536615324664
10
918.0428571428572
20
58
42
-0.41421356237309509
10
922.04285714285732
20
61.999999999999993
10
992.41504619328055
20
62.000000000000028
42
-0.80726224838675642
0
LWPOLYLINE
5
188
100
AcDbEntity
8
0
100
AcDbPolyline
90
6
70
1
43
0.0
10
843.80710893502896
20
54.355809981273524
10
773.43491988460573
20
22.508346596598201
42
-0.54493181319107731
10
767.78571428571445
20
26.15253661532471
10
767.78571428571411
20
57.999999999999972
42
-0.41421356237309698
10
771.78571428571422
20
62
10
842.15790333613768
20
61.999999999999993
42
-0.80726224838675475
0
LWPOLYLINE
5
189
100
AcDbEntity
8
0
100
AcDbPolyline
90
6
70
1
43
0.0
10
749.78571428571422
20
53.847463384675464
10
749.78571428571445
20
22
42
-0.41421356237309509
10
745.78571428571433
20
18.000000000000004
10
675.41352523529088
20
18
42
-0.80726224838675498
10
673.76431963639959
20
25.644190018726487
10
744.13650868682316
20
57.49165340340187
42
-0.54493181319107831
0
LWPOLYLINE
5
190
100
AcDbEntity
8
0
100
AcDbPolyline
90
6
70
1
43
0.0
10
1044.8
20
18
10
975.92781094957661
20
18
42
-0.80726224838675498
10
974.27860535068532
20
25.644190018726487
10
1043.1507944011087
20
56.812817122740128
42
-0.54493181319107664
10
1048.8000000000002
20
53.168627104013581
10
1048.8000000000002
20
22
42
-0.41421356237309509
0
ENDSEC
0
SECTION
2
OBJECTS
0
DICTIONARY
5
C
100
AcDbDictionary
3
ACAD_GROUP
350
D
3
ACAD_MLINESTYLE
350
17
0
DICTIONARY
5
D
100
AcDbDictionary
0
DICTIONARY
5
1A
330
C
100
AcDbDictionary
0
DICTIONARY
5
17
100
AcDbDictionary
0
ENDSEC
0
EOF
